  0
SECTION
  2
HEADER
  9
$ACADVER
  1
AC1009
  9
$DWGCODEPAGE
  3
ansi_1252
  9
$INSBASE
 10
0.0
 20
0.0
 30
0.0
  9
$EXTMIN
 10
-2.992126
 20
-2.992126
 30
0.0
  9
$EXTMAX
 10
2.992126
 20
2.992728
 30
0.0
  9
$LIMMIN
 10
0.0
 20
0.0
  9
$LIMMAX
 10
0.0
 20
0.0
  9
$ORTHOMODE
 70
     0
  9
$REGENMODE
 70
     1
  9
$FILLMODE
 70
     1
  9
$QTEXTMODE
 70
     0
  9
$MIRRTEXT
 70
     1
  9
$DRAGMODE
 70
     2
  9
$LTSCALE
 40
1.0
  9
$OSMODE
 70
     0
  9
$ATTMODE
 70
     1
  9
$TEXTSIZE
 40
0.2
  9
$TRACEWID
 40
0.05
  9
$TEXTSTYLE
  7
STANDARD
  9
$CLAYER
  8
0
  9
$CELTYPE
  6
CONTINUOUS
  9
$CECOLOR
 62
   256
  9
$DIMSCALE
 40
1.0
  9
$DIMASZ
 40
0.18
  9
$DIMEXO
 40
0.0625
  9
$DIMDLI
 40
0.38
  9
$DIMRND
 40
0.0
  9
$DIMDLE
 40
0.0
  9
$DIMEXE
 40
0.18
  9
$DIMTP
 40
0.0
  9
$DIMTM
 40
0.0
  9
$DIMTXT
 40
0.18
  9
$DIMCEN
 40
0.09
  9
$DIMTSZ
 40
0.0
  9
$DIMTOL
 70
     0
  9
$DIMLIM
 70
     0
  9
$DIMTIH
 70
     1
  9
$DIMTOH
 70
     1
  9
$DIMSE1
 70
     0
  9
$DIMSE2
 70
     0
  9
$DIMTAD
 70
     0
  9
$DIMZIN
 70
     0
  9
$DIMBLK
  1

  9
$DIMASO
 70
     1
  9
$DIMSHO
 70
     1
  9
$DIMPOST
  1

  9
$DIMAPOST
  1

  9
$DIMALT
 70
     0
  9
$DIMALTD
 70
     2
  9
$DIMALTF
 40
25.4
  9
$DIMLFAC
 40
1.0
  9
$DIMTOFL
 70
     0
  9
$DIMTVP
 40
0.0
  9
$DIMTIX
 70
     0
  9
$DIMSOXD
 70
     0
  9
$DIMSAH
 70
     0
  9
$DIMBLK1
  1

  9
$DIMBLK2
  1

  9
$DIMSTYLE
  2
STANDARD
  9
$DIMCLRD
 70
     0
  9
$DIMCLRE
 70
     0
  9
$DIMCLRT
 70
     0
  9
$DIMTFAC
 40
1.0
  9
$DIMGAP
 40
0.09
  9
$LUNITS
 70
     2
  9
$LUPREC
 70
     4
  9
$AXISMODE
 70
     0
  9
$AXISUNIT
 10
0.0
 20
0.0
  9
$SKETCHINC
 40
0.1
  9
$FILLETRAD
 40
0.0
  9
$AUNITS
 70
     0
  9
$AUPREC
 70
     0
  9
$MENU
  1
acad
  9
$ELEVATION
 40
0.0
  9
$PELEVATION
 40
0.0
  9
$THICKNESS
 40
0.0
  9
$LIMCHECK
 70
     0
  9
$BLIPMODE
 70
     1
  9
$CHAMFERA
 40
0.0
  9
$CHAMFERB
 40
0.0
  9
$SKPOLY
 70
     0
  9
$TDCREATE
 40
0.000000000
  9
$TDUPDATE
 40
0.000000000
  9
$TDINDWG
 40
0.0000000000
  9
$TDUSRTIMER
 40
0.0000000000
  9
$USRTIMER
 70
     1
  9
$ANGBASE
 50
0.0
  9
$ANGDIR
 70
     0
  9
$PDMODE
 70
     0
  9
$PDSIZE
 40
0.0
  9
$PLINEWID
 40
0.0
  9
$COORDS
 70
     0
  9
$SPLFRAME
 70
     0
  9
$SPLINETYPE
 70
     6
  9
$SPLINESEGS
 70
     8
  9
$ATTDIA
 70
     0
  9
$ATTREQ
 70
     1
  9
$HANDLING
 70
     1
  9
$HANDSEED
  5
C83
  9
$SURFTAB1
 70
     6
  9
$SURFTAB2
 70
     6
  9
$SURFTYPE
 70
     6
  9
$SURFU
 70
     6
  9
$SURFV
 70
     6
  9
$UCSNAME
  2

  9
$UCSORG
 10
0.0
 20
0.0
 30
0.0
  9
$UCSXDIR
 10
1.0
 20
0.0
 30
0.0
  9
$UCSYDIR
 10
0.0
 20
1.0
 30
0.0
  9
$PUCSNAME
  2

  9
$PUCSORG
 10
0.0
 20
0.0
 30
0.0
  9
$PUCSXDIR
 10
1.0
 20
0.0
 30
0.0
  9
$PUCSYDIR
 10
0.0
 20
1.0
 30
0.0
  9
$USERI1
 70
     0
  9
$USERI2
 70
     0
  9
$USERI3
 70
     0
  9
$USERI4
 70
     0
  9
$USERI5
 70
     0
  9
$USERR1
 40
0.0
  9
$USERR2
 40
0.0
  9
$USERR3
 40
0.0
  9
$USERR4
 40
0.0
  9
$USERR5
 40
0.0
  9
$WORLDVIEW
 70
     1
  9
$SHADEDGE
 70
     3
  9
$SHADEDIF
 70
    70
  9
$TILEMODE
 70
     1
  9
$MAXACTVP
 70
    16
  9
$PINSBASE
 10
0.0
 20
0.0
 30
0.0
  9
$PLIMCHECK
 70
     0
  9
$PEXTMIN
 10
1.000000E+20
 20
1.000000E+20
 30
1.000000E+20
  9
$PEXTMAX
 10
-1.000000E+20
 20
-1.000000E+20
 30
-1.000000E+20
  9
$PLIMMIN
 10
0.0
 20
0.0
  9
$PLIMMAX
 10
12.0
 20
9.0
  9
$UNITMODE
 70
     0
  9
$VISRETAIN
 70
     0
  9
$PLINEGEN
 70
     1
  9
$PSLTSCALE
 70
     0
  9
$TREEDEPTH
 70
  3020
  0
ENDSEC
  0
SECTION
  2
TABLES
  0
TABLE
  2
VPORT
 70
     1
  0
VPORT
  2
*ACTIVE
 70
     0
 10
0.0
 20
0.0
 11
1.0
 21
1.0
 12
6.591288
 22
4.579184
 13
0.0
 23
0.0
 14
1.0
 24
1.0
 15
0.0
 25
0.0
 16
0.0
 26
0.0
 36
1.0
 17
0.0
 27
0.0
 37
0.0
 40
9.158369
 41
0.688564
 42
50.0
 43
0.0
 44
0.0
 50
0.0
 51
0.0
 71
     0
 72
   100
 73
     1
 74
     1
 75
     0
 76
     0
 77
     0
 78
     0
  0
ENDTAB
  0
TABLE
  2
LTYPE
 70
     5
  0
LTYPE
  2
CONTINUOUS
 70
    64
  3
Solid line
 72
    65
 73
     0
 40
0.0
  0
LTYPE
  2
CENTER
 70
    64
  3
Center ____ _ ____ _ ____ _ ____ _ ____ _ ____
 72
    65
 73
     4
 40
50.8
 49
31.75
 49
-6.35
 49
6.35
 49
-6.35
  0
LTYPE
  2
HIDDEN
 70
    64
  3
Hidden __ __ __ __ __ __ __ __ __ __ __ __ __ __
 72
    65
 73
     2
 40
9.525
 49
6.35
 49
-3.175
  0
LTYPE
  2
CENTER2
 70
    64
  3
Center (.5x) ___ _ ___ _ ___ _ ___ _ ___ _ ___
 72
    65
 73
     4
 40
28.575
 49
19.05
 49
-3.175
 49
3.175
 49
-3.175
  0
LTYPE
  2
HIDDEN2
 70
    64
  3
Hidden (.5x) _ _ _ _ _ _ _ _ _ _ _ _ _ _ _ _ _
 72
    65
 73
     2
 40
4.7625
 49
3.175
 49
-1.5875
  0
ENDTAB
  0
TABLE
  2
LAYER
 70
     7
  0
LAYER
  2
0
 70
     0
 62
     7
  6
CONTINUOUS
  0
LAYER
  2
TRMODEL1
 70
     0
 62
     7
  6
CONTINUOUS
  0
LAYER
  2
TRMODEL3
 70
     0
 62
     7
  6
CONTINUOUS
  0
LAYER
  2
TRDETAIL2
 70
     0
 62
     7
  6
CONTINUOUS
  0
LAYER
  2
TRDETAIL3
 70
     0
 62
     7
  6
CONTINUOUS
  0
LAYER
  2
TRDETAIL4
 70
     0
 62
     7
  6
CONTINUOUS
  0
LAYER
  2
TRDETAIL5
 70
     0
 62
     7
  6
CONTINUOUS
  0
ENDTAB
  0
TABLE
  2
STYLE
 70
     1
  0
STYLE
  2
STANDARD
 70
     0
 40
0.0
 41
1.0
 50
0.0
 71
     0
 42
0.0
  3
txt
  4

  0
ENDTAB
  0
TABLE
  2
VIEW
 70
     0
  0
ENDTAB
  0
TABLE
  2
UCS
 70
     0
  0
ENDTAB
  0
TABLE
  2
APPID
 70
     1
  0
APPID
  2
ACAD
 70
     0
  0
ENDTAB
  0
TABLE
  2
DIMSTYLE
 70
     1
  0
DIMSTYLE
  2
STANDARD
 70
     0
  3

  4

  5

  6

  7

 40
1.0
 41
0.18
 42
0.0625
 43
0.38
 44
0.18
 45
0.0
 46
0.0
 47
0.0
 48
0.0
 71
     0
 72
     0
 73
     1
 74
     1
 75
     0
 76
     0
 77
     0
 78
     0
140
0.18
141
0.09
142
0.0
143
25.4
144
1.0
145
0.0
146
1.0
147
0.09
170
     0
171
     2
172
     0
173
     0
174
     0
175
     0
176
     0
177
     0
178
     0
  0
ENDTAB
  0
ENDSEC
  0
SECTION
  2
BLOCKS
  0
ENDSEC
  0
SECTION
  2
ENTITIES
  0
LINE
  8
TRMODEL1
  6
CONTINUOUS
 62
     7
  5
662
 10
2.318898
 20
-2.286224
 30
0.0
 11
2.318898
 21
-2.318898
 31
0.0
  0
LINE
  8
TRMODEL1
  6
CONTINUOUS
 62
     7
  5
663
 10
2.318898
 20
2.318898
 30
0.0
 11
2.318898
 21
-2.170618
 31
0.0
  0
LINE
  8
TRMODEL1
  6
CONTINUOUS
 62
     7
  5
664
 10
2.054367
 20
2.318898
 30
0.0
 11
2.318898
 21
2.318898
 31
0.0
  0
LINE
  8
TRMODEL1
  6
CONTINUOUS
 62
     7
  5
665
 10
-2.318898
 20
2.318898
 30
0.0
 11
-2.054367
 21
2.318898
 31
0.0
  0
LINE
  8
TRMODEL1
  6
CONTINUOUS
 62
     7
  5
666
 10
-2.054364
 20
-2.318898
 30
0.0
 11
-2.318898
 21
-2.318898
 31
0.0
  0
LINE
  8
TRMODEL1
  6
CONTINUOUS
 62
     7
  5
667
 10
2.318898
 20
-2.318898
 30
0.0
 11
2.054364
 21
-2.318898
 31
0.0
  0
LINE
  8
TRMODEL1
  6
CONTINUOUS
 62
     7
  5
668
 10
-2.318898
 20
-2.170618
 30
0.0
 11
-2.318898
 21
2.318898
 31
0.0
  0
LINE
  8
TRMODEL1
  6
CONTINUOUS
 62
     7
  5
669
 10
-2.318898
 20
-2.318898
 30
0.0
 11
-2.318898
 21
-2.245206
 31
0.0
  0
LINE
  8
TRMODEL1
  6
CONTINUOUS
 62
     7
  5
66A
 10
2.318898
 20
-2.286212
 30
0.0
 11
2.187552
 21
-2.302918
 31
0.0
  0
LINE
  8
TRMODEL1
  6
CONTINUOUS
 62
     7
  5
66B
 10
2.187552
 20
-2.302918
 30
0.0
 11
2.056002
 21
-2.318649
 31
0.0
  0
LINE
  8
TRMODEL1
  6
CONTINUOUS
 62
     7
  5
66C
 10
2.056002
 20
-2.318649
 30
0.0
 11
1.924259
 21
-2.333404
 31
0.0
  0
LINE
  8
TRMODEL1
  6
CONTINUOUS
 62
     7
  5
66D
 10
1.924259
 20
-2.333404
 30
0.0
 11
1.792336
 21
-2.347182
 31
0.0
  0
LINE
  8
TRMODEL1
  6
CONTINUOUS
 62
     7
  5
66E
 10
1.792336
 20
-2.347182
 30
0.0
 11
1.660245
 21
-2.359981
 31
0.0
  0
LINE
  8
TRMODEL1
  6
CONTINUOUS
 62
     7
  5
66F
 10
1.660245
 20
-2.359981
 30
0.0
 11
1.527998
 21
-2.3718
 31
0.0
  0
LINE
  8
TRMODEL1
  6
CONTINUOUS
 62
     7
  5
670
 10
1.527998
 20
-2.3718
 30
0.0
 11
1.395608
 21
-2.382638
 31
0.0
  0
LINE
  8
TRMODEL1
  6
CONTINUOUS
 62
     7
  5
671
 10
1.395608
 20
-2.382638
 30
0.0
 11
1.263088
 21
-2.392494
 31
0.0
  0
LINE
  8
TRMODEL1
  6
CONTINUOUS
 62
     7
  5
672
 10
1.263088
 20
-2.392494
 30
0.0
 11
1.130449
 21
-2.401367
 31
0.0
  0
LINE
  8
TRMODEL1
  6
CONTINUOUS
 62
     7
  5
673
 10
1.130449
 20
-2.401367
 30
0.0
 11
0.997704
 21
-2.409257
 31
0.0
  0
LINE
  8
TRMODEL1
  6
CONTINUOUS
 62
     7
  5
674
 10
0.997704
 20
-2.409257
 30
0.0
 11
0.864866
 21
-2.416161
 31
0.0
  0
LINE
  8
TRMODEL1
  6
CONTINUOUS
 62
     7
  5
675
 10
0.864866
 20
-2.416161
 30
0.0
 11
0.731947
 21
-2.422081
 31
0.0
  0
LINE
  8
TRMODEL1
  6
CONTINUOUS
 62
     7
  5
676
 10
0.731947
 20
-2.422081
 30
0.0
 11
0.598959
 21
-2.427015
 31
0.0
  0
LINE
  8
TRMODEL1
  6
CONTINUOUS
 62
     7
  5
677
 10
0.598959
 20
-2.427015
 30
0.0
 11
0.465915
 21
-2.430962
 31
0.0
  0
LINE
  8
TRMODEL1
  6
CONTINUOUS
 62
     7
  5
678
 10
0.465915
 20
-2.430962
 30
0.0
 11
0.332828
 21
-2.433923
 31
0.0
  0
LINE
  8
TRMODEL1
  6
CONTINUOUS
 62
     7
  5
679
 10
0.332828
 20
-2.433923
 30
0.0
 11
0.199709
 21
-2.435897
 31
0.0
  0
LINE
  8
TRMODEL1
  6
CONTINUOUS
 62
     7
  5
67A
 10
0.199709
 20
-2.435897
 30
0.0
 11
0.066572
 21
-2.436884
 31
0.0
  0
LINE
  8
TRMODEL1
  6
CONTINUOUS
 62
     7
  5
67B
 10
0.066572
 20
-2.436884
 30
0.0
 11
-0.066572
 21
-2.436884
 31
0.0
  0
LINE
  8
TRMODEL1
  6
CONTINUOUS
 62
     7
  5
67C
 10
-0.066572
 20
-2.436884
 30
0.0
 11
-0.199709
 21
-2.435897
 31
0.0
  0
LINE
  8
TRMODEL1
  6
CONTINUOUS
 62
     7
  5
67D
 10
-0.199709
 20
-2.435897
 30
0.0
 11
-0.332828
 21
-2.433923
 31
0.0
  0
LINE
  8
TRMODEL1
  6
CONTINUOUS
 62
     7
  5
67E
 10
-0.332828
 20
-2.433923
 30
0.0
 11
-0.465915
 21
-2.430962
 31
0.0
  0
LINE
  8
TRMODEL1
  6
CONTINUOUS
 62
     7
  5
67F
 10
-0.465915
 20
-2.430962
 30
0.0
 11
-0.598959
 21
-2.427015
 31
0.0
  0
LINE
  8
TRMODEL1
  6
CONTINUOUS
 62
     7
  5
680
 10
-0.598959
 20
-2.427015
 30
0.0
 11
-0.731947
 21
-2.422081
 31
0.0
  0
LINE
  8
TRMODEL1
  6
CONTINUOUS
 62
     7
  5
681
 10
-0.731947
 20
-2.422081
 30
0.0
 11
-0.864866
 21
-2.416161
 31
0.0
  0
LINE
  8
TRMODEL1
  6
CONTINUOUS
 62
     7
  5
682
 10
-0.864866
 20
-2.416161
 30
0.0
 11
-0.997704
 21
-2.409257
 31
0.0
  0
LINE
  8
TRMODEL1
  6
CONTINUOUS
 62
     7
  5
683
 10
-0.997704
 20
-2.409257
 30
0.0
 11
-1.130449
 21
-2.401367
 31
0.0
  0
LINE
  8
TRMODEL1
  6
CONTINUOUS
 62
     7
  5
684
 10
-1.130449
 20
-2.401367
 30
0.0
 11
-1.263088
 21
-2.392494
 31
0.0
  0
LINE
  8
TRMODEL1
  6
CONTINUOUS
 62
     7
  5
685
 10
-1.263088
 20
-2.392494
 30
0.0
 11
-1.395608
 21
-2.382638
 31
0.0
  0
LINE
  8
TRMODEL1
  6
CONTINUOUS
 62
     7
  5
686
 10
-1.395608
 20
-2.382638
 30
0.0
 11
-1.527998
 21
-2.3718
 31
0.0
  0
LINE
  8
TRMODEL1
  6
CONTINUOUS
 62
     7
  5
687
 10
-1.527998
 20
-2.3718
 30
0.0
 11
-1.660245
 21
-2.359981
 31
0.0
  0
LINE
  8
TRMODEL1
  6
CONTINUOUS
 62
     7
  5
688
 10
-1.660245
 20
-2.359981
 30
0.0
 11
-1.792336
 21
-2.347182
 31
0.0
  0
LINE
  8
TRMODEL1
  6
CONTINUOUS
 62
     7
  5
689
 10
-1.792336
 20
-2.347182
 30
0.0
 11
-1.924259
 21
-2.333404
 31
0.0
  0
LINE
  8
TRMODEL1
  6
CONTINUOUS
 62
     7
  5
68A
 10
-1.924259
 20
-2.333404
 30
0.0
 11
-2.056002
 21
-2.318649
 31
0.0
  0
LINE
  8
TRMODEL1
  6
CONTINUOUS
 62
     7
  5
68B
 10
-2.056002
 20
-2.318649
 30
0.0
 11
-2.187552
 21
-2.302918
 31
0.0
  0
LINE
  8
TRMODEL1
  6
CONTINUOUS
 62
     7
  5
68C
 10
-2.187552
 20
-2.302918
 30
0.0
 11
-2.318898
 21
-2.286212
 31
0.0
  0
LINE
  8
TRMODEL1
  6
CONTINUOUS
 62
     7
  5
68D
 10
0.059055
 20
-1.795766
 30
0.0
 11
0.123938
 21
-1.795436
 31
0.0
  0
LINE
  8
TRMODEL1
  6
CONTINUOUS
 62
     7
  5
68E
 10
0.123938
 20
-1.795436
 30
0.0
 11
0.188818
 21
-1.794871
 31
0.0
  0
LINE
  8
TRMODEL1
  6
CONTINUOUS
 62
     7
  5
68F
 10
0.188818
 20
-1.794871
 30
0.0
 11
0.253694
 21
-1.794071
 31
0.0
  0
LINE
  8
TRMODEL1
  6
CONTINUOUS
 62
     7
  5
690
 10
0.253694
 20
-1.794071
 30
0.0
 11
0.318565
 21
-1.793037
 31
0.0
  0
LINE
  8
TRMODEL1
  6
CONTINUOUS
 62
     7
  5
691
 10
0.318565
 20
-1.793037
 30
0.0
 11
0.383428
 21
-1.791769
 31
0.0
  0
LINE
  8
TRMODEL1
  6
CONTINUOUS
 62
     7
  5
692
 10
0.383428
 20
-1.791769
 30
0.0
 11
0.448283
 21
-1.790267
 31
0.0
  0
LINE
  8
TRMODEL1
  6
CONTINUOUS
 62
     7
  5
693
 10
0.448283
 20
-1.790267
 30
0.0
 11
0.513128
 21
-1.78853
 31
0.0
  0
LINE
  8
TRMODEL1
  6
CONTINUOUS
 62
     7
  5
694
 10
0.513128
 20
-1.78853
 30
0.0
 11
0.577961
 21
-1.786559
 31
0.0
  0
LINE
  8
TRMODEL1
  6
CONTINUOUS
 62
     7
  5
695
 10
0.577961
 20
-1.786559
 30
0.0
 11
0.642782
 21
-1.784353
 31
0.0
  0
LINE
  8
TRMODEL1
  6
CONTINUOUS
 62
     7
  5
696
 10
0.642782
 20
-1.784353
 30
0.0
 11
0.707588
 21
-1.781914
 31
0.0
  0
LINE
  8
TRMODEL1
  6
CONTINUOUS
 62
     7
  5
697
 10
0.707588
 20
-1.781914
 30
0.0
 11
0.772378
 21
-1.77924
 31
0.0
  0
LINE
  8
TRMODEL1
  6
CONTINUOUS
 62
     7
  5
698
 10
0.772378
 20
-1.77924
 30
0.0
 11
0.837152
 21
-1.776333
 31
0.0
  0
LINE
  8
TRMODEL1
  6
CONTINUOUS
 62
     7
  5
699
 10
0.837152
 20
-1.776333
 30
0.0
 11
0.901906
 21
-1.773191
 31
0.0
  0
LINE
  8
TRMODEL1
  6
CONTINUOUS
 62
     7
  5
69A
 10
0.901906
 20
-1.773191
 30
0.0
 11
0.966641
 21
-1.769815
 31
0.0
  0
LINE
  8
TRMODEL1
  6
CONTINUOUS
 62
     7
  5
69B
 10
0.966641
 20
-1.769815
 30
0.0
 11
1.031354
 21
-1.766206
 31
0.0
  0
LINE
  8
TRMODEL1
  6
CONTINUOUS
 62
     7
  5
69C
 10
1.031354
 20
-1.766206
 30
0.0
 11
1.096044
 21
-1.762363
 31
0.0
  0
LINE
  8
TRMODEL1
  6
CONTINUOUS
 62
     7
  5
69D
 10
1.096044
 20
-1.762363
 30
0.0
 11
1.16071
 21
-1.758286
 31
0.0
  0
LINE
  8
TRMODEL1
  6
CONTINUOUS
 62
     7
  5
69E
 10
1.16071
 20
-1.758286
 30
0.0
 11
1.22535
 21
-1.753975
 31
0.0
  0
LINE
  8
TRMODEL1
  6
CONTINUOUS
 62
     7
  5
69F
 10
1.22535
 20
-1.753975
 30
0.0
 11
1.289963
 21
-1.749431
 31
0.0
  0
LINE
  8
TRMODEL1
  6
CONTINUOUS
 62
     7
  5
6A0
 10
1.289963
 20
-1.749431
 30
0.0
 11
1.354547
 21
-1.744654
 31
0.0
  0
LINE
  8
TRMODEL1
  6
CONTINUOUS
 62
     7
  5
6A1
 10
1.354547
 20
-1.744654
 30
0.0
 11
1.419101
 21
-1.739643
 31
0.0
  0
LINE
  8
TRMODEL1
  6
CONTINUOUS
 62
     7
  5
6A2
 10
1.419101
 20
-1.739643
 30
0.0
 11
1.483623
 21
-1.734399
 31
0.0
  0
LINE
  8
TRMODEL1
  6
CONTINUOUS
 62
     7
  5
6A3
 10
1.483623
 20
-1.734399
 30
0.0
 11
1.548112
 21
-1.728922
 31
0.0
  0
LINE
  8
TRMODEL1
  6
CONTINUOUS
 62
     7
  5
6A4
 10
1.548112
 20
-1.728922
 30
0.0
 11
1.612567
 21
-1.723212
 31
0.0
  0
LINE
  8
TRMODEL1
  6
CONTINUOUS
 62
     7
  5
6A5
 10
1.612567
 20
-1.723212
 30
0.0
 11
1.676986
 21
-1.717269
 31
0.0
  0
LINE
  8
TRMODEL1
  6
CONTINUOUS
 62
     7
  5
6A6
 10
1.676986
 20
-1.717269
 30
0.0
 11
1.741368
 21
-1.711094
 31
0.0
  0
LINE
  8
TRMODEL1
  6
CONTINUOUS
 62
     7
  5
6A7
 10
1.741368
 20
-1.711094
 30
0.0
 11
1.805711
 21
-1.704686
 31
0.0
  0
LINE
  8
TRMODEL1
  6
CONTINUOUS
 62
     7
  5
6A8
 10
1.805711
 20
-1.704686
 30
0.0
 11
1.870014
 21
-1.698045
 31
0.0
  0
LINE
  8
TRMODEL1
  6
CONTINUOUS
 62
     7
  5
6A9
 10
1.870014
 20
-1.698045
 30
0.0
 11
1.934275
 21
-1.691173
 31
0.0
  0
LINE
  8
TRMODEL1
  6
CONTINUOUS
 62
     7
  5
6AA
 10
1.934275
 20
-1.691173
 30
0.0
 11
1.998493
 21
-1.684068
 31
0.0
  0
LINE
  8
TRMODEL1
  6
CONTINUOUS
 62
     7
  5
6AB
 10
1.998493
 20
-1.684068
 30
0.0
 11
2.062667
 21
-1.676731
 31
0.0
  0
LINE
  8
TRMODEL1
  6
CONTINUOUS
 62
     7
  5
6AC
 10
2.062667
 20
-1.676731
 30
0.0
 11
2.126795
 21
-1.669163
 31
0.0
  0
LINE
  8
TRMODEL1
  6
CONTINUOUS
 62
     7
  5
6AD
 10
2.126795
 20
-1.669163
 30
0.0
 11
2.190875
 21
-1.661363
 31
0.0
  0
LINE
  8
TRMODEL1
  6
CONTINUOUS
 62
     7
  5
6AE
 10
2.190875
 20
-1.661363
 30
0.0
 11
2.254907
 21
-1.653331
 31
0.0
  0
LINE
  8
TRMODEL1
  6
CONTINUOUS
 62
     7
  5
6AF
 10
2.254907
 20
-1.653331
 30
0.0
 11
2.318888
 21
-1.645068
 31
0.0
  0
LINE
  8
TRMODEL1
  6
CONTINUOUS
 62
     7
  5
6B0
 10
2.318898
 20
-2.170618
 30
0.0
 11
2.318898
 21
-2.248252
 31
0.0
  0
LINE
  8
TRMODEL1
  6
CONTINUOUS
 62
     7
  5
6B1
 10
2.318898
 20
-2.286212
 30
0.0
 11
2.318898
 21
-2.248252
 31
0.0
  0
LINE
  8
TRMODEL1
  6
CONTINUOUS
 62
     7
  5
6B2
 10
-2.318898
 20
-2.286212
 30
0.0
 11
-2.318898
 21
-2.248252
 31
0.0
  0
LINE
  8
TRMODEL1
  6
CONTINUOUS
 62
     7
  5
6B3
 10
-2.318898
 20
-2.248252
 30
0.0
 11
-2.318898
 21
-2.170618
 31
0.0
  0
LINE
  8
TRMODEL1
  6
CONTINUOUS
 62
     7
  5
6B4
 10
-2.318898
 20
-1.645067
 30
0.0
 11
-2.254916
 21
-1.65333
 31
0.0
  0
LINE
  8
TRMODEL1
  6
CONTINUOUS
 62
     7
  5
6B5
 10
-2.254916
 20
-1.65333
 30
0.0
 11
-2.190884
 21
-1.661362
 31
0.0
  0
LINE
  8
TRMODEL1
  6
CONTINUOUS
 62
     7
  5
6B6
 10
-2.190884
 20
-1.661362
 30
0.0
 11
-2.126803
 21
-1.669162
 31
0.0
  0
LINE
  8
TRMODEL1
  6
CONTINUOUS
 62
     7
  5
6B7
 10
-2.126803
 20
-1.669162
 30
0.0
 11
-2.062675
 21
-1.67673
 31
0.0
  0
LINE
  8
TRMODEL1
  6
CONTINUOUS
 62
     7
  5
6B8
 10
-2.062675
 20
-1.67673
 30
0.0
 11
-1.998501
 21
-1.684067
 31
0.0
  0
LINE
  8
TRMODEL1
  6
CONTINUOUS
 62
     7
  5
6B9
 10
-1.998501
 20
-1.684067
 30
0.0
 11
-1.934283
 21
-1.691172
 31
0.0
  0
LINE
  8
TRMODEL1
  6
CONTINUOUS
 62
     7
  5
6BA
 10
-1.934283
 20
-1.691172
 30
0.0
 11
-1.870021
 21
-1.698045
 31
0.0
  0
LINE
  8
TRMODEL1
  6
CONTINUOUS
 62
     7
  5
6BB
 10
-1.870021
 20
-1.698045
 30
0.0
 11
-1.805718
 21
-1.704685
 31
0.0
  0
LINE
  8
TRMODEL1
  6
CONTINUOUS
 62
     7
  5
6BC
 10
-1.805718
 20
-1.704685
 30
0.0
 11
-1.741375
 21
-1.711093
 31
0.0
  0
LINE
  8
TRMODEL1
  6
CONTINUOUS
 62
     7
  5
6BD
 10
-1.741375
 20
-1.711093
 30
0.0
 11
-1.676993
 21
-1.717269
 31
0.0
  0
LINE
  8
TRMODEL1
  6
CONTINUOUS
 62
     7
  5
6BE
 10
-1.676993
 20
-1.717269
 30
0.0
 11
-1.612574
 21
-1.723211
 31
0.0
  0
LINE
  8
TRMODEL1
  6
CONTINUOUS
 62
     7
  5
6BF
 10
-1.612574
 20
-1.723211
 30
0.0
 11
-1.548118
 21
-1.728921
 31
0.0
  0
LINE
  8
TRMODEL1
  6
CONTINUOUS
 62
     7
  5
6C0
 10
-1.548118
 20
-1.728921
 30
0.0
 11
-1.483629
 21
-1.734398
 31
0.0
  0
LINE
  8
TRMODEL1
  6
CONTINUOUS
 62
     7
  5
6C1
 10
-1.483629
 20
-1.734398
 30
0.0
 11
-1.419106
 21
-1.739642
 31
0.0
  0
LINE
  8
TRMODEL1
  6
CONTINUOUS
 62
     7
  5
6C2
 10
-1.419106
 20
-1.739642
 30
0.0
 11
-1.354552
 21
-1.744653
 31
0.0
  0
LINE
  8
TRMODEL1
  6
CONTINUOUS
 62
     7
  5
6C3
 10
-1.354552
 20
-1.744653
 30
0.0
 11
-1.289968
 21
-1.749431
 31
0.0
  0
LINE
  8
TRMODEL1
  6
CONTINUOUS
 62
     7
  5
6C4
 10
-1.289968
 20
-1.749431
 30
0.0
 11
-1.225355
 21
-1.753975
 31
0.0
  0
LINE
  8
TRMODEL1
  6
CONTINUOUS
 62
     7
  5
6C5
 10
-1.225355
 20
-1.753975
 30
0.0
 11
-1.160715
 21
-1.758285
 31
0.0
  0
LINE
  8
TRMODEL1
  6
CONTINUOUS
 62
     7
  5
6C6
 10
-1.160715
 20
-1.758285
 30
0.0
 11
-1.096049
 21
-1.762362
 31
0.0
  0
LINE
  8
TRMODEL1
  6
CONTINUOUS
 62
     7
  5
6C7
 10
-1.096049
 20
-1.762362
 30
0.0
 11
-1.031358
 21
-1.766206
 31
0.0
  0
LINE
  8
TRMODEL1
  6
CONTINUOUS
 62
     7
  5
6C8
 10
-1.031358
 20
-1.766206
 30
0.0
 11
-0.966645
 21
-1.769815
 31
0.0
  0
LINE
  8
TRMODEL1
  6
CONTINUOUS
 62
     7
  5
6C9
 10
-0.966645
 20
-1.769815
 30
0.0
 11
-0.90191
 21
-1.773191
 31
0.0
  0
LINE
  8
TRMODEL1
  6
CONTINUOUS
 62
     7
  5
6CA
 10
-0.90191
 20
-1.773191
 30
0.0
 11
-0.837155
 21
-1.776332
 31
0.0
  0
LINE
  8
TRMODEL1
  6
CONTINUOUS
 62
     7
  5
6CB
 10
-0.837155
 20
-1.776332
 30
0.0
 11
-0.772381
 21
-1.77924
 31
0.0
  0
LINE
  8
TRMODEL1
  6
CONTINUOUS
 62
     7
  5
6CC
 10
-0.772381
 20
-1.77924
 30
0.0
 11
-0.707591
 21
-1.781914
 31
0.0
  0
LINE
  8
TRMODEL1
  6
CONTINUOUS
 62
     7
  5
6CD
 10
-0.707591
 20
-1.781914
 30
0.0
 11
-0.642784
 21
-1.784353
 31
0.0
  0
LINE
  8
TRMODEL1
  6
CONTINUOUS
 62
     7
  5
6CE
 10
-0.642784
 20
-1.784353
 30
0.0
 11
-0.577963
 21
-1.786559
 31
0.0
  0
LINE
  8
TRMODEL1
  6
CONTINUOUS
 62
     7
  5
6CF
 10
-0.577963
 20
-1.786559
 30
0.0
 11
-0.51313
 21
-1.78853
 31
0.0
  0
LINE
  8
TRMODEL1
  6
CONTINUOUS
 62
     7
  5
6D0
 10
-0.51313
 20
-1.78853
 30
0.0
 11
-0.448285
 21
-1.790267
 31
0.0
  0
LINE
  8
TRMODEL1
  6
CONTINUOUS
 62
     7
  5
6D1
 10
-0.448285
 20
-1.790267
 30
0.0
 11
-0.383429
 21
-1.791769
 31
0.0
  0
LINE
  8
TRMODEL1
  6
CONTINUOUS
 62
     7
  5
6D2
 10
-0.383429
 20
-1.791769
 30
0.0
 11
-0.318566
 21
-1.793037
 31
0.0
  0
LINE
  8
TRMODEL1
  6
CONTINUOUS
 62
     7
  5
6D3
 10
-0.318566
 20
-1.793037
 30
0.0
 11
-0.253695
 21
-1.794071
 31
0.0
  0
LINE
  8
TRMODEL1
  6
CONTINUOUS
 62
     7
  5
6D4
 10
-0.253695
 20
-1.794071
 30
0.0
 11
-0.188819
 21
-1.794871
 31
0.0
  0
LINE
  8
TRMODEL1
  6
CONTINUOUS
 62
     7
  5
6D5
 10
-0.188819
 20
-1.794871
 30
0.0
 11
-0.123938
 21
-1.795436
 31
0.0
  0
LINE
  8
TRMODEL1
  6
CONTINUOUS
 62
     7
  5
6D6
 10
-0.123938
 20
-1.795436
 30
0.0
 11
-0.059055
 21
-1.795766
 31
0.0
  0
LINE
  8
TRMODEL1
  6
CONTINUOUS
 62
     7
  5
6D7
 10
2.318898
 20
-2.248252
 30
0.0
 11
2.187552
 21
-2.264958
 31
0.0
  0
LINE
  8
TRMODEL1
  6
CONTINUOUS
 62
     7
  5
6D8
 10
2.187552
 20
-2.264958
 30
0.0
 11
2.056002
 21
-2.280689
 31
0.0
  0
LINE
  8
TRMODEL1
  6
CONTINUOUS
 62
     7
  5
6D9
 10
2.056002
 20
-2.280689
 30
0.0
 11
1.924259
 21
-2.295444
 31
0.0
  0
LINE
  8
TRMODEL1
  6
CONTINUOUS
 62
     7
  5
6DA
 10
1.924259
 20
-2.295444
 30
0.0
 11
1.792336
 21
-2.309222
 31
0.0
  0
LINE
  8
TRMODEL1
  6
CONTINUOUS
 62
     7
  5
6DB
 10
1.792336
 20
-2.309222
 30
0.0
 11
1.660245
 21
-2.322021
 31
0.0
  0
LINE
  8
TRMODEL1
  6
CONTINUOUS
 62
     7
  5
6DC
 10
1.660245
 20
-2.322021
 30
0.0
 11
1.527998
 21
-2.33384
 31
0.0
  0
LINE
  8
TRMODEL1
  6
CONTINUOUS
 62
     7
  5
6DD
 10
1.527998
 20
-2.33384
 30
0.0
 11
1.395608
 21
-2.344678
 31
0.0
  0
LINE
  8
TRMODEL1
  6
CONTINUOUS
 62
     7
  5
6DE
 10
1.395608
 20
-2.344678
 30
0.0
 11
1.263088
 21
-2.354534
 31
0.0
  0
LINE
  8
TRMODEL1
  6
CONTINUOUS
 62
     7
  5
6DF
 10
1.263088
 20
-2.354534
 30
0.0
 11
1.130449
 21
-2.363407
 31
0.0
  0
LINE
  8
TRMODEL1
  6
CONTINUOUS
 62
     7
  5
6E0
 10
1.130449
 20
-2.363407
 30
0.0
 11
0.997704
 21
-2.371297
 31
0.0
  0
LINE
  8
TRMODEL1
  6
CONTINUOUS
 62
     7
  5
6E1
 10
0.997704
 20
-2.371297
 30
0.0
 11
0.864866
 21
-2.378201
 31
0.0
  0
LINE
  8
TRMODEL1
  6
CONTINUOUS
 62
     7
  5
6E2
 10
0.864866
 20
-2.378201
 30
0.0
 11
0.731947
 21
-2.384121
 31
0.0
  0
LINE
  8
TRMODEL1
  6
CONTINUOUS
 62
     7
  5
6E3
 10
0.731947
 20
-2.384121
 30
0.0
 11
0.598959
 21
-2.389055
 31
0.0
  0
LINE
  8
TRMODEL1
  6
CONTINUOUS
 62
     7
  5
6E4
 10
0.598959
 20
-2.389055
 30
0.0
 11
0.465915
 21
-2.393002
 31
0.0
  0
LINE
  8
TRMODEL1
  6
CONTINUOUS
 62
     7
  5
6E5
 10
0.465915
 20
-2.393002
 30
0.0
 11
0.332828
 21
-2.395963
 31
0.0
  0
LINE
  8
TRMODEL1
  6
CONTINUOUS
 62
     7
  5
6E6
 10
0.332828
 20
-2.395963
 30
0.0
 11
0.199709
 21
-2.397937
 31
0.0
  0
LINE
  8
TRMODEL1
  6
CONTINUOUS
 62
     7
  5
6E7
 10
0.199709
 20
-2.397937
 30
0.0
 11
0.066572
 21
-2.398925
 31
0.0
  0
LINE
  8
TRMODEL1
  6
CONTINUOUS
 62
     7
  5
6E8
 10
0.066572
 20
-2.398925
 30
0.0
 11
-0.066572
 21
-2.398925
 31
0.0
  0
LINE
  8
TRMODEL1
  6
CONTINUOUS
 62
     7
  5
6E9
 10
-0.066572
 20
-2.398925
 30
0.0
 11
-0.199709
 21
-2.397937
 31
0.0
  0
LINE
  8
TRMODEL1
  6
CONTINUOUS
 62
     7
  5
6EA
 10
-0.199709
 20
-2.397937
 30
0.0
 11
-0.332828
 21
-2.395963
 31
0.0
  0
LINE
  8
TRMODEL1
  6
CONTINUOUS
 62
     7
  5
6EB
 10
-0.332828
 20
-2.395963
 30
0.0
 11
-0.465915
 21
-2.393002
 31
0.0
  0
LINE
  8
TRMODEL1
  6
CONTINUOUS
 62
     7
  5
6EC
 10
-0.465915
 20
-2.393002
 30
0.0
 11
-0.598959
 21
-2.389055
 31
0.0
  0
LINE
  8
TRMODEL1
  6
CONTINUOUS
 62
     7
  5
6ED
 10
-0.598959
 20
-2.389055
 30
0.0
 11
-0.731947
 21
-2.384121
 31
0.0
  0
LINE
  8
TRMODEL1
  6
CONTINUOUS
 62
     7
  5
6EE
 10
-0.731947
 20
-2.384121
 30
0.0
 11
-0.864866
 21
-2.378201
 31
0.0
  0
LINE
  8
TRMODEL1
  6
CONTINUOUS
 62
     7
  5
6EF
 10
-0.864866
 20
-2.378201
 30
0.0
 11
-0.997704
 21
-2.371297
 31
0.0
  0
LINE
  8
TRMODEL1
  6
CONTINUOUS
 62
     7
  5
6F0
 10
-0.997704
 20
-2.371297
 30
0.0
 11
-1.130449
 21
-2.363407
 31
0.0
  0
LINE
  8
TRMODEL1
  6
CONTINUOUS
 62
     7
  5
6F1
 10
-1.130449
 20
-2.363407
 30
0.0
 11
-1.263088
 21
-2.354534
 31
0.0
  0
LINE
  8
TRMODEL1
  6
CONTINUOUS
 62
     7
  5
6F2
 10
-1.263088
 20
-2.354534
 30
0.0
 11
-1.395608
 21
-2.344678
 31
0.0
  0
LINE
  8
TRMODEL1
  6
CONTINUOUS
 62
     7
  5
6F3
 10
-1.395608
 20
-2.344678
 30
0.0
 11
-1.527998
 21
-2.33384
 31
0.0
  0
LINE
  8
TRMODEL1
  6
CONTINUOUS
 62
     7
  5
6F4
 10
-1.527998
 20
-2.33384
 30
0.0
 11
-1.660245
 21
-2.322021
 31
0.0
  0
LINE
  8
TRMODEL1
  6
CONTINUOUS
 62
     7
  5
6F5
 10
-1.660245
 20
-2.322021
 30
0.0
 11
-1.792336
 21
-2.309222
 31
0.0
  0
LINE
  8
TRMODEL1
  6
CONTINUOUS
 62
     7
  5
6F6
 10
-1.792336
 20
-2.309222
 30
0.0
 11
-1.924259
 21
-2.295444
 31
0.0
  0
LINE
  8
TRMODEL1
  6
CONTINUOUS
 62
     7
  5
6F7
 10
-1.924259
 20
-2.295444
 30
0.0
 11
-2.056002
 21
-2.280689
 31
0.0
  0
LINE
  8
TRMODEL1
  6
CONTINUOUS
 62
     7
  5
6F8
 10
-2.056002
 20
-2.280689
 30
0.0
 11
-2.187552
 21
-2.264958
 31
0.0
  0
LINE
  8
TRMODEL1
  6
CONTINUOUS
 62
     7
  5
6F9
 10
-2.187552
 20
-2.264958
 30
0.0
 11
-2.318898
 21
-2.248252
 31
0.0
  0
LINE
  8
TRMODEL1
  6
CONTINUOUS
 62
     7
  5
6FA
 10
-0.059055
 20
-2.318898
 30
0.0
 11
-0.059055
 21
2.318898
 31
0.0
  0
LINE
  8
TRMODEL1
  6
CONTINUOUS
 62
     7
  5
6FB
 10
0.059055
 20
-2.318898
 30
0.0
 11
-0.059055
 21
-2.318898
 31
0.0
  0
LINE
  8
TRMODEL1
  6
CONTINUOUS
 62
     7
  5
6FC
 10
0.059055
 20
-1.133224
 30
0.0
 11
0.123938
 21
-1.132894
 31
0.0
  0
LINE
  8
TRMODEL1
  6
CONTINUOUS
 62
     7
  5
6FD
 10
0.123938
 20
-1.132894
 30
0.0
 11
0.188818
 21
-1.132328
 31
0.0
  0
LINE
  8
TRMODEL1
  6
CONTINUOUS
 62
     7
  5
6FE
 10
0.188818
 20
-1.132328
 30
0.0
 11
0.253694
 21
-1.131529
 31
0.0
  0
LINE
  8
TRMODEL1
  6
CONTINUOUS
 62
     7
  5
6FF
 10
0.253694
 20
-1.131529
 30
0.0
 11
0.318565
 21
-1.130495
 31
0.0
  0
LINE
  8
TRMODEL1
  6
CONTINUOUS
 62
     7
  5
700
 10
0.318565
 20
-1.130495
 30
0.0
 11
0.383428
 21
-1.129227
 31
0.0
  0
LINE
  8
TRMODEL1
  6
CONTINUOUS
 62
     7
  5
701
 10
0.383428
 20
-1.129227
 30
0.0
 11
0.448283
 21
-1.127725
 31
0.0
  0
LINE
  8
TRMODEL1
  6
CONTINUOUS
 62
     7
  5
702
 10
0.448283
 20
-1.127725
 30
0.0
 11
0.513127
 21
-1.125988
 31
0.0
  0
LINE
  8
TRMODEL1
  6
CONTINUOUS
 62
     7
  5
703
 10
0.513127
 20
-1.125988
 30
0.0
 11
0.577961
 21
-1.124017
 31
0.0
  0
LINE
  8
TRMODEL1
  6
CONTINUOUS
 62
     7
  5
704
 10
0.577961
 20
-1.124017
 30
0.0
 11
0.642781
 21
-1.121811
 31
0.0
  0
LINE
  8
TRMODEL1
  6
CONTINUOUS
 62
     7
  5
705
 10
0.642781
 20
-1.121811
 30
0.0
 11
0.707587
 21
-1.119372
 31
0.0
  0
LINE
  8
TRMODEL1
  6
CONTINUOUS
 62
     7
  5
706
 10
0.707587
 20
-1.119372
 30
0.0
 11
0.772378
 21
-1.116698
 31
0.0
  0
LINE
  8
TRMODEL1
  6
CONTINUOUS
 62
     7
  5
707
 10
0.772378
 20
-1.116698
 30
0.0
 11
0.837151
 21
-1.11379
 31
0.0
  0
LINE
  8
TRMODEL1
  6
CONTINUOUS
 62
     7
  5
708
 10
0.837151
 20
-1.11379
 30
0.0
 11
0.901906
 21
-1.110649
 31
0.0
  0
LINE
  8
TRMODEL1
  6
CONTINUOUS
 62
     7
  5
709
 10
0.901906
 20
-1.110649
 30
0.0
 11
0.96664
 21
-1.107273
 31
0.0
  0
LINE
  8
TRMODEL1
  6
CONTINUOUS
 62
     7
  5
70A
 10
0.96664
 20
-1.107273
 30
0.0
 11
1.031354
 21
-1.103664
 31
0.0
  0
LINE
  8
TRMODEL1
  6
CONTINUOUS
 62
     7
  5
70B
 10
1.031354
 20
-1.103664
 30
0.0
 11
1.096044
 21
-1.09982
 31
0.0
  0
LINE
  8
TRMODEL1
  6
CONTINUOUS
 62
     7
  5
70C
 10
1.096044
 20
-1.09982
 30
0.0
 11
1.160709
 21
-1.095743
 31
0.0
  0
LINE
  8
TRMODEL1
  6
CONTINUOUS
 62
     7
  5
70D
 10
1.160709
 20
-1.095743
 30
0.0
 11
1.225349
 21
-1.091433
 31
0.0
  0
LINE
  8
TRMODEL1
  6
CONTINUOUS
 62
     7
  5
70E
 10
1.225349
 20
-1.091433
 30
0.0
 11
1.289962
 21
-1.086889
 31
0.0
  0
LINE
  8
TRMODEL1
  6
CONTINUOUS
 62
     7
  5
70F
 10
1.289962
 20
-1.086889
 30
0.0
 11
1.354546
 21
-1.082111
 31
0.0
  0
LINE
  8
TRMODEL1
  6
CONTINUOUS
 62
     7
  5
710
 10
1.354546
 20
-1.082111
 30
0.0
 11
1.4191
 21
-1.077101
 31
0.0
  0
LINE
  8
TRMODEL1
  6
CONTINUOUS
 62
     7
  5
711
 10
1.4191
 20
-1.077101
 30
0.0
 11
1.483622
 21
-1.071857
 31
0.0
  0
LINE
  8
TRMODEL1
  6
CONTINUOUS
 62
     7
  5
712
 10
1.483622
 20
-1.071857
 30
0.0
 11
1.548111
 21
-1.06638
 31
0.0
  0
LINE
  8
TRMODEL1
  6
CONTINUOUS
 62
     7
  5
713
 10
1.548111
 20
-1.06638
 30
0.0
 11
1.612566
 21
-1.06067
 31
0.0
  0
LINE
  8
TRMODEL1
  6
CONTINUOUS
 62
     7
  5
714
 10
1.612566
 20
-1.06067
 30
0.0
 11
1.676985
 21
-1.054727
 31
0.0
  0
LINE
  8
TRMODEL1
  6
CONTINUOUS
 62
     7
  5
715
 10
1.676985
 20
-1.054727
 30
0.0
 11
1.741367
 21
-1.048552
 31
0.0
  0
LINE
  8
TRMODEL1
  6
CONTINUOUS
 62
     7
  5
716
 10
1.741367
 20
-1.048552
 30
0.0
 11
1.80571
 21
-1.042144
 31
0.0
  0
LINE
  8
TRMODEL1
  6
CONTINUOUS
 62
     7
  5
717
 10
1.80571
 20
-1.042144
 30
0.0
 11
1.870013
 21
-1.035503
 31
0.0
  0
LINE
  8
TRMODEL1
  6
CONTINUOUS
 62
     7
  5
718
 10
1.870013
 20
-1.035503
 30
0.0
 11
1.934274
 21
-1.028631
 31
0.0
  0
LINE
  8
TRMODEL1
  6
CONTINUOUS
 62
     7
  5
719
 10
1.934274
 20
-1.028631
 30
0.0
 11
1.998492
 21
-1.021526
 31
0.0
  0
LINE
  8
TRMODEL1
  6
CONTINUOUS
 62
     7
  5
71A
 10
1.998492
 20
-1.021526
 30
0.0
 11
2.062666
 21
-1.014189
 31
0.0
  0
LINE
  8
TRMODEL1
  6
CONTINUOUS
 62
     7
  5
71B
 10
2.062666
 20
-1.014189
 30
0.0
 11
2.126793
 21
-1.006621
 31
0.0
  0
LINE
  8
TRMODEL1
  6
CONTINUOUS
 62
     7
  5
71C
 10
2.126793
 20
-1.006621
 30
0.0
 11
2.190874
 21
-0.998821
 31
0.0
  0
LINE
  8
TRMODEL1
  6
CONTINUOUS
 62
     7
  5
71D
 10
2.190874
 20
-0.998821
 30
0.0
 11
2.254906
 21
-0.990789
 31
0.0
  0
LINE
  8
TRMODEL1
  6
CONTINUOUS
 62
     7
  5
71E
 10
2.254906
 20
-0.990789
 30
0.0
 11
2.318887
 21
-0.982526
 31
0.0
  0
LINE
  8
TRMODEL1
  6
CONTINUOUS
 62
     7
  5
71F
 10
2.318898
 20
-1.58571
 30
0.0
 11
2.254916
 21
-1.593973
 31
0.0
  0
LINE
  8
TRMODEL1
  6
CONTINUOUS
 62
     7
  5
720
 10
2.254916
 20
-1.593973
 30
0.0
 11
2.190884
 21
-1.602004
 31
0.0
  0
LINE
  8
TRMODEL1
  6
CONTINUOUS
 62
     7
  5
721
 10
2.190884
 20
-1.602004
 30
0.0
 11
2.126803
 21
-1.609804
 31
0.0
  0
LINE
  8
TRMODEL1
  6
CONTINUOUS
 62
     7
  5
722
 10
2.126803
 20
-1.609804
 30
0.0
 11
2.062675
 21
-1.617373
 31
0.0
  0
LINE
  8
TRMODEL1
  6
CONTINUOUS
 62
     7
  5
723
 10
2.062675
 20
-1.617373
 30
0.0
 11
1.998501
 21
-1.62471
 31
0.0
  0
LINE
  8
TRMODEL1
  6
CONTINUOUS
 62
     7
  5
724
 10
1.998501
 20
-1.62471
 30
0.0
 11
1.934283
 21
-1.631814
 31
0.0
  0
LINE
  8
TRMODEL1
  6
CONTINUOUS
 62
     7
  5
725
 10
1.934283
 20
-1.631814
 30
0.0
 11
1.870021
 21
-1.638687
 31
0.0
  0
LINE
  8
TRMODEL1
  6
CONTINUOUS
 62
     7
  5
726
 10
1.870021
 20
-1.638687
 30
0.0
 11
1.805718
 21
-1.645328
 31
0.0
  0
LINE
  8
TRMODEL1
  6
CONTINUOUS
 62
     7
  5
727
 10
1.805718
 20
-1.645328
 30
0.0
 11
1.741375
 21
-1.651736
 31
0.0
  0
LINE
  8
TRMODEL1
  6
CONTINUOUS
 62
     7
  5
728
 10
1.741375
 20
-1.651736
 30
0.0
 11
1.676993
 21
-1.657911
 31
0.0
  0
LINE
  8
TRMODEL1
  6
CONTINUOUS
 62
     7
  5
729
 10
1.676993
 20
-1.657911
 30
0.0
 11
1.612574
 21
-1.663854
 31
0.0
  0
LINE
  8
TRMODEL1
  6
CONTINUOUS
 62
     7
  5
72A
 10
1.612574
 20
-1.663854
 30
0.0
 11
1.548118
 21
-1.669564
 31
0.0
  0
LINE
  8
TRMODEL1
  6
CONTINUOUS
 62
     7
  5
72B
 10
1.548118
 20
-1.669564
 30
0.0
 11
1.483629
 21
-1.675041
 31
0.0
  0
LINE
  8
TRMODEL1
  6
CONTINUOUS
 62
     7
  5
72C
 10
1.483629
 20
-1.675041
 30
0.0
 11
1.419106
 21
-1.680285
 31
0.0
  0
LINE
  8
TRMODEL1
  6
CONTINUOUS
 62
     7
  5
72D
 10
1.419106
 20
-1.680285
 30
0.0
 11
1.354552
 21
-1.685296
 31
0.0
  0
LINE
  8
TRMODEL1
  6
CONTINUOUS
 62
     7
  5
72E
 10
1.354552
 20
-1.685296
 30
0.0
 11
1.289968
 21
-1.690073
 31
0.0
  0
LINE
  8
TRMODEL1
  6
CONTINUOUS
 62
     7
  5
72F
 10
1.289968
 20
-1.690073
 30
0.0
 11
1.225355
 21
-1.694617
 31
0.0
  0
LINE
  8
TRMODEL1
  6
CONTINUOUS
 62
     7
  5
730
 10
1.225355
 20
-1.694617
 30
0.0
 11
1.160715
 21
-1.698928
 31
0.0
  0
LINE
  8
TRMODEL1
  6
CONTINUOUS
 62
     7
  5
731
 10
1.160715
 20
-1.698928
 30
0.0
 11
1.096049
 21
-1.703005
 31
0.0
  0
LINE
  8
TRMODEL1
  6
CONTINUOUS
 62
     7
  5
732
 10
1.096049
 20
-1.703005
 30
0.0
 11
1.031358
 21
-1.706848
 31
0.0
  0
LINE
  8
TRMODEL1
  6
CONTINUOUS
 62
     7
  5
733
 10
1.031358
 20
-1.706848
 30
0.0
 11
0.966645
 21
-1.710457
 31
0.0
  0
LINE
  8
TRMODEL1
  6
CONTINUOUS
 62
     7
  5
734
 10
0.966645
 20
-1.710457
 30
0.0
 11
0.90191
 21
-1.713833
 31
0.0
  0
LINE
  8
TRMODEL1
  6
CONTINUOUS
 62
     7
  5
735
 10
0.90191
 20
-1.713833
 30
0.0
 11
0.837155
 21
-1.716975
 31
0.0
  0
LINE
  8
TRMODEL1
  6
CONTINUOUS
 62
     7
  5
736
 10
0.837155
 20
-1.716975
 30
0.0
 11
0.772381
 21
-1.719883
 31
0.0
  0
LINE
  8
TRMODEL1
  6
CONTINUOUS
 62
     7
  5
737
 10
0.772381
 20
-1.719883
 30
0.0
 11
0.707591
 21
-1.722556
 31
0.0
  0
LINE
  8
TRMODEL1
  6
CONTINUOUS
 62
     7
  5
738
 10
0.707591
 20
-1.722556
 30
0.0
 11
0.642784
 21
-1.724996
 31
0.0
  0
LINE
  8
TRMODEL1
  6
CONTINUOUS
 62
     7
  5
739
 10
0.642784
 20
-1.724996
 30
0.0
 11
0.577963
 21
-1.727201
 31
0.0
  0
LINE
  8
TRMODEL1
  6
CONTINUOUS
 62
     7
  5
73A
 10
0.577963
 20
-1.727201
 30
0.0
 11
0.51313
 21
-1.729172
 31
0.0
  0
LINE
  8
TRMODEL1
  6
CONTINUOUS
 62
     7
  5
73B
 10
0.51313
 20
-1.729172
 30
0.0
 11
0.448285
 21
-1.730909
 31
0.0
  0
LINE
  8
TRMODEL1
  6
CONTINUOUS
 62
     7
  5
73C
 10
0.448285
 20
-1.730909
 30
0.0
 11
0.383429
 21
-1.732412
 31
0.0
  0
LINE
  8
TRMODEL1
  6
CONTINUOUS
 62
     7
  5
73D
 10
0.383429
 20
-1.732412
 30
0.0
 11
0.318566
 21
-1.73368
 31
0.0
  0
LINE
  8
TRMODEL1
  6
CONTINUOUS
 62
     7
  5
73E
 10
0.318566
 20
-1.73368
 30
0.0
 11
0.253695
 21
-1.734714
 31
0.0
  0
LINE
  8
TRMODEL1
  6
CONTINUOUS
 62
     7
  5
73F
 10
0.253695
 20
-1.734714
 30
0.0
 11
0.188819
 21
-1.735513
 31
0.0
  0
LINE
  8
TRMODEL1
  6
CONTINUOUS
 62
     7
  5
740
 10
0.188819
 20
-1.735513
 30
0.0
 11
0.123938
 21
-1.736078
 31
0.0
  0
LINE
  8
TRMODEL1
  6
CONTINUOUS
 62
     7
  5
741
 10
0.123938
 20
-1.736078
 30
0.0
 11
0.059055
 21
-1.736409
 31
0.0
  0
LINE
  8
TRMODEL1
  6
CONTINUOUS
 62
     7
  5
742
 10
2.318898
 20
-1.62367
 30
0.0
 11
2.254916
 21
-1.631932
 31
0.0
  0
LINE
  8
TRMODEL1
  6
CONTINUOUS
 62
     7
  5
743
 10
2.254916
 20
-1.631932
 30
0.0
 11
2.190884
 21
-1.639964
 31
0.0
  0
LINE
  8
TRMODEL1
  6
CONTINUOUS
 62
     7
  5
744
 10
2.190884
 20
-1.639964
 30
0.0
 11
2.126803
 21
-1.647764
 31
0.0
  0
LINE
  8
TRMODEL1
  6
CONTINUOUS
 62
     7
  5
745
 10
2.126803
 20
-1.647764
 30
0.0
 11
2.062675
 21
-1.655333
 31
0.0
  0
LINE
  8
TRMODEL1
  6
CONTINUOUS
 62
     7
  5
746
 10
2.062675
 20
-1.655333
 30
0.0
 11
1.998501
 21
-1.662669
 31
0.0
  0
LINE
  8
TRMODEL1
  6
CONTINUOUS
 62
     7
  5
747
 10
1.998501
 20
-1.662669
 30
0.0
 11
1.934283
 21
-1.669774
 31
0.0
  0
LINE
  8
TRMODEL1
  6
CONTINUOUS
 62
     7
  5
748
 10
1.934283
 20
-1.669774
 30
0.0
 11
1.870021
 21
-1.676647
 31
0.0
  0
LINE
  8
TRMODEL1
  6
CONTINUOUS
 62
     7
  5
749
 10
1.870021
 20
-1.676647
 30
0.0
 11
1.805718
 21
-1.683287
 31
0.0
  0
LINE
  8
TRMODEL1
  6
CONTINUOUS
 62
     7
  5
74A
 10
1.805718
 20
-1.683287
 30
0.0
 11
1.741375
 21
-1.689695
 31
0.0
  0
LINE
  8
TRMODEL1
  6
CONTINUOUS
 62
     7
  5
74B
 10
1.741375
 20
-1.689695
 30
0.0
 11
1.676993
 21
-1.695871
 31
0.0
  0
LINE
  8
TRMODEL1
  6
CONTINUOUS
 62
     7
  5
74C
 10
1.676993
 20
-1.695871
 30
0.0
 11
1.612574
 21
-1.701814
 31
0.0
  0
LINE
  8
TRMODEL1
  6
CONTINUOUS
 62
     7
  5
74D
 10
1.612574
 20
-1.701814
 30
0.0
 11
1.548118
 21
-1.707524
 31
0.0
  0
LINE
  8
TRMODEL1
  6
CONTINUOUS
 62
     7
  5
74E
 10
1.548118
 20
-1.707524
 30
0.0
 11
1.483629
 21
-1.713001
 31
0.0
  0
LINE
  8
TRMODEL1
  6
CONTINUOUS
 62
     7
  5
74F
 10
1.483629
 20
-1.713001
 30
0.0
 11
1.419106
 21
-1.718245
 31
0.0
  0
LINE
  8
TRMODEL1
  6
CONTINUOUS
 62
     7
  5
750
 10
1.419106
 20
-1.718245
 30
0.0
 11
1.354552
 21
-1.723255
 31
0.0
  0
LINE
  8
TRMODEL1
  6
CONTINUOUS
 62
     7
  5
751
 10
1.354552
 20
-1.723255
 30
0.0
 11
1.289968
 21
-1.728033
 31
0.0
  0
LINE
  8
TRMODEL1
  6
CONTINUOUS
 62
     7
  5
752
 10
1.289968
 20
-1.728033
 30
0.0
 11
1.225355
 21
-1.732577
 31
0.0
  0
LINE
  8
TRMODEL1
  6
CONTINUOUS
 62
     7
  5
753
 10
1.225355
 20
-1.732577
 30
0.0
 11
1.160715
 21
-1.736888
 31
0.0
  0
LINE
  8
TRMODEL1
  6
CONTINUOUS
 62
     7
  5
754
 10
1.160715
 20
-1.736888
 30
0.0
 11
1.096049
 21
-1.740965
 31
0.0
  0
LINE
  8
TRMODEL1
  6
CONTINUOUS
 62
     7
  5
755
 10
1.096049
 20
-1.740965
 30
0.0
 11
1.031358
 21
-1.744808
 31
0.0
  0
LINE
  8
TRMODEL1
  6
CONTINUOUS
 62
     7
  5
756
 10
1.031358
 20
-1.744808
 30
0.0
 11
0.966645
 21
-1.748417
 31
0.0
  0
LINE
  8
TRMODEL1
  6
CONTINUOUS
 62
     7
  5
757
 10
0.966645
 20
-1.748417
 30
0.0
 11
0.90191
 21
-1.751793
 31
0.0
  0
LINE
  8
TRMODEL1
  6
CONTINUOUS
 62
     7
  5
758
 10
0.90191
 20
-1.751793
 30
0.0
 11
0.837155
 21
-1.754935
 31
0.0
  0
LINE
  8
TRMODEL1
  6
CONTINUOUS
 62
     7
  5
759
 10
0.837155
 20
-1.754935
 30
0.0
 11
0.772381
 21
-1.757842
 31
0.0
  0
LINE
  8
TRMODEL1
  6
CONTINUOUS
 62
     7
  5
75A
 10
0.772381
 20
-1.757842
 30
0.0
 11
0.707591
 21
-1.760516
 31
0.0
  0
LINE
  8
TRMODEL1
  6
CONTINUOUS
 62
     7
  5
75B
 10
0.707591
 20
-1.760516
 30
0.0
 11
0.642784
 21
-1.762956
 31
0.0
  0
LINE
  8
TRMODEL1
  6
CONTINUOUS
 62
     7
  5
75C
 10
0.642784
 20
-1.762956
 30
0.0
 11
0.577963
 21
-1.765161
 31
0.0
  0
LINE
  8
TRMODEL1
  6
CONTINUOUS
 62
     7
  5
75D
 10
0.577963
 20
-1.765161
 30
0.0
 11
0.51313
 21
-1.767132
 31
0.0
  0
LINE
  8
TRMODEL1
  6
CONTINUOUS
 62
     7
  5
75E
 10
0.51313
 20
-1.767132
 30
0.0
 11
0.448285
 21
-1.768869
 31
0.0
  0
LINE
  8
TRMODEL1
  6
CONTINUOUS
 62
     7
  5
75F
 10
0.448285
 20
-1.768869
 30
0.0
 11
0.383429
 21
-1.770372
 31
0.0
  0
LINE
  8
TRMODEL1
  6
CONTINUOUS
 62
     7
  5
760
 10
0.383429
 20
-1.770372
 30
0.0
 11
0.318566
 21
-1.77164
 31
0.0
  0
LINE
  8
TRMODEL1
  6
CONTINUOUS
 62
     7
  5
761
 10
0.318566
 20
-1.77164
 30
0.0
 11
0.253695
 21
-1.772674
 31
0.0
  0
LINE
  8
TRMODEL1
  6
CONTINUOUS
 62
     7
  5
762
 10
0.253695
 20
-1.772674
 30
0.0
 11
0.188819
 21
-1.773473
 31
0.0
  0
LINE
  8
TRMODEL1
  6
CONTINUOUS
 62
     7
  5
763
 10
0.188819
 20
-1.773473
 30
0.0
 11
0.123938
 21
-1.774038
 31
0.0
  0
LINE
  8
TRMODEL1
  6
CONTINUOUS
 62
     7
  5
764
 10
0.123938
 20
-1.774038
 30
0.0
 11
0.059055
 21
-1.774369
 31
0.0
  0
LINE
  8
TRMODEL1
  6
CONTINUOUS
 62
     7
  5
765
 10
-0.059055
 20
-1.774369
 30
0.0
 11
-0.123938
 21
-1.774038
 31
0.0
  0
LINE
  8
TRMODEL1
  6
CONTINUOUS
 62
     7
  5
766
 10
-0.123938
 20
-1.774038
 30
0.0
 11
-0.188818
 21
-1.773473
 31
0.0
  0
LINE
  8
TRMODEL1
  6
CONTINUOUS
 62
     7
  5
767
 10
-0.188818
 20
-1.773473
 30
0.0
 11
-0.253694
 21
-1.772674
 31
0.0
  0
LINE
  8
TRMODEL1
  6
CONTINUOUS
 62
     7
  5
768
 10
-0.253694
 20
-1.772674
 30
0.0
 11
-0.318565
 21
-1.77164
 31
0.0
  0
LINE
  8
TRMODEL1
  6
CONTINUOUS
 62
     7
  5
769
 10
-0.318565
 20
-1.77164
 30
0.0
 11
-0.383428
 21
-1.770372
 31
0.0
  0
LINE
  8
TRMODEL1
  6
CONTINUOUS
 62
     7
  5
76A
 10
-0.383428
 20
-1.770372
 30
0.0
 11
-0.448283
 21
-1.768869
 31
0.0
  0
LINE
  8
TRMODEL1
  6
CONTINUOUS
 62
     7
  5
76B
 10
-0.448283
 20
-1.768869
 30
0.0
 11
-0.513128
 21
-1.767132
 31
0.0
  0
LINE
  8
TRMODEL1
  6
CONTINUOUS
 62
     7
  5
76C
 10
-0.513128
 20
-1.767132
 30
0.0
 11
-0.577961
 21
-1.765161
 31
0.0
  0
LINE
  8
TRMODEL1
  6
CONTINUOUS
 62
     7
  5
76D
 10
-0.577961
 20
-1.765161
 30
0.0
 11
-0.642782
 21
-1.762956
 31
0.0
  0
LINE
  8
TRMODEL1
  6
CONTINUOUS
 62
     7
  5
76E
 10
-0.642782
 20
-1.762956
 30
0.0
 11
-0.707588
 21
-1.760516
 31
0.0
  0
LINE
  8
TRMODEL1
  6
CONTINUOUS
 62
     7
  5
76F
 10
-0.707588
 20
-1.760516
 30
0.0
 11
-0.772378
 21
-1.757843
 31
0.0
  0
LINE
  8
TRMODEL1
  6
CONTINUOUS
 62
     7
  5
770
 10
-0.772378
 20
-1.757843
 30
0.0
 11
-0.837152
 21
-1.754935
 31
0.0
  0
LINE
  8
TRMODEL1
  6
CONTINUOUS
 62
     7
  5
771
 10
-0.837152
 20
-1.754935
 30
0.0
 11
-0.901907
 21
-1.751793
 31
0.0
  0
LINE
  8
TRMODEL1
  6
CONTINUOUS
 62
     7
  5
772
 10
-0.901907
 20
-1.751793
 30
0.0
 11
-0.966641
 21
-1.748418
 31
0.0
  0
LINE
  8
TRMODEL1
  6
CONTINUOUS
 62
     7
  5
773
 10
-0.966641
 20
-1.748418
 30
0.0
 11
-1.031354
 21
-1.744808
 31
0.0
  0
LINE
  8
TRMODEL1
  6
CONTINUOUS
 62
     7
  5
774
 10
-1.031354
 20
-1.744808
 30
0.0
 11
-1.096044
 21
-1.740965
 31
0.0
  0
LINE
  8
TRMODEL1
  6
CONTINUOUS
 62
     7
  5
775
 10
-1.096044
 20
-1.740965
 30
0.0
 11
-1.16071
 21
-1.736888
 31
0.0
  0
LINE
  8
TRMODEL1
  6
CONTINUOUS
 62
     7
  5
776
 10
-1.16071
 20
-1.736888
 30
0.0
 11
-1.22535
 21
-1.732577
 31
0.0
  0
LINE
  8
TRMODEL1
  6
CONTINUOUS
 62
     7
  5
777
 10
-1.22535
 20
-1.732577
 30
0.0
 11
-1.289963
 21
-1.728033
 31
0.0
  0
LINE
  8
TRMODEL1
  6
CONTINUOUS
 62
     7
  5
778
 10
-1.289963
 20
-1.728033
 30
0.0
 11
-1.354547
 21
-1.723256
 31
0.0
  0
LINE
  8
TRMODEL1
  6
CONTINUOUS
 62
     7
  5
779
 10
-1.354547
 20
-1.723256
 30
0.0
 11
-1.419101
 21
-1.718245
 31
0.0
  0
LINE
  8
TRMODEL1
  6
CONTINUOUS
 62
     7
  5
77A
 10
-1.419101
 20
-1.718245
 30
0.0
 11
-1.483623
 21
-1.713001
 31
0.0
  0
LINE
  8
TRMODEL1
  6
CONTINUOUS
 62
     7
  5
77B
 10
-1.483623
 20
-1.713001
 30
0.0
 11
-1.548113
 21
-1.707524
 31
0.0
  0
LINE
  8
TRMODEL1
  6
CONTINUOUS
 62
     7
  5
77C
 10
-1.548113
 20
-1.707524
 30
0.0
 11
-1.612567
 21
-1.701814
 31
0.0
  0
LINE
  8
TRMODEL1
  6
CONTINUOUS
 62
     7
  5
77D
 10
-1.612567
 20
-1.701814
 30
0.0
 11
-1.676986
 21
-1.695872
 31
0.0
  0
LINE
  8
TRMODEL1
  6
CONTINUOUS
 62
     7
  5
77E
 10
-1.676986
 20
-1.695872
 30
0.0
 11
-1.741368
 21
-1.689696
 31
0.0
  0
LINE
  8
TRMODEL1
  6
CONTINUOUS
 62
     7
  5
77F
 10
-1.741368
 20
-1.689696
 30
0.0
 11
-1.805711
 21
-1.683288
 31
0.0
  0
LINE
  8
TRMODEL1
  6
CONTINUOUS
 62
     7
  5
780
 10
-1.805711
 20
-1.683288
 30
0.0
 11
-1.870014
 21
-1.676648
 31
0.0
  0
LINE
  8
TRMODEL1
  6
CONTINUOUS
 62
     7
  5
781
 10
-1.870014
 20
-1.676648
 30
0.0
 11
-1.934275
 21
-1.669775
 31
0.0
  0
LINE
  8
TRMODEL1
  6
CONTINUOUS
 62
     7
  5
782
 10
-1.934275
 20
-1.669775
 30
0.0
 11
-1.998493
 21
-1.66267
 31
0.0
  0
LINE
  8
TRMODEL1
  6
CONTINUOUS
 62
     7
  5
783
 10
-1.998493
 20
-1.66267
 30
0.0
 11
-2.062667
 21
-1.655334
 31
0.0
  0
LINE
  8
TRMODEL1
  6
CONTINUOUS
 62
     7
  5
784
 10
-2.062667
 20
-1.655334
 30
0.0
 11
-2.126795
 21
-1.647765
 31
0.0
  0
LINE
  8
TRMODEL1
  6
CONTINUOUS
 62
     7
  5
785
 10
-2.126795
 20
-1.647765
 30
0.0
 11
-2.190875
 21
-1.639965
 31
0.0
  0
LINE
  8
TRMODEL1
  6
CONTINUOUS
 62
     7
  5
786
 10
-2.190875
 20
-1.639965
 30
0.0
 11
-2.254907
 21
-1.631934
 31
0.0
  0
LINE
  8
TRMODEL1
  6
CONTINUOUS
 62
     7
  5
787
 10
-2.254907
 20
-1.631934
 30
0.0
 11
-2.318889
 21
-1.623671
 31
0.0
  0
LINE
  8
TRMODEL1
  6
CONTINUOUS
 62
     7
  5
788
 10
-0.059055
 20
-1.736409
 30
0.0
 11
-0.123938
 21
-1.736078
 31
0.0
  0
LINE
  8
TRMODEL1
  6
CONTINUOUS
 62
     7
  5
789
 10
-0.123938
 20
-1.736078
 30
0.0
 11
-0.188818
 21
-1.735513
 31
0.0
  0
LINE
  8
TRMODEL1
  6
CONTINUOUS
 62
     7
  5
78A
 10
-0.188818
 20
-1.735513
 30
0.0
 11
-0.253694
 21
-1.734714
 31
0.0
  0
LINE
  8
TRMODEL1
  6
CONTINUOUS
 62
     7
  5
78B
 10
-0.253694
 20
-1.734714
 30
0.0
 11
-0.318565
 21
-1.73368
 31
0.0
  0
LINE
  8
TRMODEL1
  6
CONTINUOUS
 62
     7
  5
78C
 10
-0.318565
 20
-1.73368
 30
0.0
 11
-0.383428
 21
-1.732412
 31
0.0
  0
LINE
  8
TRMODEL1
  6
CONTINUOUS
 62
     7
  5
78D
 10
-0.383428
 20
-1.732412
 30
0.0
 11
-0.448283
 21
-1.730909
 31
0.0
  0
LINE
  8
TRMODEL1
  6
CONTINUOUS
 62
     7
  5
78E
 10
-0.448283
 20
-1.730909
 30
0.0
 11
-0.513128
 21
-1.729172
 31
0.0
  0
LINE
  8
TRMODEL1
  6
CONTINUOUS
 62
     7
  5
78F
 10
-0.513128
 20
-1.729172
 30
0.0
 11
-0.577961
 21
-1.727201
 31
0.0
  0
LINE
  8
TRMODEL1
  6
CONTINUOUS
 62
     7
  5
790
 10
-0.577961
 20
-1.727201
 30
0.0
 11
-0.642782
 21
-1.724996
 31
0.0
  0
LINE
  8
TRMODEL1
  6
CONTINUOUS
 62
     7
  5
791
 10
-0.642782
 20
-1.724996
 30
0.0
 11
-0.707588
 21
-1.722556
 31
0.0
  0
LINE
  8
TRMODEL1
  6
CONTINUOUS
 62
     7
  5
792
 10
-0.707588
 20
-1.722556
 30
0.0
 11
-0.772379
 21
-1.719883
 31
0.0
  0
LINE
  8
TRMODEL1
  6
CONTINUOUS
 62
     7
  5
793
 10
-0.772379
 20
-1.719883
 30
0.0
 11
-0.837152
 21
-1.716975
 31
0.0
  0
LINE
  8
TRMODEL1
  6
CONTINUOUS
 62
     7
  5
794
 10
-0.837152
 20
-1.716975
 30
0.0
 11
-0.901907
 21
-1.713833
 31
0.0
  0
LINE
  8
TRMODEL1
  6
CONTINUOUS
 62
     7
  5
795
 10
-0.901907
 20
-1.713833
 30
0.0
 11
-0.966641
 21
-1.710458
 31
0.0
  0
LINE
  8
TRMODEL1
  6
CONTINUOUS
 62
     7
  5
796
 10
-0.966641
 20
-1.710458
 30
0.0
 11
-1.031354
 21
-1.706848
 31
0.0
  0
LINE
  8
TRMODEL1
  6
CONTINUOUS
 62
     7
  5
797
 10
-1.031354
 20
-1.706848
 30
0.0
 11
-1.096045
 21
-1.703005
 31
0.0
  0
LINE
  8
TRMODEL1
  6
CONTINUOUS
 62
     7
  5
798
 10
-1.096045
 20
-1.703005
 30
0.0
 11
-1.160711
 21
-1.698928
 31
0.0
  0
LINE
  8
TRMODEL1
  6
CONTINUOUS
 62
     7
  5
799
 10
-1.160711
 20
-1.698928
 30
0.0
 11
-1.225351
 21
-1.694617
 31
0.0
  0
LINE
  8
TRMODEL1
  6
CONTINUOUS
 62
     7
  5
79A
 10
-1.225351
 20
-1.694617
 30
0.0
 11
-1.289963
 21
-1.690073
 31
0.0
  0
LINE
  8
TRMODEL1
  6
CONTINUOUS
 62
     7
  5
79B
 10
-1.289963
 20
-1.690073
 30
0.0
 11
-1.354547
 21
-1.685296
 31
0.0
  0
LINE
  8
TRMODEL1
  6
CONTINUOUS
 62
     7
  5
79C
 10
-1.354547
 20
-1.685296
 30
0.0
 11
-1.419101
 21
-1.680285
 31
0.0
  0
LINE
  8
TRMODEL1
  6
CONTINUOUS
 62
     7
  5
79D
 10
-1.419101
 20
-1.680285
 30
0.0
 11
-1.483624
 21
-1.675041
 31
0.0
  0
LINE
  8
TRMODEL1
  6
CONTINUOUS
 62
     7
  5
79E
 10
-1.483624
 20
-1.675041
 30
0.0
 11
-1.548113
 21
-1.669564
 31
0.0
  0
LINE
  8
TRMODEL1
  6
CONTINUOUS
 62
     7
  5
79F
 10
-1.548113
 20
-1.669564
 30
0.0
 11
-1.612568
 21
-1.663854
 31
0.0
  0
LINE
  8
TRMODEL1
  6
CONTINUOUS
 62
     7
  5
7A0
 10
-1.612568
 20
-1.663854
 30
0.0
 11
-1.676987
 21
-1.657912
 31
0.0
  0
LINE
  8
TRMODEL1
  6
CONTINUOUS
 62
     7
  5
7A1
 10
-1.676987
 20
-1.657912
 30
0.0
 11
-1.741369
 21
-1.651736
 31
0.0
  0
LINE
  8
TRMODEL1
  6
CONTINUOUS
 62
     7
  5
7A2
 10
-1.741369
 20
-1.651736
 30
0.0
 11
-1.805712
 21
-1.645328
 31
0.0
  0
LINE
  8
TRMODEL1
  6
CONTINUOUS
 62
     7
  5
7A3
 10
-1.805712
 20
-1.645328
 30
0.0
 11
-1.870014
 21
-1.638688
 31
0.0
  0
LINE
  8
TRMODEL1
  6
CONTINUOUS
 62
     7
  5
7A4
 10
-1.870014
 20
-1.638688
 30
0.0
 11
-1.934276
 21
-1.631815
 31
0.0
  0
LINE
  8
TRMODEL1
  6
CONTINUOUS
 62
     7
  5
7A5
 10
-1.934276
 20
-1.631815
 30
0.0
 11
-1.998494
 21
-1.62471
 31
0.0
  0
LINE
  8
TRMODEL1
  6
CONTINUOUS
 62
     7
  5
7A6
 10
-1.998494
 20
-1.62471
 30
0.0
 11
-2.062667
 21
-1.617374
 31
0.0
  0
LINE
  8
TRMODEL1
  6
CONTINUOUS
 62
     7
  5
7A7
 10
-2.062667
 20
-1.617374
 30
0.0
 11
-2.126795
 21
-1.609805
 31
0.0
  0
LINE
  8
TRMODEL1
  6
CONTINUOUS
 62
     7
  5
7A8
 10
-2.126795
 20
-1.609805
 30
0.0
 11
-2.190876
 21
-1.602005
 31
0.0
  0
LINE
  8
TRMODEL1
  6
CONTINUOUS
 62
     7
  5
7A9
 10
-2.190876
 20
-1.602005
 30
0.0
 11
-2.254908
 21
-1.593974
 31
0.0
  0
LINE
  8
TRMODEL1
  6
CONTINUOUS
 62
     7
  5
7AA
 10
-2.254908
 20
-1.593974
 30
0.0
 11
-2.318889
 21
-1.585711
 31
0.0
  0
LINE
  8
TRMODEL1
  6
CONTINUOUS
 62
     7
  5
7AB
 10
-2.318898
 20
-0.982525
 30
0.0
 11
-2.254916
 21
-0.990788
 31
0.0
  0
LINE
  8
TRMODEL1
  6
CONTINUOUS
 62
     7
  5
7AC
 10
-2.254916
 20
-0.990788
 30
0.0
 11
-2.190884
 21
-0.99882
 31
0.0
  0
LINE
  8
TRMODEL1
  6
CONTINUOUS
 62
     7
  5
7AD
 10
-2.190884
 20
-0.99882
 30
0.0
 11
-2.126803
 21
-1.00662
 31
0.0
  0
LINE
  8
TRMODEL1
  6
CONTINUOUS
 62
     7
  5
7AE
 10
-2.126803
 20
-1.00662
 30
0.0
 11
-2.062675
 21
-1.014188
 31
0.0
  0
LINE
  8
TRMODEL1
  6
CONTINUOUS
 62
     7
  5
7AF
 10
-2.062675
 20
-1.014188
 30
0.0
 11
-1.998501
 21
-1.021525
 31
0.0
  0
LINE
  8
TRMODEL1
  6
CONTINUOUS
 62
     7
  5
7B0
 10
-1.998501
 20
-1.021525
 30
0.0
 11
-1.934283
 21
-1.02863
 31
0.0
  0
LINE
  8
TRMODEL1
  6
CONTINUOUS
 62
     7
  5
7B1
 10
-1.934283
 20
-1.02863
 30
0.0
 11
-1.870021
 21
-1.035502
 31
0.0
  0
LINE
  8
TRMODEL1
  6
CONTINUOUS
 62
     7
  5
7B2
 10
-1.870021
 20
-1.035502
 30
0.0
 11
-1.805718
 21
-1.042143
 31
0.0
  0
LINE
  8
TRMODEL1
  6
CONTINUOUS
 62
     7
  5
7B3
 10
-1.805718
 20
-1.042143
 30
0.0
 11
-1.741375
 21
-1.048551
 31
0.0
  0
LINE
  8
TRMODEL1
  6
CONTINUOUS
 62
     7
  5
7B4
 10
-1.741375
 20
-1.048551
 30
0.0
 11
-1.676993
 21
-1.054726
 31
0.0
  0
LINE
  8
TRMODEL1
  6
CONTINUOUS
 62
     7
  5
7B5
 10
-1.676993
 20
-1.054726
 30
0.0
 11
-1.612574
 21
-1.060669
 31
0.0
  0
LINE
  8
TRMODEL1
  6
CONTINUOUS
 62
     7
  5
7B6
 10
-1.612574
 20
-1.060669
 30
0.0
 11
-1.548118
 21
-1.066379
 31
0.0
  0
LINE
  8
TRMODEL1
  6
CONTINUOUS
 62
     7
  5
7B7
 10
-1.548118
 20
-1.066379
 30
0.0
 11
-1.483629
 21
-1.071856
 31
0.0
  0
LINE
  8
TRMODEL1
  6
CONTINUOUS
 62
     7
  5
7B8
 10
-1.483629
 20
-1.071856
 30
0.0
 11
-1.419106
 21
-1.0771
 31
0.0
  0
LINE
  8
TRMODEL1
  6
CONTINUOUS
 62
     7
  5
7B9
 10
-1.419106
 20
-1.0771
 30
0.0
 11
-1.354552
 21
-1.082111
 31
0.0
  0
LINE
  8
TRMODEL1
  6
CONTINUOUS
 62
     7
  5
7BA
 10
-1.354552
 20
-1.082111
 30
0.0
 11
-1.289968
 21
-1.086888
 31
0.0
  0
LINE
  8
TRMODEL1
  6
CONTINUOUS
 62
     7
  5
7BB
 10
-1.289968
 20
-1.086888
 30
0.0
 11
-1.225355
 21
-1.091433
 31
0.0
  0
LINE
  8
TRMODEL1
  6
CONTINUOUS
 62
     7
  5
7BC
 10
-1.225355
 20
-1.091433
 30
0.0
 11
-1.160715
 21
-1.095743
 31
0.0
  0
LINE
  8
TRMODEL1
  6
CONTINUOUS
 62
     7
  5
7BD
 10
-1.160715
 20
-1.095743
 30
0.0
 11
-1.096049
 21
-1.09982
 31
0.0
  0
LINE
  8
TRMODEL1
  6
CONTINUOUS
 62
     7
  5
7BE
 10
-1.096049
 20
-1.09982
 30
0.0
 11
-1.031358
 21
-1.103663
 31
0.0
  0
LINE
  8
TRMODEL1
  6
CONTINUOUS
 62
     7
  5
7BF
 10
-1.031358
 20
-1.103663
 30
0.0
 11
-0.966645
 21
-1.107273
 31
0.0
  0
LINE
  8
TRMODEL1
  6
CONTINUOUS
 62
     7
  5
7C0
 10
-0.966645
 20
-1.107273
 30
0.0
 11
-0.90191
 21
-1.110649
 31
0.0
  0
LINE
  8
TRMODEL1
  6
CONTINUOUS
 62
     7
  5
7C1
 10
-0.90191
 20
-1.110649
 30
0.0
 11
-0.837155
 21
-1.11379
 31
0.0
  0
LINE
  8
TRMODEL1
  6
CONTINUOUS
 62
     7
  5
7C2
 10
-0.837155
 20
-1.11379
 30
0.0
 11
-0.772381
 21
-1.116698
 31
0.0
  0
LINE
  8
TRMODEL1
  6
CONTINUOUS
 62
     7
  5
7C3
 10
-0.772381
 20
-1.116698
 30
0.0
 11
-0.707591
 21
-1.119372
 31
0.0
  0
LINE
  8
TRMODEL1
  6
CONTINUOUS
 62
     7
  5
7C4
 10
-0.707591
 20
-1.119372
 30
0.0
 11
-0.642784
 21
-1.121811
 31
0.0
  0
LINE
  8
TRMODEL1
  6
CONTINUOUS
 62
     7
  5
7C5
 10
-0.642784
 20
-1.121811
 30
0.0
 11
-0.577963
 21
-1.124017
 31
0.0
  0
LINE
  8
TRMODEL1
  6
CONTINUOUS
 62
     7
  5
7C6
 10
-0.577963
 20
-1.124017
 30
0.0
 11
-0.51313
 21
-1.125988
 31
0.0
  0
LINE
  8
TRMODEL1
  6
CONTINUOUS
 62
     7
  5
7C7
 10
-0.51313
 20
-1.125988
 30
0.0
 11
-0.448285
 21
-1.127724
 31
0.0
  0
LINE
  8
TRMODEL1
  6
CONTINUOUS
 62
     7
  5
7C8
 10
-0.448285
 20
-1.127724
 30
0.0
 11
-0.383429
 21
-1.129227
 31
0.0
  0
LINE
  8
TRMODEL1
  6
CONTINUOUS
 62
     7
  5
7C9
 10
-0.383429
 20
-1.129227
 30
0.0
 11
-0.318566
 21
-1.130495
 31
0.0
  0
LINE
  8
TRMODEL1
  6
CONTINUOUS
 62
     7
  5
7CA
 10
-0.318566
 20
-1.130495
 30
0.0
 11
-0.253695
 21
-1.131529
 31
0.0
  0
LINE
  8
TRMODEL1
  6
CONTINUOUS
 62
     7
  5
7CB
 10
-0.253695
 20
-1.131529
 30
0.0
 11
-0.188819
 21
-1.132328
 31
0.0
  0
LINE
  8
TRMODEL1
  6
CONTINUOUS
 62
     7
  5
7CC
 10
-0.188819
 20
-1.132328
 30
0.0
 11
-0.123938
 21
-1.132894
 31
0.0
  0
LINE
  8
TRMODEL1
  6
CONTINUOUS
 62
     7
  5
7CD
 10
-0.123938
 20
-1.132894
 30
0.0
 11
-0.059055
 21
-1.133224
 31
0.0
  0
LINE
  8
TRMODEL1
  6
CONTINUOUS
 62
     7
  5
7CE
 10
0.059055
 20
-0.470682
 30
0.0
 11
0.12393
 21
-0.470351
 31
0.0
  0
LINE
  8
TRMODEL1
  6
CONTINUOUS
 62
     7
  5
7CF
 10
0.12393
 20
-0.470351
 30
0.0
 11
0.188802
 21
-0.469786
 31
0.0
  0
LINE
  8
TRMODEL1
  6
CONTINUOUS
 62
     7
  5
7D0
 10
0.188802
 20
-0.469786
 30
0.0
 11
0.25367
 21
-0.468987
 31
0.0
  0
LINE
  8
TRMODEL1
  6
CONTINUOUS
 62
     7
  5
7D1
 10
0.25367
 20
-0.468987
 30
0.0
 11
0.318533
 21
-0.467954
 31
0.0
  0
LINE
  8
TRMODEL1
  6
CONTINUOUS
 62
     7
  5
7D2
 10
0.318533
 20
-0.467954
 30
0.0
 11
0.383388
 21
-0.466686
 31
0.0
  0
LINE
  8
TRMODEL1
  6
CONTINUOUS
 62
     7
  5
7D3
 10
0.383388
 20
-0.466686
 30
0.0
 11
0.448235
 21
-0.465184
 31
0.0
  0
LINE
  8
TRMODEL1
  6
CONTINUOUS
 62
     7
  5
7D4
 10
0.448235
 20
-0.465184
 30
0.0
 11
0.513071
 21
-0.463447
 31
0.0
  0
LINE
  8
TRMODEL1
  6
CONTINUOUS
 62
     7
  5
7D5
 10
0.513071
 20
-0.463447
 30
0.0
 11
0.577897
 21
-0.461476
 31
0.0
  0
LINE
  8
TRMODEL1
  6
CONTINUOUS
 62
     7
  5
7D6
 10
0.577897
 20
-0.461476
 30
0.0
 11
0.642709
 21
-0.459272
 31
0.0
  0
LINE
  8
TRMODEL1
  6
CONTINUOUS
 62
     7
  5
7D7
 10
0.642709
 20
-0.459272
 30
0.0
 11
0.707507
 21
-0.456833
 31
0.0
  0
LINE
  8
TRMODEL1
  6
CONTINUOUS
 62
     7
  5
7D8
 10
0.707507
 20
-0.456833
 30
0.0
 11
0.77229
 21
-0.45416
 31
0.0
  0
LINE
  8
TRMODEL1
  6
CONTINUOUS
 62
     7
  5
7D9
 10
0.77229
 20
-0.45416
 30
0.0
 11
0.837055
 21
-0.451253
 31
0.0
  0
LINE
  8
TRMODEL1
  6
CONTINUOUS
 62
     7
  5
7DA
 10
0.837055
 20
-0.451253
 30
0.0
 11
0.901802
 21
-0.448112
 31
0.0
  0
LINE
  8
TRMODEL1
  6
CONTINUOUS
 62
     7
  5
7DB
 10
0.901802
 20
-0.448112
 30
0.0
 11
0.966528
 21
-0.444737
 31
0.0
  0
LINE
  8
TRMODEL1
  6
CONTINUOUS
 62
     7
  5
7DC
 10
0.966528
 20
-0.444737
 30
0.0
 11
1.031234
 21
-0.441128
 31
0.0
  0
LINE
  8
TRMODEL1
  6
CONTINUOUS
 62
     7
  5
7DD
 10
1.031234
 20
-0.441128
 30
0.0
 11
1.095916
 21
-0.437286
 31
0.0
  0
LINE
  8
TRMODEL1
  6
CONTINUOUS
 62
     7
  5
7DE
 10
1.095916
 20
-0.437286
 30
0.0
 11
1.160574
 21
-0.43321
 31
0.0
  0
LINE
  8
TRMODEL1
  6
CONTINUOUS
 62
     7
  5
7DF
 10
1.160574
 20
-0.43321
 30
0.0
 11
1.225206
 21
-0.428901
 31
0.0
  0
LINE
  8
TRMODEL1
  6
CONTINUOUS
 62
     7
  5
7E0
 10
1.225206
 20
-0.428901
 30
0.0
 11
1.28981
 21
-0.424358
 31
0.0
  0
LINE
  8
TRMODEL1
  6
CONTINUOUS
 62
     7
  5
7E1
 10
1.28981
 20
-0.424358
 30
0.0
 11
1.354386
 21
-0.419581
 31
0.0
  0
LINE
  8
TRMODEL1
  6
CONTINUOUS
 62
     7
  5
7E2
 10
1.354386
 20
-0.419581
 30
0.0
 11
1.418932
 21
-0.414572
 31
0.0
  0
LINE
  8
TRMODEL1
  6
CONTINUOUS
 62
     7
  5
7E3
 10
1.418932
 20
-0.414572
 30
0.0
 11
1.483447
 21
-0.409329
 31
0.0
  0
LINE
  8
TRMODEL1
  6
CONTINUOUS
 62
     7
  5
7E4
 10
1.483447
 20
-0.409329
 30
0.0
 11
1.547928
 21
-0.403854
 31
0.0
  0
LINE
  8
TRMODEL1
  6
CONTINUOUS
 62
     7
  5
7E5
 10
1.547928
 20
-0.403854
 30
0.0
 11
1.612375
 21
-0.398145
 31
0.0
  0
LINE
  8
TRMODEL1
  6
CONTINUOUS
 62
     7
  5
7E6
 10
1.612375
 20
-0.398145
 30
0.0
 11
1.676786
 21
-0.392204
 31
0.0
  0
LINE
  8
TRMODEL1
  6
CONTINUOUS
 62
     7
  5
7E7
 10
1.676786
 20
-0.392204
 30
0.0
 11
1.74116
 21
-0.38603
 31
0.0
  0
LINE
  8
TRMODEL1
  6
CONTINUOUS
 62
     7
  5
7E8
 10
1.74116
 20
-0.38603
 30
0.0
 11
1.805495
 21
-0.379623
 31
0.0
  0
LINE
  8
TRMODEL1
  6
CONTINUOUS
 62
     7
  5
7E9
 10
1.805495
 20
-0.379623
 30
0.0
 11
1.86979
 21
-0.372985
 31
0.0
  0
LINE
  8
TRMODEL1
  6
CONTINUOUS
 62
     7
  5
7EA
 10
1.86979
 20
-0.372985
 30
0.0
 11
1.934043
 21
-0.366114
 31
0.0
  0
LINE
  8
TRMODEL1
  6
CONTINUOUS
 62
     7
  5
7EB
 10
1.934043
 20
-0.366114
 30
0.0
 11
1.998254
 21
-0.359011
 31
0.0
  0
LINE
  8
TRMODEL1
  6
CONTINUOUS
 62
     7
  5
7EC
 10
1.998254
 20
-0.359011
 30
0.0
 11
2.06242
 21
-0.351676
 31
0.0
  0
LINE
  8
TRMODEL1
  6
CONTINUOUS
 62
     7
  5
7ED
 10
2.06242
 20
-0.351676
 30
0.0
 11
2.12654
 21
-0.344109
 31
0.0
  0
LINE
  8
TRMODEL1
  6
CONTINUOUS
 62
     7
  5
7EE
 10
2.12654
 20
-0.344109
 30
0.0
 11
2.190612
 21
-0.336311
 31
0.0
  0
LINE
  8
TRMODEL1
  6
CONTINUOUS
 62
     7
  5
7EF
 10
2.190612
 20
-0.336311
 30
0.0
 11
2.254636
 21
-0.328281
 31
0.0
  0
LINE
  8
TRMODEL1
  6
CONTINUOUS
 62
     7
  5
7F0
 10
2.254636
 20
-0.328281
 30
0.0
 11
2.31861
 21
-0.320021
 31
0.0
  0
LINE
  8
TRMODEL1
  6
CONTINUOUS
 62
     7
  5
7F1
 10
2.318898
 20
-0.923167
 30
0.0
 11
2.254916
 21
-0.93143
 31
0.0
  0
LINE
  8
TRMODEL1
  6
CONTINUOUS
 62
     7
  5
7F2
 10
2.254916
 20
-0.93143
 30
0.0
 11
2.190884
 21
-0.939462
 31
0.0
  0
LINE
  8
TRMODEL1
  6
CONTINUOUS
 62
     7
  5
7F3
 10
2.190884
 20
-0.939462
 30
0.0
 11
2.126803
 21
-0.947262
 31
0.0
  0
LINE
  8
TRMODEL1
  6
CONTINUOUS
 62
     7
  5
7F4
 10
2.126803
 20
-0.947262
 30
0.0
 11
2.062675
 21
-0.954831
 31
0.0
  0
LINE
  8
TRMODEL1
  6
CONTINUOUS
 62
     7
  5
7F5
 10
2.062675
 20
-0.954831
 30
0.0
 11
1.998501
 21
-0.962167
 31
0.0
  0
LINE
  8
TRMODEL1
  6
CONTINUOUS
 62
     7
  5
7F6
 10
1.998501
 20
-0.962167
 30
0.0
 11
1.934283
 21
-0.969272
 31
0.0
  0
LINE
  8
TRMODEL1
  6
CONTINUOUS
 62
     7
  5
7F7
 10
1.934283
 20
-0.969272
 30
0.0
 11
1.870021
 21
-0.976145
 31
0.0
  0
LINE
  8
TRMODEL1
  6
CONTINUOUS
 62
     7
  5
7F8
 10
1.870021
 20
-0.976145
 30
0.0
 11
1.805718
 21
-0.982785
 31
0.0
  0
LINE
  8
TRMODEL1
  6
CONTINUOUS
 62
     7
  5
7F9
 10
1.805718
 20
-0.982785
 30
0.0
 11
1.741375
 21
-0.989193
 31
0.0
  0
LINE
  8
TRMODEL1
  6
CONTINUOUS
 62
     7
  5
7FA
 10
1.741375
 20
-0.989193
 30
0.0
 11
1.676993
 21
-0.995369
 31
0.0
  0
LINE
  8
TRMODEL1
  6
CONTINUOUS
 62
     7
  5
7FB
 10
1.676993
 20
-0.995369
 30
0.0
 11
1.612574
 21
-1.001312
 31
0.0
  0
LINE
  8
TRMODEL1
  6
CONTINUOUS
 62
     7
  5
7FC
 10
1.612574
 20
-1.001312
 30
0.0
 11
1.548118
 21
-1.007022
 31
0.0
  0
LINE
  8
TRMODEL1
  6
CONTINUOUS
 62
     7
  5
7FD
 10
1.548118
 20
-1.007022
 30
0.0
 11
1.483629
 21
-1.012499
 31
0.0
  0
LINE
  8
TRMODEL1
  6
CONTINUOUS
 62
     7
  5
7FE
 10
1.483629
 20
-1.012499
 30
0.0
 11
1.419106
 21
-1.017743
 31
0.0
  0
LINE
  8
TRMODEL1
  6
CONTINUOUS
 62
     7
  5
7FF
 10
1.419106
 20
-1.017743
 30
0.0
 11
1.354552
 21
-1.022753
 31
0.0
  0
LINE
  8
TRMODEL1
  6
CONTINUOUS
 62
     7
  5
800
 10
1.354552
 20
-1.022753
 30
0.0
 11
1.289968
 21
-1.027531
 31
0.0
  0
LINE
  8
TRMODEL1
  6
CONTINUOUS
 62
     7
  5
801
 10
1.289968
 20
-1.027531
 30
0.0
 11
1.225355
 21
-1.032075
 31
0.0
  0
LINE
  8
TRMODEL1
  6
CONTINUOUS
 62
     7
  5
802
 10
1.225355
 20
-1.032075
 30
0.0
 11
1.160715
 21
-1.036386
 31
0.0
  0
LINE
  8
TRMODEL1
  6
CONTINUOUS
 62
     7
  5
803
 10
1.160715
 20
-1.036386
 30
0.0
 11
1.096049
 21
-1.040463
 31
0.0
  0
LINE
  8
TRMODEL1
  6
CONTINUOUS
 62
     7
  5
804
 10
1.096049
 20
-1.040463
 30
0.0
 11
1.031358
 21
-1.044306
 31
0.0
  0
LINE
  8
TRMODEL1
  6
CONTINUOUS
 62
     7
  5
805
 10
1.031358
 20
-1.044306
 30
0.0
 11
0.966645
 21
-1.047915
 31
0.0
  0
LINE
  8
TRMODEL1
  6
CONTINUOUS
 62
     7
  5
806
 10
0.966645
 20
-1.047915
 30
0.0
 11
0.90191
 21
-1.051291
 31
0.0
  0
LINE
  8
TRMODEL1
  6
CONTINUOUS
 62
     7
  5
807
 10
0.90191
 20
-1.051291
 30
0.0
 11
0.837155
 21
-1.054433
 31
0.0
  0
LINE
  8
TRMODEL1
  6
CONTINUOUS
 62
     7
  5
808
 10
0.837155
 20
-1.054433
 30
0.0
 11
0.772381
 21
-1.05734
 31
0.0
  0
LINE
  8
TRMODEL1
  6
CONTINUOUS
 62
     7
  5
809
 10
0.772381
 20
-1.05734
 30
0.0
 11
0.707591
 21
-1.060014
 31
0.0
  0
LINE
  8
TRMODEL1
  6
CONTINUOUS
 62
     7
  5
80A
 10
0.707591
 20
-1.060014
 30
0.0
 11
0.642784
 21
-1.062454
 31
0.0
  0
LINE
  8
TRMODEL1
  6
CONTINUOUS
 62
     7
  5
80B
 10
0.642784
 20
-1.062454
 30
0.0
 11
0.577963
 21
-1.064659
 31
0.0
  0
LINE
  8
TRMODEL1
  6
CONTINUOUS
 62
     7
  5
80C
 10
0.577963
 20
-1.064659
 30
0.0
 11
0.51313
 21
-1.06663
 31
0.0
  0
LINE
  8
TRMODEL1
  6
CONTINUOUS
 62
     7
  5
80D
 10
0.51313
 20
-1.06663
 30
0.0
 11
0.448285
 21
-1.068367
 31
0.0
  0
LINE
  8
TRMODEL1
  6
CONTINUOUS
 62
     7
  5
80E
 10
0.448285
 20
-1.068367
 30
0.0
 11
0.383429
 21
-1.069869
 31
0.0
  0
LINE
  8
TRMODEL1
  6
CONTINUOUS
 62
     7
  5
80F
 10
0.383429
 20
-1.069869
 30
0.0
 11
0.318566
 21
-1.071138
 31
0.0
  0
LINE
  8
TRMODEL1
  6
CONTINUOUS
 62
     7
  5
810
 10
0.318566
 20
-1.071138
 30
0.0
 11
0.253695
 21
-1.072171
 31
0.0
  0
LINE
  8
TRMODEL1
  6
CONTINUOUS
 62
     7
  5
811
 10
0.253695
 20
-1.072171
 30
0.0
 11
0.188819
 21
-1.072971
 31
0.0
  0
LINE
  8
TRMODEL1
  6
CONTINUOUS
 62
     7
  5
812
 10
0.188819
 20
-1.072971
 30
0.0
 11
0.123938
 21
-1.073536
 31
0.0
  0
LINE
  8
TRMODEL1
  6
CONTINUOUS
 62
     7
  5
813
 10
0.123938
 20
-1.073536
 30
0.0
 11
0.059055
 21
-1.073867
 31
0.0
  0
LINE
  8
TRMODEL1
  6
CONTINUOUS
 62
     7
  5
814
 10
2.318898
 20
-0.961127
 30
0.0
 11
2.254916
 21
-0.96939
 31
0.0
  0
LINE
  8
TRMODEL1
  6
CONTINUOUS
 62
     7
  5
815
 10
2.254916
 20
-0.96939
 30
0.0
 11
2.190884
 21
-0.977422
 31
0.0
  0
LINE
  8
TRMODEL1
  6
CONTINUOUS
 62
     7
  5
816
 10
2.190884
 20
-0.977422
 30
0.0
 11
2.126803
 21
-0.985222
 31
0.0
  0
LINE
  8
TRMODEL1
  6
CONTINUOUS
 62
     7
  5
817
 10
2.126803
 20
-0.985222
 30
0.0
 11
2.062675
 21
-0.992791
 31
0.0
  0
LINE
  8
TRMODEL1
  6
CONTINUOUS
 62
     7
  5
818
 10
2.062675
 20
-0.992791
 30
0.0
 11
1.998501
 21
-1.000127
 31
0.0
  0
LINE
  8
TRMODEL1
  6
CONTINUOUS
 62
     7
  5
819
 10
1.998501
 20
-1.000127
 30
0.0
 11
1.934283
 21
-1.007232
 31
0.0
  0
LINE
  8
TRMODEL1
  6
CONTINUOUS
 62
     7
  5
81A
 10
1.934283
 20
-1.007232
 30
0.0
 11
1.870021
 21
-1.014105
 31
0.0
  0
LINE
  8
TRMODEL1
  6
CONTINUOUS
 62
     7
  5
81B
 10
1.870021
 20
-1.014105
 30
0.0
 11
1.805718
 21
-1.020745
 31
0.0
  0
LINE
  8
TRMODEL1
  6
CONTINUOUS
 62
     7
  5
81C
 10
1.805718
 20
-1.020745
 30
0.0
 11
1.741375
 21
-1.027153
 31
0.0
  0
LINE
  8
TRMODEL1
  6
CONTINUOUS
 62
     7
  5
81D
 10
1.741375
 20
-1.027153
 30
0.0
 11
1.676993
 21
-1.033329
 31
0.0
  0
LINE
  8
TRMODEL1
  6
CONTINUOUS
 62
     7
  5
81E
 10
1.676993
 20
-1.033329
 30
0.0
 11
1.612574
 21
-1.039272
 31
0.0
  0
LINE
  8
TRMODEL1
  6
CONTINUOUS
 62
     7
  5
81F
 10
1.612574
 20
-1.039272
 30
0.0
 11
1.548118
 21
-1.044982
 31
0.0
  0
LINE
  8
TRMODEL1
  6
CONTINUOUS
 62
     7
  5
820
 10
1.548118
 20
-1.044982
 30
0.0
 11
1.483629
 21
-1.050459
 31
0.0
  0
LINE
  8
TRMODEL1
  6
CONTINUOUS
 62
     7
  5
821
 10
1.483629
 20
-1.050459
 30
0.0
 11
1.419106
 21
-1.055703
 31
0.0
  0
LINE
  8
TRMODEL1
  6
CONTINUOUS
 62
     7
  5
822
 10
1.419106
 20
-1.055703
 30
0.0
 11
1.354552
 21
-1.060713
 31
0.0
  0
LINE
  8
TRMODEL1
  6
CONTINUOUS
 62
     7
  5
823
 10
1.354552
 20
-1.060713
 30
0.0
 11
1.289968
 21
-1.065491
 31
0.0
  0
LINE
  8
TRMODEL1
  6
CONTINUOUS
 62
     7
  5
824
 10
1.289968
 20
-1.065491
 30
0.0
 11
1.225355
 21
-1.070035
 31
0.0
  0
LINE
  8
TRMODEL1
  6
CONTINUOUS
 62
     7
  5
825
 10
1.225355
 20
-1.070035
 30
0.0
 11
1.160715
 21
-1.074345
 31
0.0
  0
LINE
  8
TRMODEL1
  6
CONTINUOUS
 62
     7
  5
826
 10
1.160715
 20
-1.074345
 30
0.0
 11
1.096049
 21
-1.078422
 31
0.0
  0
LINE
  8
TRMODEL1
  6
CONTINUOUS
 62
     7
  5
827
 10
1.096049
 20
-1.078422
 30
0.0
 11
1.031358
 21
-1.082266
 31
0.0
  0
LINE
  8
TRMODEL1
  6
CONTINUOUS
 62
     7
  5
828
 10
1.031358
 20
-1.082266
 30
0.0
 11
0.966645
 21
-1.085875
 31
0.0
  0
LINE
  8
TRMODEL1
  6
CONTINUOUS
 62
     7
  5
829
 10
0.966645
 20
-1.085875
 30
0.0
 11
0.90191
 21
-1.089251
 31
0.0
  0
LINE
  8
TRMODEL1
  6
CONTINUOUS
 62
     7
  5
82A
 10
0.90191
 20
-1.089251
 30
0.0
 11
0.837155
 21
-1.092393
 31
0.0
  0
LINE
  8
TRMODEL1
  6
CONTINUOUS
 62
     7
  5
82B
 10
0.837155
 20
-1.092393
 30
0.0
 11
0.772381
 21
-1.0953
 31
0.0
  0
LINE
  8
TRMODEL1
  6
CONTINUOUS
 62
     7
  5
82C
 10
0.772381
 20
-1.0953
 30
0.0
 11
0.707591
 21
-1.097974
 31
0.0
  0
LINE
  8
TRMODEL1
  6
CONTINUOUS
 62
     7
  5
82D
 10
0.707591
 20
-1.097974
 30
0.0
 11
0.642784
 21
-1.100413
 31
0.0
  0
LINE
  8
TRMODEL1
  6
CONTINUOUS
 62
     7
  5
82E
 10
0.642784
 20
-1.100413
 30
0.0
 11
0.577963
 21
-1.102619
 31
0.0
  0
LINE
  8
TRMODEL1
  6
CONTINUOUS
 62
     7
  5
82F
 10
0.577963
 20
-1.102619
 30
0.0
 11
0.51313
 21
-1.10459
 31
0.0
  0
LINE
  8
TRMODEL1
  6
CONTINUOUS
 62
     7
  5
830
 10
0.51313
 20
-1.10459
 30
0.0
 11
0.448285
 21
-1.106327
 31
0.0
  0
LINE
  8
TRMODEL1
  6
CONTINUOUS
 62
     7
  5
831
 10
0.448285
 20
-1.106327
 30
0.0
 11
0.383429
 21
-1.107829
 31
0.0
  0
LINE
  8
TRMODEL1
  6
CONTINUOUS
 62
     7
  5
832
 10
0.383429
 20
-1.107829
 30
0.0
 11
0.318566
 21
-1.109098
 31
0.0
  0
LINE
  8
TRMODEL1
  6
CONTINUOUS
 62
     7
  5
833
 10
0.318566
 20
-1.109098
 30
0.0
 11
0.253695
 21
-1.110131
 31
0.0
  0
LINE
  8
TRMODEL1
  6
CONTINUOUS
 62
     7
  5
834
 10
0.253695
 20
-1.110131
 30
0.0
 11
0.188819
 21
-1.110931
 31
0.0
  0
LINE
  8
TRMODEL1
  6
CONTINUOUS
 62
     7
  5
835
 10
0.188819
 20
-1.110931
 30
0.0
 11
0.123938
 21
-1.111496
 31
0.0
  0
LINE
  8
TRMODEL1
  6
CONTINUOUS
 62
     7
  5
836
 10
0.123938
 20
-1.111496
 30
0.0
 11
0.059055
 21
-1.111826
 31
0.0
  0
LINE
  8
TRMODEL1
  6
CONTINUOUS
 62
     7
  5
837
 10
-0.059055
 20
-1.111826
 30
0.0
 11
-0.123938
 21
-1.111496
 31
0.0
  0
LINE
  8
TRMODEL1
  6
CONTINUOUS
 62
     7
  5
838
 10
-0.123938
 20
-1.111496
 30
0.0
 11
-0.188818
 21
-1.110931
 31
0.0
  0
LINE
  8
TRMODEL1
  6
CONTINUOUS
 62
     7
  5
839
 10
-0.188818
 20
-1.110931
 30
0.0
 11
-0.253694
 21
-1.110131
 31
0.0
  0
LINE
  8
TRMODEL1
  6
CONTINUOUS
 62
     7
  5
83A
 10
-0.253694
 20
-1.110131
 30
0.0
 11
-0.318565
 21
-1.109098
 31
0.0
  0
LINE
  8
TRMODEL1
  6
CONTINUOUS
 62
     7
  5
83B
 10
-0.318565
 20
-1.109098
 30
0.0
 11
-0.383428
 21
-1.107829
 31
0.0
  0
LINE
  8
TRMODEL1
  6
CONTINUOUS
 62
     7
  5
83C
 10
-0.383428
 20
-1.107829
 30
0.0
 11
-0.448283
 21
-1.106327
 31
0.0
  0
LINE
  8
TRMODEL1
  6
CONTINUOUS
 62
     7
  5
83D
 10
-0.448283
 20
-1.106327
 30
0.0
 11
-0.513128
 21
-1.10459
 31
0.0
  0
LINE
  8
TRMODEL1
  6
CONTINUOUS
 62
     7
  5
83E
 10
-0.513128
 20
-1.10459
 30
0.0
 11
-0.577961
 21
-1.102619
 31
0.0
  0
LINE
  8
TRMODEL1
  6
CONTINUOUS
 62
     7
  5
83F
 10
-0.577961
 20
-1.102619
 30
0.0
 11
-0.642781
 21
-1.100414
 31
0.0
  0
LINE
  8
TRMODEL1
  6
CONTINUOUS
 62
     7
  5
840
 10
-0.642781
 20
-1.100414
 30
0.0
 11
-0.707588
 21
-1.097974
 31
0.0
  0
LINE
  8
TRMODEL1
  6
CONTINUOUS
 62
     7
  5
841
 10
-0.707588
 20
-1.097974
 30
0.0
 11
-0.772378
 21
-1.0953
 31
0.0
  0
LINE
  8
TRMODEL1
  6
CONTINUOUS
 62
     7
  5
842
 10
-0.772378
 20
-1.0953
 30
0.0
 11
-0.837151
 21
-1.092393
 31
0.0
  0
LINE
  8
TRMODEL1
  6
CONTINUOUS
 62
     7
  5
843
 10
-0.837151
 20
-1.092393
 30
0.0
 11
-0.901906
 21
-1.089251
 31
0.0
  0
LINE
  8
TRMODEL1
  6
CONTINUOUS
 62
     7
  5
844
 10
-0.901906
 20
-1.089251
 30
0.0
 11
-0.966641
 21
-1.085875
 31
0.0
  0
LINE
  8
TRMODEL1
  6
CONTINUOUS
 62
     7
  5
845
 10
-0.966641
 20
-1.085875
 30
0.0
 11
-1.031354
 21
-1.082266
 31
0.0
  0
LINE
  8
TRMODEL1
  6
CONTINUOUS
 62
     7
  5
846
 10
-1.031354
 20
-1.082266
 30
0.0
 11
-1.096044
 21
-1.078423
 31
0.0
  0
LINE
  8
TRMODEL1
  6
CONTINUOUS
 62
     7
  5
847
 10
-1.096044
 20
-1.078423
 30
0.0
 11
-1.16071
 21
-1.074346
 31
0.0
  0
LINE
  8
TRMODEL1
  6
CONTINUOUS
 62
     7
  5
848
 10
-1.16071
 20
-1.074346
 30
0.0
 11
-1.22535
 21
-1.070035
 31
0.0
  0
LINE
  8
TRMODEL1
  6
CONTINUOUS
 62
     7
  5
849
 10
-1.22535
 20
-1.070035
 30
0.0
 11
-1.289962
 21
-1.065491
 31
0.0
  0
LINE
  8
TRMODEL1
  6
CONTINUOUS
 62
     7
  5
84A
 10
-1.289962
 20
-1.065491
 30
0.0
 11
-1.354546
 21
-1.060714
 31
0.0
  0
LINE
  8
TRMODEL1
  6
CONTINUOUS
 62
     7
  5
84B
 10
-1.354546
 20
-1.060714
 30
0.0
 11
-1.4191
 21
-1.055703
 31
0.0
  0
LINE
  8
TRMODEL1
  6
CONTINUOUS
 62
     7
  5
84C
 10
-1.4191
 20
-1.055703
 30
0.0
 11
-1.483622
 21
-1.050459
 31
0.0
  0
LINE
  8
TRMODEL1
  6
CONTINUOUS
 62
     7
  5
84D
 10
-1.483622
 20
-1.050459
 30
0.0
 11
-1.548112
 21
-1.044982
 31
0.0
  0
LINE
  8
TRMODEL1
  6
CONTINUOUS
 62
     7
  5
84E
 10
-1.548112
 20
-1.044982
 30
0.0
 11
-1.612567
 21
-1.039272
 31
0.0
  0
LINE
  8
TRMODEL1
  6
CONTINUOUS
 62
     7
  5
84F
 10
-1.612567
 20
-1.039272
 30
0.0
 11
-1.676986
 21
-1.033329
 31
0.0
  0
LINE
  8
TRMODEL1
  6
CONTINUOUS
 62
     7
  5
850
 10
-1.676986
 20
-1.033329
 30
0.0
 11
-1.741367
 21
-1.027154
 31
0.0
  0
LINE
  8
TRMODEL1
  6
CONTINUOUS
 62
     7
  5
851
 10
-1.741367
 20
-1.027154
 30
0.0
 11
-1.80571
 21
-1.020746
 31
0.0
  0
LINE
  8
TRMODEL1
  6
CONTINUOUS
 62
     7
  5
852
 10
-1.80571
 20
-1.020746
 30
0.0
 11
-1.870013
 21
-1.014106
 31
0.0
  0
LINE
  8
TRMODEL1
  6
CONTINUOUS
 62
     7
  5
853
 10
-1.870013
 20
-1.014106
 30
0.0
 11
-1.934274
 21
-1.007233
 31
0.0
  0
LINE
  8
TRMODEL1
  6
CONTINUOUS
 62
     7
  5
854
 10
-1.934274
 20
-1.007233
 30
0.0
 11
-1.998492
 21
-1.000128
 31
0.0
  0
LINE
  8
TRMODEL1
  6
CONTINUOUS
 62
     7
  5
855
 10
-1.998492
 20
-1.000128
 30
0.0
 11
-2.062666
 21
-0.992792
 31
0.0
  0
LINE
  8
TRMODEL1
  6
CONTINUOUS
 62
     7
  5
856
 10
-2.062666
 20
-0.992792
 30
0.0
 11
-2.126794
 21
-0.985223
 31
0.0
  0
LINE
  8
TRMODEL1
  6
CONTINUOUS
 62
     7
  5
857
 10
-2.126794
 20
-0.985223
 30
0.0
 11
-2.190874
 21
-0.977423
 31
0.0
  0
LINE
  8
TRMODEL1
  6
CONTINUOUS
 62
     7
  5
858
 10
-2.190874
 20
-0.977423
 30
0.0
 11
-2.254906
 21
-0.969391
 31
0.0
  0
LINE
  8
TRMODEL1
  6
CONTINUOUS
 62
     7
  5
859
 10
-2.254906
 20
-0.969391
 30
0.0
 11
-2.318887
 21
-0.961129
 31
0.0
  0
LINE
  8
TRMODEL1
  6
CONTINUOUS
 62
     7
  5
85A
 10
-0.059055
 20
-1.073867
 30
0.0
 11
-0.123938
 21
-1.073536
 31
0.0
  0
LINE
  8
TRMODEL1
  6
CONTINUOUS
 62
     7
  5
85B
 10
-0.123938
 20
-1.073536
 30
0.0
 11
-0.188818
 21
-1.072971
 31
0.0
  0
LINE
  8
TRMODEL1
  6
CONTINUOUS
 62
     7
  5
85C
 10
-0.188818
 20
-1.072971
 30
0.0
 11
-0.253694
 21
-1.072171
 31
0.0
  0
LINE
  8
TRMODEL1
  6
CONTINUOUS
 62
     7
  5
85D
 10
-0.253694
 20
-1.072171
 30
0.0
 11
-0.318565
 21
-1.071138
 31
0.0
  0
LINE
  8
TRMODEL1
  6
CONTINUOUS
 62
     7
  5
85E
 10
-0.318565
 20
-1.071138
 30
0.0
 11
-0.383428
 21
-1.069869
 31
0.0
  0
LINE
  8
TRMODEL1
  6
CONTINUOUS
 62
     7
  5
85F
 10
-0.383428
 20
-1.069869
 30
0.0
 11
-0.448283
 21
-1.068367
 31
0.0
  0
LINE
  8
TRMODEL1
  6
CONTINUOUS
 62
     7
  5
860
 10
-0.448283
 20
-1.068367
 30
0.0
 11
-0.513128
 21
-1.06663
 31
0.0
  0
LINE
  8
TRMODEL1
  6
CONTINUOUS
 62
     7
  5
861
 10
-0.513128
 20
-1.06663
 30
0.0
 11
-0.577961
 21
-1.064659
 31
0.0
  0
LINE
  8
TRMODEL1
  6
CONTINUOUS
 62
     7
  5
862
 10
-0.577961
 20
-1.064659
 30
0.0
 11
-0.642781
 21
-1.062454
 31
0.0
  0
LINE
  8
TRMODEL1
  6
CONTINUOUS
 62
     7
  5
863
 10
-0.642781
 20
-1.062454
 30
0.0
 11
-0.707588
 21
-1.060014
 31
0.0
  0
LINE
  8
TRMODEL1
  6
CONTINUOUS
 62
     7
  5
864
 10
-0.707588
 20
-1.060014
 30
0.0
 11
-0.772378
 21
-1.057341
 31
0.0
  0
LINE
  8
TRMODEL1
  6
CONTINUOUS
 62
     7
  5
865
 10
-0.772378
 20
-1.057341
 30
0.0
 11
-0.837151
 21
-1.054433
 31
0.0
  0
LINE
  8
TRMODEL1
  6
CONTINUOUS
 62
     7
  5
866
 10
-0.837151
 20
-1.054433
 30
0.0
 11
-0.901906
 21
-1.051291
 31
0.0
  0
LINE
  8
TRMODEL1
  6
CONTINUOUS
 62
     7
  5
867
 10
-0.901906
 20
-1.051291
 30
0.0
 11
-0.966641
 21
-1.047916
 31
0.0
  0
LINE
  8
TRMODEL1
  6
CONTINUOUS
 62
     7
  5
868
 10
-0.966641
 20
-1.047916
 30
0.0
 11
-1.031354
 21
-1.044306
 31
0.0
  0
LINE
  8
TRMODEL1
  6
CONTINUOUS
 62
     7
  5
869
 10
-1.031354
 20
-1.044306
 30
0.0
 11
-1.096044
 21
-1.040463
 31
0.0
  0
LINE
  8
TRMODEL1
  6
CONTINUOUS
 62
     7
  5
86A
 10
-1.096044
 20
-1.040463
 30
0.0
 11
-1.16071
 21
-1.036386
 31
0.0
  0
LINE
  8
TRMODEL1
  6
CONTINUOUS
 62
     7
  5
86B
 10
-1.16071
 20
-1.036386
 30
0.0
 11
-1.22535
 21
-1.032075
 31
0.0
  0
LINE
  8
TRMODEL1
  6
CONTINUOUS
 62
     7
  5
86C
 10
-1.22535
 20
-1.032075
 30
0.0
 11
-1.289962
 21
-1.027531
 31
0.0
  0
LINE
  8
TRMODEL1
  6
CONTINUOUS
 62
     7
  5
86D
 10
-1.289962
 20
-1.027531
 30
0.0
 11
-1.354546
 21
-1.022754
 31
0.0
  0
LINE
  8
TRMODEL1
  6
CONTINUOUS
 62
     7
  5
86E
 10
-1.354546
 20
-1.022754
 30
0.0
 11
-1.4191
 21
-1.017743
 31
0.0
  0
LINE
  8
TRMODEL1
  6
CONTINUOUS
 62
     7
  5
86F
 10
-1.4191
 20
-1.017743
 30
0.0
 11
-1.483623
 21
-1.012499
 31
0.0
  0
LINE
  8
TRMODEL1
  6
CONTINUOUS
 62
     7
  5
870
 10
-1.483623
 20
-1.012499
 30
0.0
 11
-1.548112
 21
-1.007022
 31
0.0
  0
LINE
  8
TRMODEL1
  6
CONTINUOUS
 62
     7
  5
871
 10
-1.548112
 20
-1.007022
 30
0.0
 11
-1.612567
 21
-1.001312
 31
0.0
  0
LINE
  8
TRMODEL1
  6
CONTINUOUS
 62
     7
  5
872
 10
-1.612567
 20
-1.001312
 30
0.0
 11
-1.676986
 21
-0.99537
 31
0.0
  0
LINE
  8
TRMODEL1
  6
CONTINUOUS
 62
     7
  5
873
 10
-1.676986
 20
-0.99537
 30
0.0
 11
-1.741367
 21
-0.989194
 31
0.0
  0
LINE
  8
TRMODEL1
  6
CONTINUOUS
 62
     7
  5
874
 10
-1.741367
 20
-0.989194
 30
0.0
 11
-1.80571
 21
-0.982786
 31
0.0
  0
LINE
  8
TRMODEL1
  6
CONTINUOUS
 62
     7
  5
875
 10
-1.80571
 20
-0.982786
 30
0.0
 11
-1.870013
 21
-0.976146
 31
0.0
  0
LINE
  8
TRMODEL1
  6
CONTINUOUS
 62
     7
  5
876
 10
-1.870013
 20
-0.976146
 30
0.0
 11
-1.934274
 21
-0.969273
 31
0.0
  0
LINE
  8
TRMODEL1
  6
CONTINUOUS
 62
     7
  5
877
 10
-1.934274
 20
-0.969273
 30
0.0
 11
-1.998492
 21
-0.962168
 31
0.0
  0
LINE
  8
TRMODEL1
  6
CONTINUOUS
 62
     7
  5
878
 10
-1.998492
 20
-0.962168
 30
0.0
 11
-2.062666
 21
-0.954832
 31
0.0
  0
LINE
  8
TRMODEL1
  6
CONTINUOUS
 62
     7
  5
879
 10
-2.062666
 20
-0.954832
 30
0.0
 11
-2.126794
 21
-0.947263
 31
0.0
  0
LINE
  8
TRMODEL1
  6
CONTINUOUS
 62
     7
  5
87A
 10
-2.126794
 20
-0.947263
 30
0.0
 11
-2.190874
 21
-0.939463
 31
0.0
  0
LINE
  8
TRMODEL1
  6
CONTINUOUS
 62
     7
  5
87B
 10
-2.190874
 20
-0.939463
 30
0.0
 11
-2.254906
 21
-0.931432
 31
0.0
  0
LINE
  8
TRMODEL1
  6
CONTINUOUS
 62
     7
  5
87C
 10
-2.254906
 20
-0.931432
 30
0.0
 11
-2.318888
 21
-0.923169
 31
0.0
  0
LINE
  8
TRMODEL1
  6
CONTINUOUS
 62
     7
  5
87D
 10
-2.31861
 20
-0.320021
 30
0.0
 11
-2.254636
 21
-0.328281
 31
0.0
  0
LINE
  8
TRMODEL1
  6
CONTINUOUS
 62
     7
  5
87E
 10
-2.254636
 20
-0.328281
 30
0.0
 11
-2.190612
 21
-0.336311
 31
0.0
  0
LINE
  8
TRMODEL1
  6
CONTINUOUS
 62
     7
  5
87F
 10
-2.190612
 20
-0.336311
 30
0.0
 11
-2.12654
 21
-0.344109
 31
0.0
  0
LINE
  8
TRMODEL1
  6
CONTINUOUS
 62
     7
  5
880
 10
-2.12654
 20
-0.344109
 30
0.0
 11
-2.06242
 21
-0.351676
 31
0.0
  0
LINE
  8
TRMODEL1
  6
CONTINUOUS
 62
     7
  5
881
 10
-2.06242
 20
-0.351676
 30
0.0
 11
-1.998254
 21
-0.359011
 31
0.0
  0
LINE
  8
TRMODEL1
  6
CONTINUOUS
 62
     7
  5
882
 10
-1.998254
 20
-0.359011
 30
0.0
 11
-1.934043
 21
-0.366114
 31
0.0
  0
LINE
  8
TRMODEL1
  6
CONTINUOUS
 62
     7
  5
883
 10
-1.934043
 20
-0.366114
 30
0.0
 11
-1.86979
 21
-0.372985
 31
0.0
  0
LINE
  8
TRMODEL1
  6
CONTINUOUS
 62
     7
  5
884
 10
-1.86979
 20
-0.372985
 30
0.0
 11
-1.805495
 21
-0.379623
 31
0.0
  0
LINE
  8
TRMODEL1
  6
CONTINUOUS
 62
     7
  5
885
 10
-1.805495
 20
-0.379623
 30
0.0
 11
-1.74116
 21
-0.38603
 31
0.0
  0
LINE
  8
TRMODEL1
  6
CONTINUOUS
 62
     7
  5
886
 10
-1.74116
 20
-0.38603
 30
0.0
 11
-1.676786
 21
-0.392204
 31
0.0
  0
LINE
  8
TRMODEL1
  6
CONTINUOUS
 62
     7
  5
887
 10
-1.676786
 20
-0.392204
 30
0.0
 11
-1.612375
 21
-0.398145
 31
0.0
  0
LINE
  8
TRMODEL1
  6
CONTINUOUS
 62
     7
  5
888
 10
-1.612375
 20
-0.398145
 30
0.0
 11
-1.547928
 21
-0.403854
 31
0.0
  0
LINE
  8
TRMODEL1
  6
CONTINUOUS
 62
     7
  5
889
 10
-1.547928
 20
-0.403854
 30
0.0
 11
-1.483447
 21
-0.409329
 31
0.0
  0
LINE
  8
TRMODEL1
  6
CONTINUOUS
 62
     7
  5
88A
 10
-1.483447
 20
-0.409329
 30
0.0
 11
-1.418932
 21
-0.414572
 31
0.0
  0
LINE
  8
TRMODEL1
  6
CONTINUOUS
 62
     7
  5
88B
 10
-1.418932
 20
-0.414572
 30
0.0
 11
-1.354386
 21
-0.419581
 31
0.0
  0
LINE
  8
TRMODEL1
  6
CONTINUOUS
 62
     7
  5
88C
 10
-1.354386
 20
-0.419581
 30
0.0
 11
-1.28981
 21
-0.424358
 31
0.0
  0
LINE
  8
TRMODEL1
  6
CONTINUOUS
 62
     7
  5
88D
 10
-1.28981
 20
-0.424358
 30
0.0
 11
-1.225206
 21
-0.428901
 31
0.0
  0
LINE
  8
TRMODEL1
  6
CONTINUOUS
 62
     7
  5
88E
 10
-1.225206
 20
-0.428901
 30
0.0
 11
-1.160574
 21
-0.43321
 31
0.0
  0
LINE
  8
TRMODEL1
  6
CONTINUOUS
 62
     7
  5
88F
 10
-1.160574
 20
-0.43321
 30
0.0
 11
-1.095916
 21
-0.437286
 31
0.0
  0
LINE
  8
TRMODEL1
  6
CONTINUOUS
 62
     7
  5
890
 10
-1.095916
 20
-0.437286
 30
0.0
 11
-1.031234
 21
-0.441128
 31
0.0
  0
LINE
  8
TRMODEL1
  6
CONTINUOUS
 62
     7
  5
891
 10
-1.031234
 20
-0.441128
 30
0.0
 11
-0.966528
 21
-0.444737
 31
0.0
  0
LINE
  8
TRMODEL1
  6
CONTINUOUS
 62
     7
  5
892
 10
-0.966528
 20
-0.444737
 30
0.0
 11
-0.901802
 21
-0.448112
 31
0.0
  0
LINE
  8
TRMODEL1
  6
CONTINUOUS
 62
     7
  5
893
 10
-0.901802
 20
-0.448112
 30
0.0
 11
-0.837055
 21
-0.451253
 31
0.0
  0
LINE
  8
TRMODEL1
  6
CONTINUOUS
 62
     7
  5
894
 10
-0.837055
 20
-0.451253
 30
0.0
 11
-0.77229
 21
-0.45416
 31
0.0
  0
LINE
  8
TRMODEL1
  6
CONTINUOUS
 62
     7
  5
895
 10
-0.77229
 20
-0.45416
 30
0.0
 11
-0.707507
 21
-0.456833
 31
0.0
  0
LINE
  8
TRMODEL1
  6
CONTINUOUS
 62
     7
  5
896
 10
-0.707507
 20
-0.456833
 30
0.0
 11
-0.642709
 21
-0.459272
 31
0.0
  0
LINE
  8
TRMODEL1
  6
CONTINUOUS
 62
     7
  5
897
 10
-0.642709
 20
-0.459272
 30
0.0
 11
-0.577897
 21
-0.461476
 31
0.0
  0
LINE
  8
TRMODEL1
  6
CONTINUOUS
 62
     7
  5
898
 10
-0.577897
 20
-0.461476
 30
0.0
 11
-0.513071
 21
-0.463447
 31
0.0
  0
LINE
  8
TRMODEL1
  6
CONTINUOUS
 62
     7
  5
899
 10
-0.513071
 20
-0.463447
 30
0.0
 11
-0.448235
 21
-0.465184
 31
0.0
  0
LINE
  8
TRMODEL1
  6
CONTINUOUS
 62
     7
  5
89A
 10
-0.448235
 20
-0.465184
 30
0.0
 11
-0.383388
 21
-0.466686
 31
0.0
  0
LINE
  8
TRMODEL1
  6
CONTINUOUS
 62
     7
  5
89B
 10
-0.383388
 20
-0.466686
 30
0.0
 11
-0.318533
 21
-0.467954
 31
0.0
  0
LINE
  8
TRMODEL1
  6
CONTINUOUS
 62
     7
  5
89C
 10
-0.318533
 20
-0.467954
 30
0.0
 11
-0.25367
 21
-0.468987
 31
0.0
  0
LINE
  8
TRMODEL1
  6
CONTINUOUS
 62
     7
  5
89D
 10
-0.25367
 20
-0.468987
 30
0.0
 11
-0.188802
 21
-0.469786
 31
0.0
  0
LINE
  8
TRMODEL1
  6
CONTINUOUS
 62
     7
  5
89E
 10
-0.188802
 20
-0.469786
 30
0.0
 11
-0.12393
 21
-0.470351
 31
0.0
  0
LINE
  8
TRMODEL1
  6
CONTINUOUS
 62
     7
  5
89F
 10
-0.12393
 20
-0.470351
 30
0.0
 11
-0.059055
 21
-0.470682
 31
0.0
  0
LINE
  8
TRMODEL1
  6
CONTINUOUS
 62
     7
  5
8A0
 10
0.059055
 20
0.19186
 30
0.0
 11
0.123938
 21
0.192191
 31
0.0
  0
LINE
  8
TRMODEL1
  6
CONTINUOUS
 62
     7
  5
8A1
 10
0.123938
 20
0.192191
 30
0.0
 11
0.188819
 21
0.192756
 31
0.0
  0
LINE
  8
TRMODEL1
  6
CONTINUOUS
 62
     7
  5
8A2
 10
0.188819
 20
0.192756
 30
0.0
 11
0.253695
 21
0.193555
 31
0.0
  0
LINE
  8
TRMODEL1
  6
CONTINUOUS
 62
     7
  5
8A3
 10
0.253695
 20
0.193555
 30
0.0
 11
0.318566
 21
0.194589
 31
0.0
  0
LINE
  8
TRMODEL1
  6
CONTINUOUS
 62
     7
  5
8A4
 10
0.318566
 20
0.194589
 30
0.0
 11
0.383429
 21
0.195857
 31
0.0
  0
LINE
  8
TRMODEL1
  6
CONTINUOUS
 62
     7
  5
8A5
 10
0.383429
 20
0.195857
 30
0.0
 11
0.448285
 21
0.19736
 31
0.0
  0
LINE
  8
TRMODEL1
  6
CONTINUOUS
 62
     7
  5
8A6
 10
0.448285
 20
0.19736
 30
0.0
 11
0.51313
 21
0.199097
 31
0.0
  0
LINE
  8
TRMODEL1
  6
CONTINUOUS
 62
     7
  5
8A7
 10
0.51313
 20
0.199097
 30
0.0
 11
0.577963
 21
0.201068
 31
0.0
  0
LINE
  8
TRMODEL1
  6
CONTINUOUS
 62
     7
  5
8A8
 10
0.577963
 20
0.201068
 30
0.0
 11
0.642784
 21
0.203273
 31
0.0
  0
LINE
  8
TRMODEL1
  6
CONTINUOUS
 62
     7
  5
8A9
 10
0.642784
 20
0.203273
 30
0.0
 11
0.707591
 21
0.205713
 31
0.0
  0
LINE
  8
TRMODEL1
  6
CONTINUOUS
 62
     7
  5
8AA
 10
0.707591
 20
0.205713
 30
0.0
 11
0.772381
 21
0.208386
 31
0.0
  0
LINE
  8
TRMODEL1
  6
CONTINUOUS
 62
     7
  5
8AB
 10
0.772381
 20
0.208386
 30
0.0
 11
0.837155
 21
0.211294
 31
0.0
  0
LINE
  8
TRMODEL1
  6
CONTINUOUS
 62
     7
  5
8AC
 10
0.837155
 20
0.211294
 30
0.0
 11
0.90191
 21
0.214436
 31
0.0
  0
LINE
  8
TRMODEL1
  6
CONTINUOUS
 62
     7
  5
8AD
 10
0.90191
 20
0.214436
 30
0.0
 11
0.966645
 21
0.217811
 31
0.0
  0
LINE
  8
TRMODEL1
  6
CONTINUOUS
 62
     7
  5
8AE
 10
0.966645
 20
0.217811
 30
0.0
 11
1.031358
 21
0.221421
 31
0.0
  0
LINE
  8
TRMODEL1
  6
CONTINUOUS
 62
     7
  5
8AF
 10
1.031358
 20
0.221421
 30
0.0
 11
1.096049
 21
0.225264
 31
0.0
  0
LINE
  8
TRMODEL1
  6
CONTINUOUS
 62
     7
  5
8B0
 10
1.096049
 20
0.225264
 30
0.0
 11
1.160715
 21
0.229341
 31
0.0
  0
LINE
  8
TRMODEL1
  6
CONTINUOUS
 62
     7
  5
8B1
 10
1.160715
 20
0.229341
 30
0.0
 11
1.225355
 21
0.233652
 31
0.0
  0
LINE
  8
TRMODEL1
  6
CONTINUOUS
 62
     7
  5
8B2
 10
1.225355
 20
0.233652
 30
0.0
 11
1.289968
 21
0.238196
 31
0.0
  0
LINE
  8
TRMODEL1
  6
CONTINUOUS
 62
     7
  5
8B3
 10
1.289968
 20
0.238196
 30
0.0
 11
1.354552
 21
0.242973
 31
0.0
  0
LINE
  8
TRMODEL1
  6
CONTINUOUS
 62
     7
  5
8B4
 10
1.354552
 20
0.242973
 30
0.0
 11
1.419106
 21
0.247984
 31
0.0
  0
LINE
  8
TRMODEL1
  6
CONTINUOUS
 62
     7
  5
8B5
 10
1.419106
 20
0.247984
 30
0.0
 11
1.483629
 21
0.253228
 31
0.0
  0
LINE
  8
TRMODEL1
  6
CONTINUOUS
 62
     7
  5
8B6
 10
1.483629
 20
0.253228
 30
0.0
 11
1.548118
 21
0.258705
 31
0.0
  0
LINE
  8
TRMODEL1
  6
CONTINUOUS
 62
     7
  5
8B7
 10
1.548118
 20
0.258705
 30
0.0
 11
1.612574
 21
0.264415
 31
0.0
  0
LINE
  8
TRMODEL1
  6
CONTINUOUS
 62
     7
  5
8B8
 10
1.612574
 20
0.264415
 30
0.0
 11
1.676993
 21
0.270358
 31
0.0
  0
LINE
  8
TRMODEL1
  6
CONTINUOUS
 62
     7
  5
8B9
 10
1.676993
 20
0.270358
 30
0.0
 11
1.741375
 21
0.276533
 31
0.0
  0
LINE
  8
TRMODEL1
  6
CONTINUOUS
 62
     7
  5
8BA
 10
1.741375
 20
0.276533
 30
0.0
 11
1.805718
 21
0.282941
 31
0.0
  0
LINE
  8
TRMODEL1
  6
CONTINUOUS
 62
     7
  5
8BB
 10
1.805718
 20
0.282941
 30
0.0
 11
1.870021
 21
0.289582
 31
0.0
  0
LINE
  8
TRMODEL1
  6
CONTINUOUS
 62
     7
  5
8BC
 10
1.870021
 20
0.289582
 30
0.0
 11
1.934283
 21
0.296455
 31
0.0
  0
LINE
  8
TRMODEL1
  6
CONTINUOUS
 62
     7
  5
8BD
 10
1.934283
 20
0.296455
 30
0.0
 11
1.998501
 21
0.303559
 31
0.0
  0
LINE
  8
TRMODEL1
  6
CONTINUOUS
 62
     7
  5
8BE
 10
1.998501
 20
0.303559
 30
0.0
 11
2.062675
 21
0.310896
 31
0.0
  0
LINE
  8
TRMODEL1
  6
CONTINUOUS
 62
     7
  5
8BF
 10
2.062675
 20
0.310896
 30
0.0
 11
2.126803
 21
0.318465
 31
0.0
  0
LINE
  8
TRMODEL1
  6
CONTINUOUS
 62
     7
  5
8C0
 10
2.126803
 20
0.318465
 30
0.0
 11
2.190884
 21
0.326265
 31
0.0
  0
LINE
  8
TRMODEL1
  6
CONTINUOUS
 62
     7
  5
8C1
 10
2.190884
 20
0.326265
 30
0.0
 11
2.254916
 21
0.334296
 31
0.0
  0
LINE
  8
TRMODEL1
  6
CONTINUOUS
 62
     7
  5
8C2
 10
2.254916
 20
0.334296
 30
0.0
 11
2.318898
 21
0.342559
 31
0.0
  0
LINE
  8
TRMODEL1
  6
CONTINUOUS
 62
     7
  5
8C3
 10
2.318898
 20
-0.260625
 30
0.0
 11
2.254916
 21
-0.268888
 31
0.0
  0
LINE
  8
TRMODEL1
  6
CONTINUOUS
 62
     7
  5
8C4
 10
2.254916
 20
-0.268888
 30
0.0
 11
2.190884
 21
-0.27692
 31
0.0
  0
LINE
  8
TRMODEL1
  6
CONTINUOUS
 62
     7
  5
8C5
 10
2.190884
 20
-0.27692
 30
0.0
 11
2.126803
 21
-0.28472
 31
0.0
  0
LINE
  8
TRMODEL1
  6
CONTINUOUS
 62
     7
  5
8C6
 10
2.126803
 20
-0.28472
 30
0.0
 11
2.062675
 21
-0.292288
 31
0.0
  0
LINE
  8
TRMODEL1
  6
CONTINUOUS
 62
     7
  5
8C7
 10
2.062675
 20
-0.292288
 30
0.0
 11
1.998501
 21
-0.299625
 31
0.0
  0
LINE
  8
TRMODEL1
  6
CONTINUOUS
 62
     7
  5
8C8
 10
1.998501
 20
-0.299625
 30
0.0
 11
1.934283
 21
-0.30673
 31
0.0
  0
LINE
  8
TRMODEL1
  6
CONTINUOUS
 62
     7
  5
8C9
 10
1.934283
 20
-0.30673
 30
0.0
 11
1.870021
 21
-0.313603
 31
0.0
  0
LINE
  8
TRMODEL1
  6
CONTINUOUS
 62
     7
  5
8CA
 10
1.870021
 20
-0.313603
 30
0.0
 11
1.805718
 21
-0.320243
 31
0.0
  0
LINE
  8
TRMODEL1
  6
CONTINUOUS
 62
     7
  5
8CB
 10
1.805718
 20
-0.320243
 30
0.0
 11
1.741375
 21
-0.326651
 31
0.0
  0
LINE
  8
TRMODEL1
  6
CONTINUOUS
 62
     7
  5
8CC
 10
1.741375
 20
-0.326651
 30
0.0
 11
1.676993
 21
-0.332827
 31
0.0
  0
LINE
  8
TRMODEL1
  6
CONTINUOUS
 62
     7
  5
8CD
 10
1.676993
 20
-0.332827
 30
0.0
 11
1.612574
 21
-0.338769
 31
0.0
  0
LINE
  8
TRMODEL1
  6
CONTINUOUS
 62
     7
  5
8CE
 10
1.612574
 20
-0.338769
 30
0.0
 11
1.548118
 21
-0.344479
 31
0.0
  0
LINE
  8
TRMODEL1
  6
CONTINUOUS
 62
     7
  5
8CF
 10
1.548118
 20
-0.344479
 30
0.0
 11
1.483629
 21
-0.349956
 31
0.0
  0
LINE
  8
TRMODEL1
  6
CONTINUOUS
 62
     7
  5
8D0
 10
1.483629
 20
-0.349956
 30
0.0
 11
1.419106
 21
-0.3552
 31
0.0
  0
LINE
  8
TRMODEL1
  6
CONTINUOUS
 62
     7
  5
8D1
 10
1.419106
 20
-0.3552
 30
0.0
 11
1.354552
 21
-0.360211
 31
0.0
  0
LINE
  8
TRMODEL1
  6
CONTINUOUS
 62
     7
  5
8D2
 10
1.354552
 20
-0.360211
 30
0.0
 11
1.289968
 21
-0.364989
 31
0.0
  0
LINE
  8
TRMODEL1
  6
CONTINUOUS
 62
     7
  5
8D3
 10
1.289968
 20
-0.364989
 30
0.0
 11
1.225355
 21
-0.369533
 31
0.0
  0
LINE
  8
TRMODEL1
  6
CONTINUOUS
 62
     7
  5
8D4
 10
1.225355
 20
-0.369533
 30
0.0
 11
1.160715
 21
-0.373843
 31
0.0
  0
LINE
  8
TRMODEL1
  6
CONTINUOUS
 62
     7
  5
8D5
 10
1.160715
 20
-0.373843
 30
0.0
 11
1.096049
 21
-0.37792
 31
0.0
  0
LINE
  8
TRMODEL1
  6
CONTINUOUS
 62
     7
  5
8D6
 10
1.096049
 20
-0.37792
 30
0.0
 11
1.031358
 21
-0.381764
 31
0.0
  0
LINE
  8
TRMODEL1
  6
CONTINUOUS
 62
     7
  5
8D7
 10
1.031358
 20
-0.381764
 30
0.0
 11
0.966645
 21
-0.385373
 31
0.0
  0
LINE
  8
TRMODEL1
  6
CONTINUOUS
 62
     7
  5
8D8
 10
0.966645
 20
-0.385373
 30
0.0
 11
0.90191
 21
-0.388749
 31
0.0
  0
LINE
  8
TRMODEL1
  6
CONTINUOUS
 62
     7
  5
8D9
 10
0.90191
 20
-0.388749
 30
0.0
 11
0.837155
 21
-0.39189
 31
0.0
  0
LINE
  8
TRMODEL1
  6
CONTINUOUS
 62
     7
  5
8DA
 10
0.837155
 20
-0.39189
 30
0.0
 11
0.772381
 21
-0.394798
 31
0.0
  0
LINE
  8
TRMODEL1
  6
CONTINUOUS
 62
     7
  5
8DB
 10
0.772381
 20
-0.394798
 30
0.0
 11
0.707591
 21
-0.397472
 31
0.0
  0
LINE
  8
TRMODEL1
  6
CONTINUOUS
 62
     7
  5
8DC
 10
0.707591
 20
-0.397472
 30
0.0
 11
0.642784
 21
-0.399911
 31
0.0
  0
LINE
  8
TRMODEL1
  6
CONTINUOUS
 62
     7
  5
8DD
 10
0.642784
 20
-0.399911
 30
0.0
 11
0.577963
 21
-0.402117
 31
0.0
  0
LINE
  8
TRMODEL1
  6
CONTINUOUS
 62
     7
  5
8DE
 10
0.577963
 20
-0.402117
 30
0.0
 11
0.51313
 21
-0.404088
 31
0.0
  0
LINE
  8
TRMODEL1
  6
CONTINUOUS
 62
     7
  5
8DF
 10
0.51313
 20
-0.404088
 30
0.0
 11
0.448285
 21
-0.405825
 31
0.0
  0
LINE
  8
TRMODEL1
  6
CONTINUOUS
 62
     7
  5
8E0
 10
0.448285
 20
-0.405825
 30
0.0
 11
0.383429
 21
-0.407327
 31
0.0
  0
LINE
  8
TRMODEL1
  6
CONTINUOUS
 62
     7
  5
8E1
 10
0.383429
 20
-0.407327
 30
0.0
 11
0.318566
 21
-0.408595
 31
0.0
  0
LINE
  8
TRMODEL1
  6
CONTINUOUS
 62
     7
  5
8E2
 10
0.318566
 20
-0.408595
 30
0.0
 11
0.253695
 21
-0.409629
 31
0.0
  0
LINE
  8
TRMODEL1
  6
CONTINUOUS
 62
     7
  5
8E3
 10
0.253695
 20
-0.409629
 30
0.0
 11
0.188819
 21
-0.410429
 31
0.0
  0
LINE
  8
TRMODEL1
  6
CONTINUOUS
 62
     7
  5
8E4
 10
0.188819
 20
-0.410429
 30
0.0
 11
0.123938
 21
-0.410994
 31
0.0
  0
LINE
  8
TRMODEL1
  6
CONTINUOUS
 62
     7
  5
8E5
 10
0.123938
 20
-0.410994
 30
0.0
 11
0.059055
 21
-0.411324
 31
0.0
  0
LINE
  8
TRMODEL1
  6
CONTINUOUS
 62
     7
  5
8E6
 10
2.318898
 20
-0.298585
 30
0.0
 11
2.254916
 21
-0.306848
 31
0.0
  0
LINE
  8
TRMODEL1
  6
CONTINUOUS
 62
     7
  5
8E7
 10
2.254916
 20
-0.306848
 30
0.0
 11
2.190884
 21
-0.31488
 31
0.0
  0
LINE
  8
TRMODEL1
  6
CONTINUOUS
 62
     7
  5
8E8
 10
2.190884
 20
-0.31488
 30
0.0
 11
2.126803
 21
-0.32268
 31
0.0
  0
LINE
  8
TRMODEL1
  6
CONTINUOUS
 62
     7
  5
8E9
 10
2.126803
 20
-0.32268
 30
0.0
 11
2.062675
 21
-0.330248
 31
0.0
  0
LINE
  8
TRMODEL1
  6
CONTINUOUS
 62
     7
  5
8EA
 10
2.062675
 20
-0.330248
 30
0.0
 11
1.998501
 21
-0.337585
 31
0.0
  0
LINE
  8
TRMODEL1
  6
CONTINUOUS
 62
     7
  5
8EB
 10
1.998501
 20
-0.337585
 30
0.0
 11
1.934283
 21
-0.34469
 31
0.0
  0
LINE
  8
TRMODEL1
  6
CONTINUOUS
 62
     7
  5
8EC
 10
1.934283
 20
-0.34469
 30
0.0
 11
1.870021
 21
-0.351563
 31
0.0
  0
LINE
  8
TRMODEL1
  6
CONTINUOUS
 62
     7
  5
8ED
 10
1.870021
 20
-0.351563
 30
0.0
 11
1.805718
 21
-0.358203
 31
0.0
  0
LINE
  8
TRMODEL1
  6
CONTINUOUS
 62
     7
  5
8EE
 10
1.805718
 20
-0.358203
 30
0.0
 11
1.741375
 21
-0.364611
 31
0.0
  0
LINE
  8
TRMODEL1
  6
CONTINUOUS
 62
     7
  5
8EF
 10
1.741375
 20
-0.364611
 30
0.0
 11
1.676993
 21
-0.370787
 31
0.0
  0
LINE
  8
TRMODEL1
  6
CONTINUOUS
 62
     7
  5
8F0
 10
1.676993
 20
-0.370787
 30
0.0
 11
1.612574
 21
-0.376729
 31
0.0
  0
LINE
  8
TRMODEL1
  6
CONTINUOUS
 62
     7
  5
8F1
 10
1.612574
 20
-0.376729
 30
0.0
 11
1.548118
 21
-0.382439
 31
0.0
  0
LINE
  8
TRMODEL1
  6
CONTINUOUS
 62
     7
  5
8F2
 10
1.548118
 20
-0.382439
 30
0.0
 11
1.483629
 21
-0.387916
 31
0.0
  0
LINE
  8
TRMODEL1
  6
CONTINUOUS
 62
     7
  5
8F3
 10
1.483629
 20
-0.387916
 30
0.0
 11
1.419106
 21
-0.39316
 31
0.0
  0
LINE
  8
TRMODEL1
  6
CONTINUOUS
 62
     7
  5
8F4
 10
1.419106
 20
-0.39316
 30
0.0
 11
1.354552
 21
-0.398171
 31
0.0
  0
LINE
  8
TRMODEL1
  6
CONTINUOUS
 62
     7
  5
8F5
 10
1.354552
 20
-0.398171
 30
0.0
 11
1.289968
 21
-0.402949
 31
0.0
  0
LINE
  8
TRMODEL1
  6
CONTINUOUS
 62
     7
  5
8F6
 10
1.289968
 20
-0.402949
 30
0.0
 11
1.225355
 21
-0.407493
 31
0.0
  0
LINE
  8
TRMODEL1
  6
CONTINUOUS
 62
     7
  5
8F7
 10
1.225355
 20
-0.407493
 30
0.0
 11
1.160715
 21
-0.411803
 31
0.0
  0
LINE
  8
TRMODEL1
  6
CONTINUOUS
 62
     7
  5
8F8
 10
1.160715
 20
-0.411803
 30
0.0
 11
1.096049
 21
-0.41588
 31
0.0
  0
LINE
  8
TRMODEL1
  6
CONTINUOUS
 62
     7
  5
8F9
 10
1.096049
 20
-0.41588
 30
0.0
 11
1.031358
 21
-0.419724
 31
0.0
  0
LINE
  8
TRMODEL1
  6
CONTINUOUS
 62
     7
  5
8FA
 10
1.031358
 20
-0.419724
 30
0.0
 11
0.966645
 21
-0.423333
 31
0.0
  0
LINE
  8
TRMODEL1
  6
CONTINUOUS
 62
     7
  5
8FB
 10
0.966645
 20
-0.423333
 30
0.0
 11
0.90191
 21
-0.426709
 31
0.0
  0
LINE
  8
TRMODEL1
  6
CONTINUOUS
 62
     7
  5
8FC
 10
0.90191
 20
-0.426709
 30
0.0
 11
0.837155
 21
-0.42985
 31
0.0
  0
LINE
  8
TRMODEL1
  6
CONTINUOUS
 62
     7
  5
8FD
 10
0.837155
 20
-0.42985
 30
0.0
 11
0.772381
 21
-0.432758
 31
0.0
  0
LINE
  8
TRMODEL1
  6
CONTINUOUS
 62
     7
  5
8FE
 10
0.772381
 20
-0.432758
 30
0.0
 11
0.707591
 21
-0.435432
 31
0.0
  0
LINE
  8
TRMODEL1
  6
CONTINUOUS
 62
     7
  5
8FF
 10
0.707591
 20
-0.435432
 30
0.0
 11
0.642784
 21
-0.437871
 31
0.0
  0
LINE
  8
TRMODEL1
  6
CONTINUOUS
 62
     7
  5
900
 10
0.642784
 20
-0.437871
 30
0.0
 11
0.577963
 21
-0.440077
 31
0.0
  0
LINE
  8
TRMODEL1
  6
CONTINUOUS
 62
     7
  5
901
 10
0.577963
 20
-0.440077
 30
0.0
 11
0.51313
 21
-0.442048
 31
0.0
  0
LINE
  8
TRMODEL1
  6
CONTINUOUS
 62
     7
  5
902
 10
0.51313
 20
-0.442048
 30
0.0
 11
0.448285
 21
-0.443785
 31
0.0
  0
LINE
  8
TRMODEL1
  6
CONTINUOUS
 62
     7
  5
903
 10
0.448285
 20
-0.443785
 30
0.0
 11
0.383429
 21
-0.445287
 31
0.0
  0
LINE
  8
TRMODEL1
  6
CONTINUOUS
 62
     7
  5
904
 10
0.383429
 20
-0.445287
 30
0.0
 11
0.318566
 21
-0.446555
 31
0.0
  0
LINE
  8
TRMODEL1
  6
CONTINUOUS
 62
     7
  5
905
 10
0.318566
 20
-0.446555
 30
0.0
 11
0.253695
 21
-0.447589
 31
0.0
  0
LINE
  8
TRMODEL1
  6
CONTINUOUS
 62
     7
  5
906
 10
0.253695
 20
-0.447589
 30
0.0
 11
0.188819
 21
-0.448389
 31
0.0
  0
LINE
  8
TRMODEL1
  6
CONTINUOUS
 62
     7
  5
907
 10
0.188819
 20
-0.448389
 30
0.0
 11
0.123938
 21
-0.448954
 31
0.0
  0
LINE
  8
TRMODEL1
  6
CONTINUOUS
 62
     7
  5
908
 10
0.123938
 20
-0.448954
 30
0.0
 11
0.059055
 21
-0.449284
 31
0.0
  0
LINE
  8
TRMODEL1
  6
CONTINUOUS
 62
     7
  5
909
 10
-0.059055
 20
-0.449284
 30
0.0
 11
-0.123938
 21
-0.448954
 31
0.0
  0
LINE
  8
TRMODEL1
  6
CONTINUOUS
 62
     7
  5
90A
 10
-0.123938
 20
-0.448954
 30
0.0
 11
-0.188819
 21
-0.448389
 31
0.0
  0
LINE
  8
TRMODEL1
  6
CONTINUOUS
 62
     7
  5
90B
 10
-0.188819
 20
-0.448389
 30
0.0
 11
-0.253695
 21
-0.447589
 31
0.0
  0
LINE
  8
TRMODEL1
  6
CONTINUOUS
 62
     7
  5
90C
 10
-0.253695
 20
-0.447589
 30
0.0
 11
-0.318565
 21
-0.446555
 31
0.0
  0
LINE
  8
TRMODEL1
  6
CONTINUOUS
 62
     7
  5
90D
 10
-0.318565
 20
-0.446555
 30
0.0
 11
-0.383429
 21
-0.445287
 31
0.0
  0
LINE
  8
TRMODEL1
  6
CONTINUOUS
 62
     7
  5
90E
 10
-0.383429
 20
-0.445287
 30
0.0
 11
-0.448284
 21
-0.443785
 31
0.0
  0
LINE
  8
TRMODEL1
  6
CONTINUOUS
 62
     7
  5
90F
 10
-0.448284
 20
-0.443785
 30
0.0
 11
-0.513129
 21
-0.442048
 31
0.0
  0
LINE
  8
TRMODEL1
  6
CONTINUOUS
 62
     7
  5
910
 10
-0.513129
 20
-0.442048
 30
0.0
 11
-0.577962
 21
-0.440077
 31
0.0
  0
LINE
  8
TRMODEL1
  6
CONTINUOUS
 62
     7
  5
911
 10
-0.577962
 20
-0.440077
 30
0.0
 11
-0.642783
 21
-0.437871
 31
0.0
  0
LINE
  8
TRMODEL1
  6
CONTINUOUS
 62
     7
  5
912
 10
-0.642783
 20
-0.437871
 30
0.0
 11
-0.707589
 21
-0.435432
 31
0.0
  0
LINE
  8
TRMODEL1
  6
CONTINUOUS
 62
     7
  5
913
 10
-0.707589
 20
-0.435432
 30
0.0
 11
-0.77238
 21
-0.432758
 31
0.0
  0
LINE
  8
TRMODEL1
  6
CONTINUOUS
 62
     7
  5
914
 10
-0.77238
 20
-0.432758
 30
0.0
 11
-0.837153
 21
-0.42985
 31
0.0
  0
LINE
  8
TRMODEL1
  6
CONTINUOUS
 62
     7
  5
915
 10
-0.837153
 20
-0.42985
 30
0.0
 11
-0.901908
 21
-0.426709
 31
0.0
  0
LINE
  8
TRMODEL1
  6
CONTINUOUS
 62
     7
  5
916
 10
-0.901908
 20
-0.426709
 30
0.0
 11
-0.966643
 21
-0.423333
 31
0.0
  0
LINE
  8
TRMODEL1
  6
CONTINUOUS
 62
     7
  5
917
 10
-0.966643
 20
-0.423333
 30
0.0
 11
-1.031356
 21
-0.419724
 31
0.0
  0
LINE
  8
TRMODEL1
  6
CONTINUOUS
 62
     7
  5
918
 10
-1.031356
 20
-0.419724
 30
0.0
 11
-1.096046
 21
-0.41588
 31
0.0
  0
LINE
  8
TRMODEL1
  6
CONTINUOUS
 62
     7
  5
919
 10
-1.096046
 20
-0.41588
 30
0.0
 11
-1.160712
 21
-0.411803
 31
0.0
  0
LINE
  8
TRMODEL1
  6
CONTINUOUS
 62
     7
  5
91A
 10
-1.160712
 20
-0.411803
 30
0.0
 11
-1.225353
 21
-0.407493
 31
0.0
  0
LINE
  8
TRMODEL1
  6
CONTINUOUS
 62
     7
  5
91B
 10
-1.225353
 20
-0.407493
 30
0.0
 11
-1.289965
 21
-0.402949
 31
0.0
  0
LINE
  8
TRMODEL1
  6
CONTINUOUS
 62
     7
  5
91C
 10
-1.289965
 20
-0.402949
 30
0.0
 11
-1.35455
 21
-0.398171
 31
0.0
  0
LINE
  8
TRMODEL1
  6
CONTINUOUS
 62
     7
  5
91D
 10
-1.35455
 20
-0.398171
 30
0.0
 11
-1.419104
 21
-0.393161
 31
0.0
  0
LINE
  8
TRMODEL1
  6
CONTINUOUS
 62
     7
  5
91E
 10
-1.419104
 20
-0.393161
 30
0.0
 11
-1.483626
 21
-0.387917
 31
0.0
  0
LINE
  8
TRMODEL1
  6
CONTINUOUS
 62
     7
  5
91F
 10
-1.483626
 20
-0.387917
 30
0.0
 11
-1.548115
 21
-0.38244
 31
0.0
  0
LINE
  8
TRMODEL1
  6
CONTINUOUS
 62
     7
  5
920
 10
-1.548115
 20
-0.38244
 30
0.0
 11
-1.61257
 21
-0.37673
 31
0.0
  0
LINE
  8
TRMODEL1
  6
CONTINUOUS
 62
     7
  5
921
 10
-1.61257
 20
-0.37673
 30
0.0
 11
-1.67699
 21
-0.370787
 31
0.0
  0
LINE
  8
TRMODEL1
  6
CONTINUOUS
 62
     7
  5
922
 10
-1.67699
 20
-0.370787
 30
0.0
 11
-1.741371
 21
-0.364611
 31
0.0
  0
LINE
  8
TRMODEL1
  6
CONTINUOUS
 62
     7
  5
923
 10
-1.741371
 20
-0.364611
 30
0.0
 11
-1.805715
 21
-0.358203
 31
0.0
  0
LINE
  8
TRMODEL1
  6
CONTINUOUS
 62
     7
  5
924
 10
-1.805715
 20
-0.358203
 30
0.0
 11
-1.870017
 21
-0.351563
 31
0.0
  0
LINE
  8
TRMODEL1
  6
CONTINUOUS
 62
     7
  5
925
 10
-1.870017
 20
-0.351563
 30
0.0
 11
-1.934279
 21
-0.34469
 31
0.0
  0
LINE
  8
TRMODEL1
  6
CONTINUOUS
 62
     7
  5
926
 10
-1.934279
 20
-0.34469
 30
0.0
 11
-1.998497
 21
-0.337586
 31
0.0
  0
LINE
  8
TRMODEL1
  6
CONTINUOUS
 62
     7
  5
927
 10
-1.998497
 20
-0.337586
 30
0.0
 11
-2.062671
 21
-0.330249
 31
0.0
  0
LINE
  8
TRMODEL1
  6
CONTINUOUS
 62
     7
  5
928
 10
-2.062671
 20
-0.330249
 30
0.0
 11
-2.126799
 21
-0.32268
 31
0.0
  0
LINE
  8
TRMODEL1
  6
CONTINUOUS
 62
     7
  5
929
 10
-2.126799
 20
-0.32268
 30
0.0
 11
-2.190879
 21
-0.31488
 31
0.0
  0
LINE
  8
TRMODEL1
  6
CONTINUOUS
 62
     7
  5
92A
 10
-2.190879
 20
-0.31488
 30
0.0
 11
-2.254911
 21
-0.306849
 31
0.0
  0
LINE
  8
TRMODEL1
  6
CONTINUOUS
 62
     7
  5
92B
 10
-2.254911
 20
-0.306849
 30
0.0
 11
-2.318893
 21
-0.298586
 31
0.0
  0
LINE
  8
TRMODEL1
  6
CONTINUOUS
 62
     7
  5
92C
 10
-0.059055
 20
-0.411324
 30
0.0
 11
-0.123938
 21
-0.410994
 31
0.0
  0
LINE
  8
TRMODEL1
  6
CONTINUOUS
 62
     7
  5
92D
 10
-0.123938
 20
-0.410994
 30
0.0
 11
-0.188819
 21
-0.410429
 31
0.0
  0
LINE
  8
TRMODEL1
  6
CONTINUOUS
 62
     7
  5
92E
 10
-0.188819
 20
-0.410429
 30
0.0
 11
-0.253695
 21
-0.409629
 31
0.0
  0
LINE
  8
TRMODEL1
  6
CONTINUOUS
 62
     7
  5
92F
 10
-0.253695
 20
-0.409629
 30
0.0
 11
-0.318565
 21
-0.408595
 31
0.0
  0
LINE
  8
TRMODEL1
  6
CONTINUOUS
 62
     7
  5
930
 10
-0.318565
 20
-0.408595
 30
0.0
 11
-0.383429
 21
-0.407327
 31
0.0
  0
LINE
  8
TRMODEL1
  6
CONTINUOUS
 62
     7
  5
931
 10
-0.383429
 20
-0.407327
 30
0.0
 11
-0.448284
 21
-0.405825
 31
0.0
  0
LINE
  8
TRMODEL1
  6
CONTINUOUS
 62
     7
  5
932
 10
-0.448284
 20
-0.405825
 30
0.0
 11
-0.513129
 21
-0.404088
 31
0.0
  0
LINE
  8
TRMODEL1
  6
CONTINUOUS
 62
     7
  5
933
 10
-0.513129
 20
-0.404088
 30
0.0
 11
-0.577962
 21
-0.402117
 31
0.0
  0
LINE
  8
TRMODEL1
  6
CONTINUOUS
 62
     7
  5
934
 10
-0.577962
 20
-0.402117
 30
0.0
 11
-0.642783
 21
-0.399911
 31
0.0
  0
LINE
  8
TRMODEL1
  6
CONTINUOUS
 62
     7
  5
935
 10
-0.642783
 20
-0.399911
 30
0.0
 11
-0.707589
 21
-0.397472
 31
0.0
  0
LINE
  8
TRMODEL1
  6
CONTINUOUS
 62
     7
  5
936
 10
-0.707589
 20
-0.397472
 30
0.0
 11
-0.77238
 21
-0.394798
 31
0.0
  0
LINE
  8
TRMODEL1
  6
CONTINUOUS
 62
     7
  5
937
 10
-0.77238
 20
-0.394798
 30
0.0
 11
-0.837153
 21
-0.391891
 31
0.0
  0
LINE
  8
TRMODEL1
  6
CONTINUOUS
 62
     7
  5
938
 10
-0.837153
 20
-0.391891
 30
0.0
 11
-0.901908
 21
-0.388749
 31
0.0
  0
LINE
  8
TRMODEL1
  6
CONTINUOUS
 62
     7
  5
939
 10
-0.901908
 20
-0.388749
 30
0.0
 11
-0.966643
 21
-0.385373
 31
0.0
  0
LINE
  8
TRMODEL1
  6
CONTINUOUS
 62
     7
  5
93A
 10
-0.966643
 20
-0.385373
 30
0.0
 11
-1.031356
 21
-0.381764
 31
0.0
  0
LINE
  8
TRMODEL1
  6
CONTINUOUS
 62
     7
  5
93B
 10
-1.031356
 20
-0.381764
 30
0.0
 11
-1.096047
 21
-0.37792
 31
0.0
  0
LINE
  8
TRMODEL1
  6
CONTINUOUS
 62
     7
  5
93C
 10
-1.096047
 20
-0.37792
 30
0.0
 11
-1.160713
 21
-0.373843
 31
0.0
  0
LINE
  8
TRMODEL1
  6
CONTINUOUS
 62
     7
  5
93D
 10
-1.160713
 20
-0.373843
 30
0.0
 11
-1.225353
 21
-0.369533
 31
0.0
  0
LINE
  8
TRMODEL1
  6
CONTINUOUS
 62
     7
  5
93E
 10
-1.225353
 20
-0.369533
 30
0.0
 11
-1.289966
 21
-0.364989
 31
0.0
  0
LINE
  8
TRMODEL1
  6
CONTINUOUS
 62
     7
  5
93F
 10
-1.289966
 20
-0.364989
 30
0.0
 11
-1.35455
 21
-0.360211
 31
0.0
  0
LINE
  8
TRMODEL1
  6
CONTINUOUS
 62
     7
  5
940
 10
-1.35455
 20
-0.360211
 30
0.0
 11
-1.419104
 21
-0.355201
 31
0.0
  0
LINE
  8
TRMODEL1
  6
CONTINUOUS
 62
     7
  5
941
 10
-1.419104
 20
-0.355201
 30
0.0
 11
-1.483626
 21
-0.349957
 31
0.0
  0
LINE
  8
TRMODEL1
  6
CONTINUOUS
 62
     7
  5
942
 10
-1.483626
 20
-0.349957
 30
0.0
 11
-1.548116
 21
-0.34448
 31
0.0
  0
LINE
  8
TRMODEL1
  6
CONTINUOUS
 62
     7
  5
943
 10
-1.548116
 20
-0.34448
 30
0.0
 11
-1.612571
 21
-0.33877
 31
0.0
  0
LINE
  8
TRMODEL1
  6
CONTINUOUS
 62
     7
  5
944
 10
-1.612571
 20
-0.33877
 30
0.0
 11
-1.67699
 21
-0.332827
 31
0.0
  0
LINE
  8
TRMODEL1
  6
CONTINUOUS
 62
     7
  5
945
 10
-1.67699
 20
-0.332827
 30
0.0
 11
-1.741372
 21
-0.326651
 31
0.0
  0
LINE
  8
TRMODEL1
  6
CONTINUOUS
 62
     7
  5
946
 10
-1.741372
 20
-0.326651
 30
0.0
 11
-1.805715
 21
-0.320243
 31
0.0
  0
LINE
  8
TRMODEL1
  6
CONTINUOUS
 62
     7
  5
947
 10
-1.805715
 20
-0.320243
 30
0.0
 11
-1.870018
 21
-0.313603
 31
0.0
  0
LINE
  8
TRMODEL1
  6
CONTINUOUS
 62
     7
  5
948
 10
-1.870018
 20
-0.313603
 30
0.0
 11
-1.934279
 21
-0.30673
 31
0.0
  0
LINE
  8
TRMODEL1
  6
CONTINUOUS
 62
     7
  5
949
 10
-1.934279
 20
-0.30673
 30
0.0
 11
-1.998497
 21
-0.299626
 31
0.0
  0
LINE
  8
TRMODEL1
  6
CONTINUOUS
 62
     7
  5
94A
 10
-1.998497
 20
-0.299626
 30
0.0
 11
-2.062671
 21
-0.292289
 31
0.0
  0
LINE
  8
TRMODEL1
  6
CONTINUOUS
 62
     7
  5
94B
 10
-2.062671
 20
-0.292289
 30
0.0
 11
-2.126799
 21
-0.28472
 31
0.0
  0
LINE
  8
TRMODEL1
  6
CONTINUOUS
 62
     7
  5
94C
 10
-2.126799
 20
-0.28472
 30
0.0
 11
-2.19088
 21
-0.27692
 31
0.0
  0
LINE
  8
TRMODEL1
  6
CONTINUOUS
 62
     7
  5
94D
 10
-2.19088
 20
-0.27692
 30
0.0
 11
-2.254912
 21
-0.268889
 31
0.0
  0
LINE
  8
TRMODEL1
  6
CONTINUOUS
 62
     7
  5
94E
 10
-2.254912
 20
-0.268889
 30
0.0
 11
-2.318894
 21
-0.260626
 31
0.0
  0
LINE
  8
TRMODEL1
  6
CONTINUOUS
 62
     7
  5
94F
 10
-2.318898
 20
0.342559
 30
0.0
 11
-2.254916
 21
0.334296
 31
0.0
  0
LINE
  8
TRMODEL1
  6
CONTINUOUS
 62
     7
  5
950
 10
-2.254916
 20
0.334296
 30
0.0
 11
-2.190884
 21
0.326265
 31
0.0
  0
LINE
  8
TRMODEL1
  6
CONTINUOUS
 62
     7
  5
951
 10
-2.190884
 20
0.326265
 30
0.0
 11
-2.126803
 21
0.318465
 31
0.0
  0
LINE
  8
TRMODEL1
  6
CONTINUOUS
 62
     7
  5
952
 10
-2.126803
 20
0.318465
 30
0.0
 11
-2.062675
 21
0.310896
 31
0.0
  0
LINE
  8
TRMODEL1
  6
CONTINUOUS
 62
     7
  5
953
 10
-2.062675
 20
0.310896
 30
0.0
 11
-1.998501
 21
0.303559
 31
0.0
  0
LINE
  8
TRMODEL1
  6
CONTINUOUS
 62
     7
  5
954
 10
-1.998501
 20
0.303559
 30
0.0
 11
-1.934283
 21
0.296455
 31
0.0
  0
LINE
  8
TRMODEL1
  6
CONTINUOUS
 62
     7
  5
955
 10
-1.934283
 20
0.296455
 30
0.0
 11
-1.870021
 21
0.289582
 31
0.0
  0
LINE
  8
TRMODEL1
  6
CONTINUOUS
 62
     7
  5
956
 10
-1.870021
 20
0.289582
 30
0.0
 11
-1.805718
 21
0.282941
 31
0.0
  0
LINE
  8
TRMODEL1
  6
CONTINUOUS
 62
     7
  5
957
 10
-1.805718
 20
0.282941
 30
0.0
 11
-1.741375
 21
0.276533
 31
0.0
  0
LINE
  8
TRMODEL1
  6
CONTINUOUS
 62
     7
  5
958
 10
-1.741375
 20
0.276533
 30
0.0
 11
-1.676993
 21
0.270358
 31
0.0
  0
LINE
  8
TRMODEL1
  6
CONTINUOUS
 62
     7
  5
959
 10
-1.676993
 20
0.270358
 30
0.0
 11
-1.612574
 21
0.264415
 31
0.0
  0
LINE
  8
TRMODEL1
  6
CONTINUOUS
 62
     7
  5
95A
 10
-1.612574
 20
0.264415
 30
0.0
 11
-1.548118
 21
0.258705
 31
0.0
  0
LINE
  8
TRMODEL1
  6
CONTINUOUS
 62
     7
  5
95B
 10
-1.548118
 20
0.258705
 30
0.0
 11
-1.483629
 21
0.253228
 31
0.0
  0
LINE
  8
TRMODEL1
  6
CONTINUOUS
 62
     7
  5
95C
 10
-1.483629
 20
0.253228
 30
0.0
 11
-1.419106
 21
0.247984
 31
0.0
  0
LINE
  8
TRMODEL1
  6
CONTINUOUS
 62
     7
  5
95D
 10
-1.419106
 20
0.247984
 30
0.0
 11
-1.354552
 21
0.242973
 31
0.0
  0
LINE
  8
TRMODEL1
  6
CONTINUOUS
 62
     7
  5
95E
 10
-1.354552
 20
0.242973
 30
0.0
 11
-1.289968
 21
0.238196
 31
0.0
  0
LINE
  8
TRMODEL1
  6
CONTINUOUS
 62
     7
  5
95F
 10
-1.289968
 20
0.238196
 30
0.0
 11
-1.225355
 21
0.233652
 31
0.0
  0
LINE
  8
TRMODEL1
  6
CONTINUOUS
 62
     7
  5
960
 10
-1.225355
 20
0.233652
 30
0.0
 11
-1.160715
 21
0.229341
 31
0.0
  0
LINE
  8
TRMODEL1
  6
CONTINUOUS
 62
     7
  5
961
 10
-1.160715
 20
0.229341
 30
0.0
 11
-1.096049
 21
0.225264
 31
0.0
  0
LINE
  8
TRMODEL1
  6
CONTINUOUS
 62
     7
  5
962
 10
-1.096049
 20
0.225264
 30
0.0
 11
-1.031358
 21
0.221421
 31
0.0
  0
LINE
  8
TRMODEL1
  6
CONTINUOUS
 62
     7
  5
963
 10
-1.031358
 20
0.221421
 30
0.0
 11
-0.966645
 21
0.217811
 31
0.0
  0
LINE
  8
TRMODEL1
  6
CONTINUOUS
 62
     7
  5
964
 10
-0.966645
 20
0.217811
 30
0.0
 11
-0.90191
 21
0.214436
 31
0.0
  0
LINE
  8
TRMODEL1
  6
CONTINUOUS
 62
     7
  5
965
 10
-0.90191
 20
0.214436
 30
0.0
 11
-0.837155
 21
0.211294
 31
0.0
  0
LINE
  8
TRMODEL1
  6
CONTINUOUS
 62
     7
  5
966
 10
-0.837155
 20
0.211294
 30
0.0
 11
-0.772381
 21
0.208386
 31
0.0
  0
LINE
  8
TRMODEL1
  6
CONTINUOUS
 62
     7
  5
967
 10
-0.772381
 20
0.208386
 30
0.0
 11
-0.707591
 21
0.205713
 31
0.0
  0
LINE
  8
TRMODEL1
  6
CONTINUOUS
 62
     7
  5
968
 10
-0.707591
 20
0.205713
 30
0.0
 11
-0.642784
 21
0.203273
 31
0.0
  0
LINE
  8
TRMODEL1
  6
CONTINUOUS
 62
     7
  5
969
 10
-0.642784
 20
0.203273
 30
0.0
 11
-0.577963
 21
0.201068
 31
0.0
  0
LINE
  8
TRMODEL1
  6
CONTINUOUS
 62
     7
  5
96A
 10
-0.577963
 20
0.201068
 30
0.0
 11
-0.51313
 21
0.199097
 31
0.0
  0
LINE
  8
TRMODEL1
  6
CONTINUOUS
 62
     7
  5
96B
 10
-0.51313
 20
0.199097
 30
0.0
 11
-0.448285
 21
0.19736
 31
0.0
  0
LINE
  8
TRMODEL1
  6
CONTINUOUS
 62
     7
  5
96C
 10
-0.448285
 20
0.19736
 30
0.0
 11
-0.383429
 21
0.195857
 31
0.0
  0
LINE
  8
TRMODEL1
  6
CONTINUOUS
 62
     7
  5
96D
 10
-0.383429
 20
0.195857
 30
0.0
 11
-0.318566
 21
0.194589
 31
0.0
  0
LINE
  8
TRMODEL1
  6
CONTINUOUS
 62
     7
  5
96E
 10
-0.318566
 20
0.194589
 30
0.0
 11
-0.253695
 21
0.193555
 31
0.0
  0
LINE
  8
TRMODEL1
  6
CONTINUOUS
 62
     7
  5
96F
 10
-0.253695
 20
0.193555
 30
0.0
 11
-0.188819
 21
0.192756
 31
0.0
  0
LINE
  8
TRMODEL1
  6
CONTINUOUS
 62
     7
  5
970
 10
-0.188819
 20
0.192756
 30
0.0
 11
-0.123938
 21
0.192191
 31
0.0
  0
LINE
  8
TRMODEL1
  6
CONTINUOUS
 62
     7
  5
971
 10
-0.123938
 20
0.192191
 30
0.0
 11
-0.059055
 21
0.19186
 31
0.0
  0
LINE
  8
TRMODEL1
  6
CONTINUOUS
 62
     7
  5
972
 10
0.059055
 20
0.854402
 30
0.0
 11
0.123938
 21
0.854733
 31
0.0
  0
LINE
  8
TRMODEL1
  6
CONTINUOUS
 62
     7
  5
973
 10
0.123938
 20
0.854733
 30
0.0
 11
0.188819
 21
0.855298
 31
0.0
  0
LINE
  8
TRMODEL1
  6
CONTINUOUS
 62
     7
  5
974
 10
0.188819
 20
0.855298
 30
0.0
 11
0.253695
 21
0.856097
 31
0.0
  0
LINE
  8
TRMODEL1
  6
CONTINUOUS
 62
     7
  5
975
 10
0.253695
 20
0.856097
 30
0.0
 11
0.318566
 21
0.857131
 31
0.0
  0
LINE
  8
TRMODEL1
  6
CONTINUOUS
 62
     7
  5
976
 10
0.318566
 20
0.857131
 30
0.0
 11
0.383429
 21
0.8584
 31
0.0
  0
LINE
  8
TRMODEL1
  6
CONTINUOUS
 62
     7
  5
977
 10
0.383429
 20
0.8584
 30
0.0
 11
0.448285
 21
0.859902
 31
0.0
  0
LINE
  8
TRMODEL1
  6
CONTINUOUS
 62
     7
  5
978
 10
0.448285
 20
0.859902
 30
0.0
 11
0.51313
 21
0.861639
 31
0.0
  0
LINE
  8
TRMODEL1
  6
CONTINUOUS
 62
     7
  5
979
 10
0.51313
 20
0.861639
 30
0.0
 11
0.577963
 21
0.86361
 31
0.0
  0
LINE
  8
TRMODEL1
  6
CONTINUOUS
 62
     7
  5
97A
 10
0.577963
 20
0.86361
 30
0.0
 11
0.642784
 21
0.865815
 31
0.0
  0
LINE
  8
TRMODEL1
  6
CONTINUOUS
 62
     7
  5
97B
 10
0.642784
 20
0.865815
 30
0.0
 11
0.707591
 21
0.868255
 31
0.0
  0
LINE
  8
TRMODEL1
  6
CONTINUOUS
 62
     7
  5
97C
 10
0.707591
 20
0.868255
 30
0.0
 11
0.772381
 21
0.870929
 31
0.0
  0
LINE
  8
TRMODEL1
  6
CONTINUOUS
 62
     7
  5
97D
 10
0.772381
 20
0.870929
 30
0.0
 11
0.837155
 21
0.873836
 31
0.0
  0
LINE
  8
TRMODEL1
  6
CONTINUOUS
 62
     7
  5
97E
 10
0.837155
 20
0.873836
 30
0.0
 11
0.90191
 21
0.876978
 31
0.0
  0
LINE
  8
TRMODEL1
  6
CONTINUOUS
 62
     7
  5
97F
 10
0.90191
 20
0.876978
 30
0.0
 11
0.966645
 21
0.880354
 31
0.0
  0
LINE
  8
TRMODEL1
  6
CONTINUOUS
 62
     7
  5
980
 10
0.966645
 20
0.880354
 30
0.0
 11
1.031358
 21
0.883963
 31
0.0
  0
LINE
  8
TRMODEL1
  6
CONTINUOUS
 62
     7
  5
981
 10
1.031358
 20
0.883963
 30
0.0
 11
1.096049
 21
0.887806
 31
0.0
  0
LINE
  8
TRMODEL1
  6
CONTINUOUS
 62
     7
  5
982
 10
1.096049
 20
0.887806
 30
0.0
 11
1.160715
 21
0.891883
 31
0.0
  0
LINE
  8
TRMODEL1
  6
CONTINUOUS
 62
     7
  5
983
 10
1.160715
 20
0.891883
 30
0.0
 11
1.225355
 21
0.896194
 31
0.0
  0
LINE
  8
TRMODEL1
  6
CONTINUOUS
 62
     7
  5
984
 10
1.225355
 20
0.896194
 30
0.0
 11
1.289968
 21
0.900738
 31
0.0
  0
LINE
  8
TRMODEL1
  6
CONTINUOUS
 62
     7
  5
985
 10
1.289968
 20
0.900738
 30
0.0
 11
1.354552
 21
0.905516
 31
0.0
  0
LINE
  8
TRMODEL1
  6
CONTINUOUS
 62
     7
  5
986
 10
1.354552
 20
0.905516
 30
0.0
 11
1.419106
 21
0.910526
 31
0.0
  0
LINE
  8
TRMODEL1
  6
CONTINUOUS
 62
     7
  5
987
 10
1.419106
 20
0.910526
 30
0.0
 11
1.483629
 21
0.91577
 31
0.0
  0
LINE
  8
TRMODEL1
  6
CONTINUOUS
 62
     7
  5
988
 10
1.483629
 20
0.91577
 30
0.0
 11
1.548118
 21
0.921247
 31
0.0
  0
LINE
  8
TRMODEL1
  6
CONTINUOUS
 62
     7
  5
989
 10
1.548118
 20
0.921247
 30
0.0
 11
1.612574
 21
0.926957
 31
0.0
  0
LINE
  8
TRMODEL1
  6
CONTINUOUS
 62
     7
  5
98A
 10
1.612574
 20
0.926957
 30
0.0
 11
1.676993
 21
0.9329
 31
0.0
  0
LINE
  8
TRMODEL1
  6
CONTINUOUS
 62
     7
  5
98B
 10
1.676993
 20
0.9329
 30
0.0
 11
1.741375
 21
0.939076
 31
0.0
  0
LINE
  8
TRMODEL1
  6
CONTINUOUS
 62
     7
  5
98C
 10
1.741375
 20
0.939076
 30
0.0
 11
1.805718
 21
0.945484
 31
0.0
  0
LINE
  8
TRMODEL1
  6
CONTINUOUS
 62
     7
  5
98D
 10
1.805718
 20
0.945484
 30
0.0
 11
1.870021
 21
0.952124
 31
0.0
  0
LINE
  8
TRMODEL1
  6
CONTINUOUS
 62
     7
  5
98E
 10
1.870021
 20
0.952124
 30
0.0
 11
1.934283
 21
0.958997
 31
0.0
  0
LINE
  8
TRMODEL1
  6
CONTINUOUS
 62
     7
  5
98F
 10
1.934283
 20
0.958997
 30
0.0
 11
1.998501
 21
0.966102
 31
0.0
  0
LINE
  8
TRMODEL1
  6
CONTINUOUS
 62
     7
  5
990
 10
1.998501
 20
0.966102
 30
0.0
 11
2.062675
 21
0.973438
 31
0.0
  0
LINE
  8
TRMODEL1
  6
CONTINUOUS
 62
     7
  5
991
 10
2.062675
 20
0.973438
 30
0.0
 11
2.126803
 21
0.981007
 31
0.0
  0
LINE
  8
TRMODEL1
  6
CONTINUOUS
 62
     7
  5
992
 10
2.126803
 20
0.981007
 30
0.0
 11
2.190884
 21
0.988807
 31
0.0
  0
LINE
  8
TRMODEL1
  6
CONTINUOUS
 62
     7
  5
993
 10
2.190884
 20
0.988807
 30
0.0
 11
2.254916
 21
0.996839
 31
0.0
  0
LINE
  8
TRMODEL1
  6
CONTINUOUS
 62
     7
  5
994
 10
2.254916
 20
0.996839
 30
0.0
 11
2.318898
 21
1.005102
 31
0.0
  0
LINE
  8
TRMODEL1
  6
CONTINUOUS
 62
     7
  5
995
 10
2.318898
 20
0.401917
 30
0.0
 11
2.254916
 21
0.393654
 31
0.0
  0
LINE
  8
TRMODEL1
  6
CONTINUOUS
 62
     7
  5
996
 10
2.254916
 20
0.393654
 30
0.0
 11
2.190884
 21
0.385622
 31
0.0
  0
LINE
  8
TRMODEL1
  6
CONTINUOUS
 62
     7
  5
997
 10
2.190884
 20
0.385622
 30
0.0
 11
2.126803
 21
0.377822
 31
0.0
  0
LINE
  8
TRMODEL1
  6
CONTINUOUS
 62
     7
  5
998
 10
2.126803
 20
0.377822
 30
0.0
 11
2.062675
 21
0.370254
 31
0.0
  0
LINE
  8
TRMODEL1
  6
CONTINUOUS
 62
     7
  5
999
 10
2.062675
 20
0.370254
 30
0.0
 11
1.998501
 21
0.362917
 31
0.0
  0
LINE
  8
TRMODEL1
  6
CONTINUOUS
 62
     7
  5
99A
 10
1.998501
 20
0.362917
 30
0.0
 11
1.934283
 21
0.355812
 31
0.0
  0
LINE
  8
TRMODEL1
  6
CONTINUOUS
 62
     7
  5
99B
 10
1.934283
 20
0.355812
 30
0.0
 11
1.870021
 21
0.348939
 31
0.0
  0
LINE
  8
TRMODEL1
  6
CONTINUOUS
 62
     7
  5
99C
 10
1.870021
 20
0.348939
 30
0.0
 11
1.805718
 21
0.342299
 31
0.0
  0
LINE
  8
TRMODEL1
  6
CONTINUOUS
 62
     7
  5
99D
 10
1.805718
 20
0.342299
 30
0.0
 11
1.741375
 21
0.335891
 31
0.0
  0
LINE
  8
TRMODEL1
  6
CONTINUOUS
 62
     7
  5
99E
 10
1.741375
 20
0.335891
 30
0.0
 11
1.676993
 21
0.329716
 31
0.0
  0
LINE
  8
TRMODEL1
  6
CONTINUOUS
 62
     7
  5
99F
 10
1.676993
 20
0.329716
 30
0.0
 11
1.612574
 21
0.323773
 31
0.0
  0
LINE
  8
TRMODEL1
  6
CONTINUOUS
 62
     7
  5
9A0
 10
1.612574
 20
0.323773
 30
0.0
 11
1.548118
 21
0.318063
 31
0.0
  0
LINE
  8
TRMODEL1
  6
CONTINUOUS
 62
     7
  5
9A1
 10
1.548118
 20
0.318063
 30
0.0
 11
1.483629
 21
0.312586
 31
0.0
  0
LINE
  8
TRMODEL1
  6
CONTINUOUS
 62
     7
  5
9A2
 10
1.483629
 20
0.312586
 30
0.0
 11
1.419106
 21
0.307342
 31
0.0
  0
LINE
  8
TRMODEL1
  6
CONTINUOUS
 62
     7
  5
9A3
 10
1.419106
 20
0.307342
 30
0.0
 11
1.354552
 21
0.302331
 31
0.0
  0
LINE
  8
TRMODEL1
  6
CONTINUOUS
 62
     7
  5
9A4
 10
1.354552
 20
0.302331
 30
0.0
 11
1.289968
 21
0.297553
 31
0.0
  0
LINE
  8
TRMODEL1
  6
CONTINUOUS
 62
     7
  5
9A5
 10
1.289968
 20
0.297553
 30
0.0
 11
1.225355
 21
0.293009
 31
0.0
  0
LINE
  8
TRMODEL1
  6
CONTINUOUS
 62
     7
  5
9A6
 10
1.225355
 20
0.293009
 30
0.0
 11
1.160715
 21
0.288699
 31
0.0
  0
LINE
  8
TRMODEL1
  6
CONTINUOUS
 62
     7
  5
9A7
 10
1.160715
 20
0.288699
 30
0.0
 11
1.096049
 21
0.284622
 31
0.0
  0
LINE
  8
TRMODEL1
  6
CONTINUOUS
 62
     7
  5
9A8
 10
1.096049
 20
0.284622
 30
0.0
 11
1.031358
 21
0.280779
 31
0.0
  0
LINE
  8
TRMODEL1
  6
CONTINUOUS
 62
     7
  5
9A9
 10
1.031358
 20
0.280779
 30
0.0
 11
0.966645
 21
0.277169
 31
0.0
  0
LINE
  8
TRMODEL1
  6
CONTINUOUS
 62
     7
  5
9AA
 10
0.966645
 20
0.277169
 30
0.0
 11
0.90191
 21
0.273793
 31
0.0
  0
LINE
  8
TRMODEL1
  6
CONTINUOUS
 62
     7
  5
9AB
 10
0.90191
 20
0.273793
 30
0.0
 11
0.837155
 21
0.270652
 31
0.0
  0
LINE
  8
TRMODEL1
  6
CONTINUOUS
 62
     7
  5
9AC
 10
0.837155
 20
0.270652
 30
0.0
 11
0.772381
 21
0.267744
 31
0.0
  0
LINE
  8
TRMODEL1
  6
CONTINUOUS
 62
     7
  5
9AD
 10
0.772381
 20
0.267744
 30
0.0
 11
0.707591
 21
0.26507
 31
0.0
  0
LINE
  8
TRMODEL1
  6
CONTINUOUS
 62
     7
  5
9AE
 10
0.707591
 20
0.26507
 30
0.0
 11
0.642784
 21
0.262631
 31
0.0
  0
LINE
  8
TRMODEL1
  6
CONTINUOUS
 62
     7
  5
9AF
 10
0.642784
 20
0.262631
 30
0.0
 11
0.577963
 21
0.260425
 31
0.0
  0
LINE
  8
TRMODEL1
  6
CONTINUOUS
 62
     7
  5
9B0
 10
0.577963
 20
0.260425
 30
0.0
 11
0.51313
 21
0.258454
 31
0.0
  0
LINE
  8
TRMODEL1
  6
CONTINUOUS
 62
     7
  5
9B1
 10
0.51313
 20
0.258454
 30
0.0
 11
0.448285
 21
0.256717
 31
0.0
  0
LINE
  8
TRMODEL1
  6
CONTINUOUS
 62
     7
  5
9B2
 10
0.448285
 20
0.256717
 30
0.0
 11
0.383429
 21
0.255215
 31
0.0
  0
LINE
  8
TRMODEL1
  6
CONTINUOUS
 62
     7
  5
9B3
 10
0.383429
 20
0.255215
 30
0.0
 11
0.318566
 21
0.253947
 31
0.0
  0
LINE
  8
TRMODEL1
  6
CONTINUOUS
 62
     7
  5
9B4
 10
0.318566
 20
0.253947
 30
0.0
 11
0.253695
 21
0.252913
 31
0.0
  0
LINE
  8
TRMODEL1
  6
CONTINUOUS
 62
     7
  5
9B5
 10
0.253695
 20
0.252913
 30
0.0
 11
0.188819
 21
0.252113
 31
0.0
  0
LINE
  8
TRMODEL1
  6
CONTINUOUS
 62
     7
  5
9B6
 10
0.188819
 20
0.252113
 30
0.0
 11
0.123938
 21
0.251548
 31
0.0
  0
LINE
  8
TRMODEL1
  6
CONTINUOUS
 62
     7
  5
9B7
 10
0.123938
 20
0.251548
 30
0.0
 11
0.059055
 21
0.251218
 31
0.0
  0
LINE
  8
TRMODEL1
  6
CONTINUOUS
 62
     7
  5
9B8
 10
2.318898
 20
0.363957
 30
0.0
 11
2.254916
 21
0.355694
 31
0.0
  0
LINE
  8
TRMODEL1
  6
CONTINUOUS
 62
     7
  5
9B9
 10
2.254916
 20
0.355694
 30
0.0
 11
2.190884
 21
0.347663
 31
0.0
  0
LINE
  8
TRMODEL1
  6
CONTINUOUS
 62
     7
  5
9BA
 10
2.190884
 20
0.347663
 30
0.0
 11
2.126803
 21
0.339862
 31
0.0
  0
LINE
  8
TRMODEL1
  6
CONTINUOUS
 62
     7
  5
9BB
 10
2.126803
 20
0.339862
 30
0.0
 11
2.062675
 21
0.332294
 31
0.0
  0
LINE
  8
TRMODEL1
  6
CONTINUOUS
 62
     7
  5
9BC
 10
2.062675
 20
0.332294
 30
0.0
 11
1.998501
 21
0.324957
 31
0.0
  0
LINE
  8
TRMODEL1
  6
CONTINUOUS
 62
     7
  5
9BD
 10
1.998501
 20
0.324957
 30
0.0
 11
1.934283
 21
0.317852
 31
0.0
  0
LINE
  8
TRMODEL1
  6
CONTINUOUS
 62
     7
  5
9BE
 10
1.934283
 20
0.317852
 30
0.0
 11
1.870021
 21
0.31098
 31
0.0
  0
LINE
  8
TRMODEL1
  6
CONTINUOUS
 62
     7
  5
9BF
 10
1.870021
 20
0.31098
 30
0.0
 11
1.805718
 21
0.304339
 31
0.0
  0
LINE
  8
TRMODEL1
  6
CONTINUOUS
 62
     7
  5
9C0
 10
1.805718
 20
0.304339
 30
0.0
 11
1.741375
 21
0.297931
 31
0.0
  0
LINE
  8
TRMODEL1
  6
CONTINUOUS
 62
     7
  5
9C1
 10
1.741375
 20
0.297931
 30
0.0
 11
1.676993
 21
0.291756
 31
0.0
  0
LINE
  8
TRMODEL1
  6
CONTINUOUS
 62
     7
  5
9C2
 10
1.676993
 20
0.291756
 30
0.0
 11
1.612574
 21
0.285813
 31
0.0
  0
LINE
  8
TRMODEL1
  6
CONTINUOUS
 62
     7
  5
9C3
 10
1.612574
 20
0.285813
 30
0.0
 11
1.548118
 21
0.280103
 31
0.0
  0
LINE
  8
TRMODEL1
  6
CONTINUOUS
 62
     7
  5
9C4
 10
1.548118
 20
0.280103
 30
0.0
 11
1.483629
 21
0.274626
 31
0.0
  0
LINE
  8
TRMODEL1
  6
CONTINUOUS
 62
     7
  5
9C5
 10
1.483629
 20
0.274626
 30
0.0
 11
1.419106
 21
0.269382
 31
0.0
  0
LINE
  8
TRMODEL1
  6
CONTINUOUS
 62
     7
  5
9C6
 10
1.419106
 20
0.269382
 30
0.0
 11
1.354552
 21
0.264371
 31
0.0
  0
LINE
  8
TRMODEL1
  6
CONTINUOUS
 62
     7
  5
9C7
 10
1.354552
 20
0.264371
 30
0.0
 11
1.289968
 21
0.259594
 31
0.0
  0
LINE
  8
TRMODEL1
  6
CONTINUOUS
 62
     7
  5
9C8
 10
1.289968
 20
0.259594
 30
0.0
 11
1.225355
 21
0.25505
 31
0.0
  0
LINE
  8
TRMODEL1
  6
CONTINUOUS
 62
     7
  5
9C9
 10
1.225355
 20
0.25505
 30
0.0
 11
1.160715
 21
0.250739
 31
0.0
  0
LINE
  8
TRMODEL1
  6
CONTINUOUS
 62
     7
  5
9CA
 10
1.160715
 20
0.250739
 30
0.0
 11
1.096049
 21
0.246662
 31
0.0
  0
LINE
  8
TRMODEL1
  6
CONTINUOUS
 62
     7
  5
9CB
 10
1.096049
 20
0.246662
 30
0.0
 11
1.031358
 21
0.242819
 31
0.0
  0
LINE
  8
TRMODEL1
  6
CONTINUOUS
 62
     7
  5
9CC
 10
1.031358
 20
0.242819
 30
0.0
 11
0.966645
 21
0.239209
 31
0.0
  0
LINE
  8
TRMODEL1
  6
CONTINUOUS
 62
     7
  5
9CD
 10
0.966645
 20
0.239209
 30
0.0
 11
0.90191
 21
0.235834
 31
0.0
  0
LINE
  8
TRMODEL1
  6
CONTINUOUS
 62
     7
  5
9CE
 10
0.90191
 20
0.235834
 30
0.0
 11
0.837155
 21
0.232692
 31
0.0
  0
LINE
  8
TRMODEL1
  6
CONTINUOUS
 62
     7
  5
9CF
 10
0.837155
 20
0.232692
 30
0.0
 11
0.772381
 21
0.229784
 31
0.0
  0
LINE
  8
TRMODEL1
  6
CONTINUOUS
 62
     7
  5
9D0
 10
0.772381
 20
0.229784
 30
0.0
 11
0.707591
 21
0.22711
 31
0.0
  0
LINE
  8
TRMODEL1
  6
CONTINUOUS
 62
     7
  5
9D1
 10
0.707591
 20
0.22711
 30
0.0
 11
0.642784
 21
0.224671
 31
0.0
  0
LINE
  8
TRMODEL1
  6
CONTINUOUS
 62
     7
  5
9D2
 10
0.642784
 20
0.224671
 30
0.0
 11
0.577963
 21
0.222466
 31
0.0
  0
LINE
  8
TRMODEL1
  6
CONTINUOUS
 62
     7
  5
9D3
 10
0.577963
 20
0.222466
 30
0.0
 11
0.51313
 21
0.220494
 31
0.0
  0
LINE
  8
TRMODEL1
  6
CONTINUOUS
 62
     7
  5
9D4
 10
0.51313
 20
0.220494
 30
0.0
 11
0.448285
 21
0.218758
 31
0.0
  0
LINE
  8
TRMODEL1
  6
CONTINUOUS
 62
     7
  5
9D5
 10
0.448285
 20
0.218758
 30
0.0
 11
0.383429
 21
0.217255
 31
0.0
  0
LINE
  8
TRMODEL1
  6
CONTINUOUS
 62
     7
  5
9D6
 10
0.383429
 20
0.217255
 30
0.0
 11
0.318566
 21
0.215987
 31
0.0
  0
LINE
  8
TRMODEL1
  6
CONTINUOUS
 62
     7
  5
9D7
 10
0.318566
 20
0.215987
 30
0.0
 11
0.253695
 21
0.214953
 31
0.0
  0
LINE
  8
TRMODEL1
  6
CONTINUOUS
 62
     7
  5
9D8
 10
0.253695
 20
0.214953
 30
0.0
 11
0.188819
 21
0.214154
 31
0.0
  0
LINE
  8
TRMODEL1
  6
CONTINUOUS
 62
     7
  5
9D9
 10
0.188819
 20
0.214154
 30
0.0
 11
0.123938
 21
0.213589
 31
0.0
  0
LINE
  8
TRMODEL1
  6
CONTINUOUS
 62
     7
  5
9DA
 10
0.123938
 20
0.213589
 30
0.0
 11
0.059055
 21
0.213258
 31
0.0
  0
LINE
  8
TRMODEL1
  6
CONTINUOUS
 62
     7
  5
9DB
 10
-0.059055
 20
0.213258
 30
0.0
 11
-0.123938
 21
0.213589
 31
0.0
  0
LINE
  8
TRMODEL1
  6
CONTINUOUS
 62
     7
  5
9DC
 10
-0.123938
 20
0.213589
 30
0.0
 11
-0.188819
 21
0.214154
 31
0.0
  0
LINE
  8
TRMODEL1
  6
CONTINUOUS
 62
     7
  5
9DD
 10
-0.188819
 20
0.214154
 30
0.0
 11
-0.253695
 21
0.214953
 31
0.0
  0
LINE
  8
TRMODEL1
  6
CONTINUOUS
 62
     7
  5
9DE
 10
-0.253695
 20
0.214953
 30
0.0
 11
-0.318566
 21
0.215987
 31
0.0
  0
LINE
  8
TRMODEL1
  6
CONTINUOUS
 62
     7
  5
9DF
 10
-0.318566
 20
0.215987
 30
0.0
 11
-0.383429
 21
0.217255
 31
0.0
  0
LINE
  8
TRMODEL1
  6
CONTINUOUS
 62
     7
  5
9E0
 10
-0.383429
 20
0.217255
 30
0.0
 11
-0.448285
 21
0.218758
 31
0.0
  0
LINE
  8
TRMODEL1
  6
CONTINUOUS
 62
     7
  5
9E1
 10
-0.448285
 20
0.218758
 30
0.0
 11
-0.51313
 21
0.220494
 31
0.0
  0
LINE
  8
TRMODEL1
  6
CONTINUOUS
 62
     7
  5
9E2
 10
-0.51313
 20
0.220494
 30
0.0
 11
-0.577963
 21
0.222466
 31
0.0
  0
LINE
  8
TRMODEL1
  6
CONTINUOUS
 62
     7
  5
9E3
 10
-0.577963
 20
0.222466
 30
0.0
 11
-0.642784
 21
0.224671
 31
0.0
  0
LINE
  8
TRMODEL1
  6
CONTINUOUS
 62
     7
  5
9E4
 10
-0.642784
 20
0.224671
 30
0.0
 11
-0.707591
 21
0.22711
 31
0.0
  0
LINE
  8
TRMODEL1
  6
CONTINUOUS
 62
     7
  5
9E5
 10
-0.707591
 20
0.22711
 30
0.0
 11
-0.772381
 21
0.229784
 31
0.0
  0
LINE
  8
TRMODEL1
  6
CONTINUOUS
 62
     7
  5
9E6
 10
-0.772381
 20
0.229784
 30
0.0
 11
-0.837155
 21
0.232692
 31
0.0
  0
LINE
  8
TRMODEL1
  6
CONTINUOUS
 62
     7
  5
9E7
 10
-0.837155
 20
0.232692
 30
0.0
 11
-0.90191
 21
0.235834
 31
0.0
  0
LINE
  8
TRMODEL1
  6
CONTINUOUS
 62
     7
  5
9E8
 10
-0.90191
 20
0.235834
 30
0.0
 11
-0.966645
 21
0.239209
 31
0.0
  0
LINE
  8
TRMODEL1
  6
CONTINUOUS
 62
     7
  5
9E9
 10
-0.966645
 20
0.239209
 30
0.0
 11
-1.031358
 21
0.242819
 31
0.0
  0
LINE
  8
TRMODEL1
  6
CONTINUOUS
 62
     7
  5
9EA
 10
-1.031358
 20
0.242819
 30
0.0
 11
-1.096049
 21
0.246662
 31
0.0
  0
LINE
  8
TRMODEL1
  6
CONTINUOUS
 62
     7
  5
9EB
 10
-1.096049
 20
0.246662
 30
0.0
 11
-1.160715
 21
0.250739
 31
0.0
  0
LINE
  8
TRMODEL1
  6
CONTINUOUS
 62
     7
  5
9EC
 10
-1.160715
 20
0.250739
 30
0.0
 11
-1.225355
 21
0.25505
 31
0.0
  0
LINE
  8
TRMODEL1
  6
CONTINUOUS
 62
     7
  5
9ED
 10
-1.225355
 20
0.25505
 30
0.0
 11
-1.289968
 21
0.259594
 31
0.0
  0
LINE
  8
TRMODEL1
  6
CONTINUOUS
 62
     7
  5
9EE
 10
-1.289968
 20
0.259594
 30
0.0
 11
-1.354552
 21
0.264371
 31
0.0
  0
LINE
  8
TRMODEL1
  6
CONTINUOUS
 62
     7
  5
9EF
 10
-1.354552
 20
0.264371
 30
0.0
 11
-1.419106
 21
0.269382
 31
0.0
  0
LINE
  8
TRMODEL1
  6
CONTINUOUS
 62
     7
  5
9F0
 10
-1.419106
 20
0.269382
 30
0.0
 11
-1.483629
 21
0.274626
 31
0.0
  0
LINE
  8
TRMODEL1
  6
CONTINUOUS
 62
     7
  5
9F1
 10
-1.483629
 20
0.274626
 30
0.0
 11
-1.548118
 21
0.280103
 31
0.0
  0
LINE
  8
TRMODEL1
  6
CONTINUOUS
 62
     7
  5
9F2
 10
-1.548118
 20
0.280103
 30
0.0
 11
-1.612574
 21
0.285813
 31
0.0
  0
LINE
  8
TRMODEL1
  6
CONTINUOUS
 62
     7
  5
9F3
 10
-1.612574
 20
0.285813
 30
0.0
 11
-1.676993
 21
0.291756
 31
0.0
  0
LINE
  8
TRMODEL1
  6
CONTINUOUS
 62
     7
  5
9F4
 10
-1.676993
 20
0.291756
 30
0.0
 11
-1.741375
 21
0.297931
 31
0.0
  0
LINE
  8
TRMODEL1
  6
CONTINUOUS
 62
     7
  5
9F5
 10
-1.741375
 20
0.297931
 30
0.0
 11
-1.805718
 21
0.304339
 31
0.0
  0
LINE
  8
TRMODEL1
  6
CONTINUOUS
 62
     7
  5
9F6
 10
-1.805718
 20
0.304339
 30
0.0
 11
-1.870021
 21
0.31098
 31
0.0
  0
LINE
  8
TRMODEL1
  6
CONTINUOUS
 62
     7
  5
9F7
 10
-1.870021
 20
0.31098
 30
0.0
 11
-1.934283
 21
0.317852
 31
0.0
  0
LINE
  8
TRMODEL1
  6
CONTINUOUS
 62
     7
  5
9F8
 10
-1.934283
 20
0.317852
 30
0.0
 11
-1.998501
 21
0.324957
 31
0.0
  0
LINE
  8
TRMODEL1
  6
CONTINUOUS
 62
     7
  5
9F9
 10
-1.998501
 20
0.324957
 30
0.0
 11
-2.062675
 21
0.332294
 31
0.0
  0
LINE
  8
TRMODEL1
  6
CONTINUOUS
 62
     7
  5
9FA
 10
-2.062675
 20
0.332294
 30
0.0
 11
-2.126803
 21
0.339862
 31
0.0
  0
LINE
  8
TRMODEL1
  6
CONTINUOUS
 62
     7
  5
9FB
 10
-2.126803
 20
0.339862
 30
0.0
 11
-2.190884
 21
0.347663
 31
0.0
  0
LINE
  8
TRMODEL1
  6
CONTINUOUS
 62
     7
  5
9FC
 10
-2.190884
 20
0.347663
 30
0.0
 11
-2.254916
 21
0.355694
 31
0.0
  0
LINE
  8
TRMODEL1
  6
CONTINUOUS
 62
     7
  5
9FD
 10
-2.254916
 20
0.355694
 30
0.0
 11
-2.318898
 21
0.363957
 31
0.0
  0
LINE
  8
TRMODEL1
  6
CONTINUOUS
 62
     7
  5
9FE
 10
-0.059055
 20
0.251218
 30
0.0
 11
-0.123938
 21
0.251548
 31
0.0
  0
LINE
  8
TRMODEL1
  6
CONTINUOUS
 62
     7
  5
9FF
 10
-0.123938
 20
0.251548
 30
0.0
 11
-0.188819
 21
0.252113
 31
0.0
  0
LINE
  8
TRMODEL1
  6
CONTINUOUS
 62
     7
  5
A00
 10
-0.188819
 20
0.252113
 30
0.0
 11
-0.253695
 21
0.252913
 31
0.0
  0
LINE
  8
TRMODEL1
  6
CONTINUOUS
 62
     7
  5
A01
 10
-0.253695
 20
0.252913
 30
0.0
 11
-0.318566
 21
0.253947
 31
0.0
  0
LINE
  8
TRMODEL1
  6
CONTINUOUS
 62
     7
  5
A02
 10
-0.318566
 20
0.253947
 30
0.0
 11
-0.383429
 21
0.255215
 31
0.0
  0
LINE
  8
TRMODEL1
  6
CONTINUOUS
 62
     7
  5
A03
 10
-0.383429
 20
0.255215
 30
0.0
 11
-0.448285
 21
0.256717
 31
0.0
  0
LINE
  8
TRMODEL1
  6
CONTINUOUS
 62
     7
  5
A04
 10
-0.448285
 20
0.256717
 30
0.0
 11
-0.51313
 21
0.258454
 31
0.0
  0
LINE
  8
TRMODEL1
  6
CONTINUOUS
 62
     7
  5
A05
 10
-0.51313
 20
0.258454
 30
0.0
 11
-0.577963
 21
0.260425
 31
0.0
  0
LINE
  8
TRMODEL1
  6
CONTINUOUS
 62
     7
  5
A06
 10
-0.577963
 20
0.260425
 30
0.0
 11
-0.642784
 21
0.262631
 31
0.0
  0
LINE
  8
TRMODEL1
  6
CONTINUOUS
 62
     7
  5
A07
 10
-0.642784
 20
0.262631
 30
0.0
 11
-0.707591
 21
0.26507
 31
0.0
  0
LINE
  8
TRMODEL1
  6
CONTINUOUS
 62
     7
  5
A08
 10
-0.707591
 20
0.26507
 30
0.0
 11
-0.772381
 21
0.267744
 31
0.0
  0
LINE
  8
TRMODEL1
  6
CONTINUOUS
 62
     7
  5
A09
 10
-0.772381
 20
0.267744
 30
0.0
 11
-0.837155
 21
0.270652
 31
0.0
  0
LINE
  8
TRMODEL1
  6
CONTINUOUS
 62
     7
  5
A0A
 10
-0.837155
 20
0.270652
 30
0.0
 11
-0.90191
 21
0.273793
 31
0.0
  0
LINE
  8
TRMODEL1
  6
CONTINUOUS
 62
     7
  5
A0B
 10
-0.90191
 20
0.273793
 30
0.0
 11
-0.966645
 21
0.277169
 31
0.0
  0
LINE
  8
TRMODEL1
  6
CONTINUOUS
 62
     7
  5
A0C
 10
-0.966645
 20
0.277169
 30
0.0
 11
-1.031358
 21
0.280779
 31
0.0
  0
LINE
  8
TRMODEL1
  6
CONTINUOUS
 62
     7
  5
A0D
 10
-1.031358
 20
0.280779
 30
0.0
 11
-1.096049
 21
0.284622
 31
0.0
  0
LINE
  8
TRMODEL1
  6
CONTINUOUS
 62
     7
  5
A0E
 10
-1.096049
 20
0.284622
 30
0.0
 11
-1.160715
 21
0.288699
 31
0.0
  0
LINE
  8
TRMODEL1
  6
CONTINUOUS
 62
     7
  5
A0F
 10
-1.160715
 20
0.288699
 30
0.0
 11
-1.225355
 21
0.293009
 31
0.0
  0
LINE
  8
TRMODEL1
  6
CONTINUOUS
 62
     7
  5
A10
 10
-1.225355
 20
0.293009
 30
0.0
 11
-1.289968
 21
0.297553
 31
0.0
  0
LINE
  8
TRMODEL1
  6
CONTINUOUS
 62
     7
  5
A11
 10
-1.289968
 20
0.297553
 30
0.0
 11
-1.354552
 21
0.302331
 31
0.0
  0
LINE
  8
TRMODEL1
  6
CONTINUOUS
 62
     7
  5
A12
 10
-1.354552
 20
0.302331
 30
0.0
 11
-1.419106
 21
0.307342
 31
0.0
  0
LINE
  8
TRMODEL1
  6
CONTINUOUS
 62
     7
  5
A13
 10
-1.419106
 20
0.307342
 30
0.0
 11
-1.483629
 21
0.312586
 31
0.0
  0
LINE
  8
TRMODEL1
  6
CONTINUOUS
 62
     7
  5
A14
 10
-1.483629
 20
0.312586
 30
0.0
 11
-1.548118
 21
0.318063
 31
0.0
  0
LINE
  8
TRMODEL1
  6
CONTINUOUS
 62
     7
  5
A15
 10
-1.548118
 20
0.318063
 30
0.0
 11
-1.612574
 21
0.323773
 31
0.0
  0
LINE
  8
TRMODEL1
  6
CONTINUOUS
 62
     7
  5
A16
 10
-1.612574
 20
0.323773
 30
0.0
 11
-1.676993
 21
0.329716
 31
0.0
  0
LINE
  8
TRMODEL1
  6
CONTINUOUS
 62
     7
  5
A17
 10
-1.676993
 20
0.329716
 30
0.0
 11
-1.741375
 21
0.335891
 31
0.0
  0
LINE
  8
TRMODEL1
  6
CONTINUOUS
 62
     7
  5
A18
 10
-1.741375
 20
0.335891
 30
0.0
 11
-1.805718
 21
0.342299
 31
0.0
  0
LINE
  8
TRMODEL1
  6
CONTINUOUS
 62
     7
  5
A19
 10
-1.805718
 20
0.342299
 30
0.0
 11
-1.870021
 21
0.348939
 31
0.0
  0
LINE
  8
TRMODEL1
  6
CONTINUOUS
 62
     7
  5
A1A
 10
-1.870021
 20
0.348939
 30
0.0
 11
-1.934283
 21
0.355812
 31
0.0
  0
LINE
  8
TRMODEL1
  6
CONTINUOUS
 62
     7
  5
A1B
 10
-1.934283
 20
0.355812
 30
0.0
 11
-1.998501
 21
0.362917
 31
0.0
  0
LINE
  8
TRMODEL1
  6
CONTINUOUS
 62
     7
  5
A1C
 10
-1.998501
 20
0.362917
 30
0.0
 11
-2.062675
 21
0.370254
 31
0.0
  0
LINE
  8
TRMODEL1
  6
CONTINUOUS
 62
     7
  5
A1D
 10
-2.062675
 20
0.370254
 30
0.0
 11
-2.126803
 21
0.377822
 31
0.0
  0
LINE
  8
TRMODEL1
  6
CONTINUOUS
 62
     7
  5
A1E
 10
-2.126803
 20
0.377822
 30
0.0
 11
-2.190884
 21
0.385622
 31
0.0
  0
LINE
  8
TRMODEL1
  6
CONTINUOUS
 62
     7
  5
A1F
 10
-2.190884
 20
0.385622
 30
0.0
 11
-2.254916
 21
0.393654
 31
0.0
  0
LINE
  8
TRMODEL1
  6
CONTINUOUS
 62
     7
  5
A20
 10
-2.254916
 20
0.393654
 30
0.0
 11
-2.318898
 21
0.401917
 31
0.0
  0
LINE
  8
TRMODEL1
  6
CONTINUOUS
 62
     7
  5
A21
 10
-2.318898
 20
1.005102
 30
0.0
 11
-2.254916
 21
0.996839
 31
0.0
  0
LINE
  8
TRMODEL1
  6
CONTINUOUS
 62
     7
  5
A22
 10
-2.254916
 20
0.996839
 30
0.0
 11
-2.190884
 21
0.988807
 31
0.0
  0
LINE
  8
TRMODEL1
  6
CONTINUOUS
 62
     7
  5
A23
 10
-2.190884
 20
0.988807
 30
0.0
 11
-2.126803
 21
0.981007
 31
0.0
  0
LINE
  8
TRMODEL1
  6
CONTINUOUS
 62
     7
  5
A24
 10
-2.126803
 20
0.981007
 30
0.0
 11
-2.062675
 21
0.973438
 31
0.0
  0
LINE
  8
TRMODEL1
  6
CONTINUOUS
 62
     7
  5
A25
 10
-2.062675
 20
0.973438
 30
0.0
 11
-1.998501
 21
0.966102
 31
0.0
  0
LINE
  8
TRMODEL1
  6
CONTINUOUS
 62
     7
  5
A26
 10
-1.998501
 20
0.966102
 30
0.0
 11
-1.934283
 21
0.958997
 31
0.0
  0
LINE
  8
TRMODEL1
  6
CONTINUOUS
 62
     7
  5
A27
 10
-1.934283
 20
0.958997
 30
0.0
 11
-1.870021
 21
0.952124
 31
0.0
  0
LINE
  8
TRMODEL1
  6
CONTINUOUS
 62
     7
  5
A28
 10
-1.870021
 20
0.952124
 30
0.0
 11
-1.805718
 21
0.945484
 31
0.0
  0
LINE
  8
TRMODEL1
  6
CONTINUOUS
 62
     7
  5
A29
 10
-1.805718
 20
0.945484
 30
0.0
 11
-1.741375
 21
0.939076
 31
0.0
  0
LINE
  8
TRMODEL1
  6
CONTINUOUS
 62
     7
  5
A2A
 10
-1.741375
 20
0.939076
 30
0.0
 11
-1.676993
 21
0.9329
 31
0.0
  0
LINE
  8
TRMODEL1
  6
CONTINUOUS
 62
     7
  5
A2B
 10
-1.676993
 20
0.9329
 30
0.0
 11
-1.612574
 21
0.926957
 31
0.0
  0
LINE
  8
TRMODEL1
  6
CONTINUOUS
 62
     7
  5
A2C
 10
-1.612574
 20
0.926957
 30
0.0
 11
-1.548118
 21
0.921247
 31
0.0
  0
LINE
  8
TRMODEL1
  6
CONTINUOUS
 62
     7
  5
A2D
 10
-1.548118
 20
0.921247
 30
0.0
 11
-1.483629
 21
0.91577
 31
0.0
  0
LINE
  8
TRMODEL1
  6
CONTINUOUS
 62
     7
  5
A2E
 10
-1.483629
 20
0.91577
 30
0.0
 11
-1.419106
 21
0.910526
 31
0.0
  0
LINE
  8
TRMODEL1
  6
CONTINUOUS
 62
     7
  5
A2F
 10
-1.419106
 20
0.910526
 30
0.0
 11
-1.354552
 21
0.905516
 31
0.0
  0
LINE
  8
TRMODEL1
  6
CONTINUOUS
 62
     7
  5
A30
 10
-1.354552
 20
0.905516
 30
0.0
 11
-1.289968
 21
0.900738
 31
0.0
  0
LINE
  8
TRMODEL1
  6
CONTINUOUS
 62
     7
  5
A31
 10
-1.289968
 20
0.900738
 30
0.0
 11
-1.225355
 21
0.896194
 31
0.0
  0
LINE
  8
TRMODEL1
  6
CONTINUOUS
 62
     7
  5
A32
 10
-1.225355
 20
0.896194
 30
0.0
 11
-1.160715
 21
0.891883
 31
0.0
  0
LINE
  8
TRMODEL1
  6
CONTINUOUS
 62
     7
  5
A33
 10
-1.160715
 20
0.891883
 30
0.0
 11
-1.096049
 21
0.887806
 31
0.0
  0
LINE
  8
TRMODEL1
  6
CONTINUOUS
 62
     7
  5
A34
 10
-1.096049
 20
0.887806
 30
0.0
 11
-1.031358
 21
0.883963
 31
0.0
  0
LINE
  8
TRMODEL1
  6
CONTINUOUS
 62
     7
  5
A35
 10
-1.031358
 20
0.883963
 30
0.0
 11
-0.966645
 21
0.880354
 31
0.0
  0
LINE
  8
TRMODEL1
  6
CONTINUOUS
 62
     7
  5
A36
 10
-0.966645
 20
0.880354
 30
0.0
 11
-0.90191
 21
0.876978
 31
0.0
  0
LINE
  8
TRMODEL1
  6
CONTINUOUS
 62
     7
  5
A37
 10
-0.90191
 20
0.876978
 30
0.0
 11
-0.837155
 21
0.873836
 31
0.0
  0
LINE
  8
TRMODEL1
  6
CONTINUOUS
 62
     7
  5
A38
 10
-0.837155
 20
0.873836
 30
0.0
 11
-0.772381
 21
0.870929
 31
0.0
  0
LINE
  8
TRMODEL1
  6
CONTINUOUS
 62
     7
  5
A39
 10
-0.772381
 20
0.870929
 30
0.0
 11
-0.707591
 21
0.868255
 31
0.0
  0
LINE
  8
TRMODEL1
  6
CONTINUOUS
 62
     7
  5
A3A
 10
-0.707591
 20
0.868255
 30
0.0
 11
-0.642784
 21
0.865815
 31
0.0
  0
LINE
  8
TRMODEL1
  6
CONTINUOUS
 62
     7
  5
A3B
 10
-0.642784
 20
0.865815
 30
0.0
 11
-0.577963
 21
0.86361
 31
0.0
  0
LINE
  8
TRMODEL1
  6
CONTINUOUS
 62
     7
  5
A3C
 10
-0.577963
 20
0.86361
 30
0.0
 11
-0.51313
 21
0.861639
 31
0.0
  0
LINE
  8
TRMODEL1
  6
CONTINUOUS
 62
     7
  5
A3D
 10
-0.51313
 20
0.861639
 30
0.0
 11
-0.448285
 21
0.859902
 31
0.0
  0
LINE
  8
TRMODEL1
  6
CONTINUOUS
 62
     7
  5
A3E
 10
-0.448285
 20
0.859902
 30
0.0
 11
-0.383429
 21
0.8584
 31
0.0
  0
LINE
  8
TRMODEL1
  6
CONTINUOUS
 62
     7
  5
A3F
 10
-0.383429
 20
0.8584
 30
0.0
 11
-0.318566
 21
0.857131
 31
0.0
  0
LINE
  8
TRMODEL1
  6
CONTINUOUS
 62
     7
  5
A40
 10
-0.318566
 20
0.857131
 30
0.0
 11
-0.253695
 21
0.856097
 31
0.0
  0
LINE
  8
TRMODEL1
  6
CONTINUOUS
 62
     7
  5
A41
 10
-0.253695
 20
0.856097
 30
0.0
 11
-0.188819
 21
0.855298
 31
0.0
  0
LINE
  8
TRMODEL1
  6
CONTINUOUS
 62
     7
  5
A42
 10
-0.188819
 20
0.855298
 30
0.0
 11
-0.123938
 21
0.854733
 31
0.0
  0
LINE
  8
TRMODEL1
  6
CONTINUOUS
 62
     7
  5
A43
 10
-0.123938
 20
0.854733
 30
0.0
 11
-0.059055
 21
0.854402
 31
0.0
  0
LINE
  8
TRMODEL1
  6
CONTINUOUS
 62
     7
  5
A44
 10
0.059055
 20
1.516945
 30
0.0
 11
0.123938
 21
1.517275
 31
0.0
  0
LINE
  8
TRMODEL1
  6
CONTINUOUS
 62
     7
  5
A45
 10
0.123938
 20
1.517275
 30
0.0
 11
0.188819
 21
1.51784
 31
0.0
  0
LINE
  8
TRMODEL1
  6
CONTINUOUS
 62
     7
  5
A46
 10
0.188819
 20
1.51784
 30
0.0
 11
0.253695
 21
1.51864
 31
0.0
  0
LINE
  8
TRMODEL1
  6
CONTINUOUS
 62
     7
  5
A47
 10
0.253695
 20
1.51864
 30
0.0
 11
0.318566
 21
1.519673
 31
0.0
  0
LINE
  8
TRMODEL1
  6
CONTINUOUS
 62
     7
  5
A48
 10
0.318566
 20
1.519673
 30
0.0
 11
0.383429
 21
1.520942
 31
0.0
  0
LINE
  8
TRMODEL1
  6
CONTINUOUS
 62
     7
  5
A49
 10
0.383429
 20
1.520942
 30
0.0
 11
0.448285
 21
1.522444
 31
0.0
  0
LINE
  8
TRMODEL1
  6
CONTINUOUS
 62
     7
  5
A4A
 10
0.448285
 20
1.522444
 30
0.0
 11
0.51313
 21
1.524181
 31
0.0
  0
LINE
  8
TRMODEL1
  6
CONTINUOUS
 62
     7
  5
A4B
 10
0.51313
 20
1.524181
 30
0.0
 11
0.577963
 21
1.526152
 31
0.0
  0
LINE
  8
TRMODEL1
  6
CONTINUOUS
 62
     7
  5
A4C
 10
0.577963
 20
1.526152
 30
0.0
 11
0.642784
 21
1.528358
 31
0.0
  0
LINE
  8
TRMODEL1
  6
CONTINUOUS
 62
     7
  5
A4D
 10
0.642784
 20
1.528358
 30
0.0
 11
0.707591
 21
1.530797
 31
0.0
  0
LINE
  8
TRMODEL1
  6
CONTINUOUS
 62
     7
  5
A4E
 10
0.707591
 20
1.530797
 30
0.0
 11
0.772381
 21
1.533471
 31
0.0
  0
LINE
  8
TRMODEL1
  6
CONTINUOUS
 62
     7
  5
A4F
 10
0.772381
 20
1.533471
 30
0.0
 11
0.837155
 21
1.536378
 31
0.0
  0
LINE
  8
TRMODEL1
  6
CONTINUOUS
 62
     7
  5
A50
 10
0.837155
 20
1.536378
 30
0.0
 11
0.90191
 21
1.53952
 31
0.0
  0
LINE
  8
TRMODEL1
  6
CONTINUOUS
 62
     7
  5
A51
 10
0.90191
 20
1.53952
 30
0.0
 11
0.966645
 21
1.542896
 31
0.0
  0
LINE
  8
TRMODEL1
  6
CONTINUOUS
 62
     7
  5
A52
 10
0.966645
 20
1.542896
 30
0.0
 11
1.031358
 21
1.546505
 31
0.0
  0
LINE
  8
TRMODEL1
  6
CONTINUOUS
 62
     7
  5
A53
 10
1.031358
 20
1.546505
 30
0.0
 11
1.096049
 21
1.550349
 31
0.0
  0
LINE
  8
TRMODEL1
  6
CONTINUOUS
 62
     7
  5
A54
 10
1.096049
 20
1.550349
 30
0.0
 11
1.160715
 21
1.554426
 31
0.0
  0
LINE
  8
TRMODEL1
  6
CONTINUOUS
 62
     7
  5
A55
 10
1.160715
 20
1.554426
 30
0.0
 11
1.225355
 21
1.558736
 31
0.0
  0
LINE
  8
TRMODEL1
  6
CONTINUOUS
 62
     7
  5
A56
 10
1.225355
 20
1.558736
 30
0.0
 11
1.289968
 21
1.56328
 31
0.0
  0
LINE
  8
TRMODEL1
  6
CONTINUOUS
 62
     7
  5
A57
 10
1.289968
 20
1.56328
 30
0.0
 11
1.354552
 21
1.568058
 31
0.0
  0
LINE
  8
TRMODEL1
  6
CONTINUOUS
 62
     7
  5
A58
 10
1.354552
 20
1.568058
 30
0.0
 11
1.419106
 21
1.573069
 31
0.0
  0
LINE
  8
TRMODEL1
  6
CONTINUOUS
 62
     7
  5
A59
 10
1.419106
 20
1.573069
 30
0.0
 11
1.483629
 21
1.578312
 31
0.0
  0
LINE
  8
TRMODEL1
  6
CONTINUOUS
 62
     7
  5
A5A
 10
1.483629
 20
1.578312
 30
0.0
 11
1.548118
 21
1.58379
 31
0.0
  0
LINE
  8
TRMODEL1
  6
CONTINUOUS
 62
     7
  5
A5B
 10
1.548118
 20
1.58379
 30
0.0
 11
1.612574
 21
1.5895
 31
0.0
  0
LINE
  8
TRMODEL1
  6
CONTINUOUS
 62
     7
  5
A5C
 10
1.612574
 20
1.5895
 30
0.0
 11
1.676993
 21
1.595442
 31
0.0
  0
LINE
  8
TRMODEL1
  6
CONTINUOUS
 62
     7
  5
A5D
 10
1.676993
 20
1.595442
 30
0.0
 11
1.741375
 21
1.601618
 31
0.0
  0
LINE
  8
TRMODEL1
  6
CONTINUOUS
 62
     7
  5
A5E
 10
1.741375
 20
1.601618
 30
0.0
 11
1.805718
 21
1.608026
 31
0.0
  0
LINE
  8
TRMODEL1
  6
CONTINUOUS
 62
     7
  5
A5F
 10
1.805718
 20
1.608026
 30
0.0
 11
1.870021
 21
1.614666
 31
0.0
  0
LINE
  8
TRMODEL1
  6
CONTINUOUS
 62
     7
  5
A60
 10
1.870021
 20
1.614666
 30
0.0
 11
1.934283
 21
1.621539
 31
0.0
  0
LINE
  8
TRMODEL1
  6
CONTINUOUS
 62
     7
  5
A61
 10
1.934283
 20
1.621539
 30
0.0
 11
1.998501
 21
1.628644
 31
0.0
  0
LINE
  8
TRMODEL1
  6
CONTINUOUS
 62
     7
  5
A62
 10
1.998501
 20
1.628644
 30
0.0
 11
2.062675
 21
1.635981
 31
0.0
  0
LINE
  8
TRMODEL1
  6
CONTINUOUS
 62
     7
  5
A63
 10
2.062675
 20
1.635981
 30
0.0
 11
2.126803
 21
1.643549
 31
0.0
  0
LINE
  8
TRMODEL1
  6
CONTINUOUS
 62
     7
  5
A64
 10
2.126803
 20
1.643549
 30
0.0
 11
2.190884
 21
1.651349
 31
0.0
  0
LINE
  8
TRMODEL1
  6
CONTINUOUS
 62
     7
  5
A65
 10
2.190884
 20
1.651349
 30
0.0
 11
2.254916
 21
1.659381
 31
0.0
  0
LINE
  8
TRMODEL1
  6
CONTINUOUS
 62
     7
  5
A66
 10
2.254916
 20
1.659381
 30
0.0
 11
2.318898
 21
1.667644
 31
0.0
  0
LINE
  8
TRMODEL1
  6
CONTINUOUS
 62
     7
  5
A67
 10
2.318898
 20
1.064459
 30
0.0
 11
2.254916
 21
1.056196
 31
0.0
  0
LINE
  8
TRMODEL1
  6
CONTINUOUS
 62
     7
  5
A68
 10
2.254916
 20
1.056196
 30
0.0
 11
2.190884
 21
1.048165
 31
0.0
  0
LINE
  8
TRMODEL1
  6
CONTINUOUS
 62
     7
  5
A69
 10
2.190884
 20
1.048165
 30
0.0
 11
2.126803
 21
1.040364
 31
0.0
  0
LINE
  8
TRMODEL1
  6
CONTINUOUS
 62
     7
  5
A6A
 10
2.126803
 20
1.040364
 30
0.0
 11
2.062675
 21
1.032796
 31
0.0
  0
LINE
  8
TRMODEL1
  6
CONTINUOUS
 62
     7
  5
A6B
 10
2.062675
 20
1.032796
 30
0.0
 11
1.998501
 21
1.025459
 31
0.0
  0
LINE
  8
TRMODEL1
  6
CONTINUOUS
 62
     7
  5
A6C
 10
1.998501
 20
1.025459
 30
0.0
 11
1.934283
 21
1.018354
 31
0.0
  0
LINE
  8
TRMODEL1
  6
CONTINUOUS
 62
     7
  5
A6D
 10
1.934283
 20
1.018354
 30
0.0
 11
1.870021
 21
1.011482
 31
0.0
  0
LINE
  8
TRMODEL1
  6
CONTINUOUS
 62
     7
  5
A6E
 10
1.870021
 20
1.011482
 30
0.0
 11
1.805718
 21
1.004841
 31
0.0
  0
LINE
  8
TRMODEL1
  6
CONTINUOUS
 62
     7
  5
A6F
 10
1.805718
 20
1.004841
 30
0.0
 11
1.741375
 21
0.998433
 31
0.0
  0
LINE
  8
TRMODEL1
  6
CONTINUOUS
 62
     7
  5
A70
 10
1.741375
 20
0.998433
 30
0.0
 11
1.676993
 21
0.992258
 31
0.0
  0
LINE
  8
TRMODEL1
  6
CONTINUOUS
 62
     7
  5
A71
 10
1.676993
 20
0.992258
 30
0.0
 11
1.612574
 21
0.986315
 31
0.0
  0
LINE
  8
TRMODEL1
  6
CONTINUOUS
 62
     7
  5
A72
 10
1.612574
 20
0.986315
 30
0.0
 11
1.548118
 21
0.980605
 31
0.0
  0
LINE
  8
TRMODEL1
  6
CONTINUOUS
 62
     7
  5
A73
 10
1.548118
 20
0.980605
 30
0.0
 11
1.483629
 21
0.975128
 31
0.0
  0
LINE
  8
TRMODEL1
  6
CONTINUOUS
 62
     7
  5
A74
 10
1.483629
 20
0.975128
 30
0.0
 11
1.419106
 21
0.969884
 31
0.0
  0
LINE
  8
TRMODEL1
  6
CONTINUOUS
 62
     7
  5
A75
 10
1.419106
 20
0.969884
 30
0.0
 11
1.354552
 21
0.964873
 31
0.0
  0
LINE
  8
TRMODEL1
  6
CONTINUOUS
 62
     7
  5
A76
 10
1.354552
 20
0.964873
 30
0.0
 11
1.289968
 21
0.960096
 31
0.0
  0
LINE
  8
TRMODEL1
  6
CONTINUOUS
 62
     7
  5
A77
 10
1.289968
 20
0.960096
 30
0.0
 11
1.225355
 21
0.955552
 31
0.0
  0
LINE
  8
TRMODEL1
  6
CONTINUOUS
 62
     7
  5
A78
 10
1.225355
 20
0.955552
 30
0.0
 11
1.160715
 21
0.951241
 31
0.0
  0
LINE
  8
TRMODEL1
  6
CONTINUOUS
 62
     7
  5
A79
 10
1.160715
 20
0.951241
 30
0.0
 11
1.096049
 21
0.947164
 31
0.0
  0
LINE
  8
TRMODEL1
  6
CONTINUOUS
 62
     7
  5
A7A
 10
1.096049
 20
0.947164
 30
0.0
 11
1.031358
 21
0.943321
 31
0.0
  0
LINE
  8
TRMODEL1
  6
CONTINUOUS
 62
     7
  5
A7B
 10
1.031358
 20
0.943321
 30
0.0
 11
0.966645
 21
0.939711
 31
0.0
  0
LINE
  8
TRMODEL1
  6
CONTINUOUS
 62
     7
  5
A7C
 10
0.966645
 20
0.939711
 30
0.0
 11
0.90191
 21
0.936336
 31
0.0
  0
LINE
  8
TRMODEL1
  6
CONTINUOUS
 62
     7
  5
A7D
 10
0.90191
 20
0.936336
 30
0.0
 11
0.837155
 21
0.933194
 31
0.0
  0
LINE
  8
TRMODEL1
  6
CONTINUOUS
 62
     7
  5
A7E
 10
0.837155
 20
0.933194
 30
0.0
 11
0.772381
 21
0.930286
 31
0.0
  0
LINE
  8
TRMODEL1
  6
CONTINUOUS
 62
     7
  5
A7F
 10
0.772381
 20
0.930286
 30
0.0
 11
0.707591
 21
0.927612
 31
0.0
  0
LINE
  8
TRMODEL1
  6
CONTINUOUS
 62
     7
  5
A80
 10
0.707591
 20
0.927612
 30
0.0
 11
0.642784
 21
0.925173
 31
0.0
  0
LINE
  8
TRMODEL1
  6
CONTINUOUS
 62
     7
  5
A81
 10
0.642784
 20
0.925173
 30
0.0
 11
0.577963
 21
0.922968
 31
0.0
  0
LINE
  8
TRMODEL1
  6
CONTINUOUS
 62
     7
  5
A82
 10
0.577963
 20
0.922968
 30
0.0
 11
0.51313
 21
0.920996
 31
0.0
  0
LINE
  8
TRMODEL1
  6
CONTINUOUS
 62
     7
  5
A83
 10
0.51313
 20
0.920996
 30
0.0
 11
0.448285
 21
0.91926
 31
0.0
  0
LINE
  8
TRMODEL1
  6
CONTINUOUS
 62
     7
  5
A84
 10
0.448285
 20
0.91926
 30
0.0
 11
0.383429
 21
0.917757
 31
0.0
  0
LINE
  8
TRMODEL1
  6
CONTINUOUS
 62
     7
  5
A85
 10
0.383429
 20
0.917757
 30
0.0
 11
0.318566
 21
0.916489
 31
0.0
  0
LINE
  8
TRMODEL1
  6
CONTINUOUS
 62
     7
  5
A86
 10
0.318566
 20
0.916489
 30
0.0
 11
0.253695
 21
0.915455
 31
0.0
  0
LINE
  8
TRMODEL1
  6
CONTINUOUS
 62
     7
  5
A87
 10
0.253695
 20
0.915455
 30
0.0
 11
0.188819
 21
0.914656
 31
0.0
  0
LINE
  8
TRMODEL1
  6
CONTINUOUS
 62
     7
  5
A88
 10
0.188819
 20
0.914656
 30
0.0
 11
0.123938
 21
0.914091
 31
0.0
  0
LINE
  8
TRMODEL1
  6
CONTINUOUS
 62
     7
  5
A89
 10
0.123938
 20
0.914091
 30
0.0
 11
0.059055
 21
0.91376
 31
0.0
  0
LINE
  8
TRMODEL1
  6
CONTINUOUS
 62
     7
  5
A8A
 10
2.318898
 20
1.026499
 30
0.0
 11
2.254916
 21
1.018236
 31
0.0
  0
LINE
  8
TRMODEL1
  6
CONTINUOUS
 62
     7
  5
A8B
 10
2.254916
 20
1.018236
 30
0.0
 11
2.190884
 21
1.010205
 31
0.0
  0
LINE
  8
TRMODEL1
  6
CONTINUOUS
 62
     7
  5
A8C
 10
2.190884
 20
1.010205
 30
0.0
 11
2.126803
 21
1.002405
 31
0.0
  0
LINE
  8
TRMODEL1
  6
CONTINUOUS
 62
     7
  5
A8D
 10
2.126803
 20
1.002405
 30
0.0
 11
2.062675
 21
0.994836
 31
0.0
  0
LINE
  8
TRMODEL1
  6
CONTINUOUS
 62
     7
  5
A8E
 10
2.062675
 20
0.994836
 30
0.0
 11
1.998501
 21
0.987499
 31
0.0
  0
LINE
  8
TRMODEL1
  6
CONTINUOUS
 62
     7
  5
A8F
 10
1.998501
 20
0.987499
 30
0.0
 11
1.934283
 21
0.980394
 31
0.0
  0
LINE
  8
TRMODEL1
  6
CONTINUOUS
 62
     7
  5
A90
 10
1.934283
 20
0.980394
 30
0.0
 11
1.870021
 21
0.973522
 31
0.0
  0
LINE
  8
TRMODEL1
  6
CONTINUOUS
 62
     7
  5
A91
 10
1.870021
 20
0.973522
 30
0.0
 11
1.805718
 21
0.966881
 31
0.0
  0
LINE
  8
TRMODEL1
  6
CONTINUOUS
 62
     7
  5
A92
 10
1.805718
 20
0.966881
 30
0.0
 11
1.741375
 21
0.960473
 31
0.0
  0
LINE
  8
TRMODEL1
  6
CONTINUOUS
 62
     7
  5
A93
 10
1.741375
 20
0.960473
 30
0.0
 11
1.676993
 21
0.954298
 31
0.0
  0
LINE
  8
TRMODEL1
  6
CONTINUOUS
 62
     7
  5
A94
 10
1.676993
 20
0.954298
 30
0.0
 11
1.612574
 21
0.948355
 31
0.0
  0
LINE
  8
TRMODEL1
  6
CONTINUOUS
 62
     7
  5
A95
 10
1.612574
 20
0.948355
 30
0.0
 11
1.548118
 21
0.942645
 31
0.0
  0
LINE
  8
TRMODEL1
  6
CONTINUOUS
 62
     7
  5
A96
 10
1.548118
 20
0.942645
 30
0.0
 11
1.483629
 21
0.937168
 31
0.0
  0
LINE
  8
TRMODEL1
  6
CONTINUOUS
 62
     7
  5
A97
 10
1.483629
 20
0.937168
 30
0.0
 11
1.419106
 21
0.931924
 31
0.0
  0
LINE
  8
TRMODEL1
  6
CONTINUOUS
 62
     7
  5
A98
 10
1.419106
 20
0.931924
 30
0.0
 11
1.354552
 21
0.926913
 31
0.0
  0
LINE
  8
TRMODEL1
  6
CONTINUOUS
 62
     7
  5
A99
 10
1.354552
 20
0.926913
 30
0.0
 11
1.289968
 21
0.922136
 31
0.0
  0
LINE
  8
TRMODEL1
  6
CONTINUOUS
 62
     7
  5
A9A
 10
1.289968
 20
0.922136
 30
0.0
 11
1.225355
 21
0.917592
 31
0.0
  0
LINE
  8
TRMODEL1
  6
CONTINUOUS
 62
     7
  5
A9B
 10
1.225355
 20
0.917592
 30
0.0
 11
1.160715
 21
0.913281
 31
0.0
  0
LINE
  8
TRMODEL1
  6
CONTINUOUS
 62
     7
  5
A9C
 10
1.160715
 20
0.913281
 30
0.0
 11
1.096049
 21
0.909204
 31
0.0
  0
LINE
  8
TRMODEL1
  6
CONTINUOUS
 62
     7
  5
A9D
 10
1.096049
 20
0.909204
 30
0.0
 11
1.031358
 21
0.905361
 31
0.0
  0
LINE
  8
TRMODEL1
  6
CONTINUOUS
 62
     7
  5
A9E
 10
1.031358
 20
0.905361
 30
0.0
 11
0.966645
 21
0.901751
 31
0.0
  0
LINE
  8
TRMODEL1
  6
CONTINUOUS
 62
     7
  5
A9F
 10
0.966645
 20
0.901751
 30
0.0
 11
0.90191
 21
0.898376
 31
0.0
  0
LINE
  8
TRMODEL1
  6
CONTINUOUS
 62
     7
  5
AA0
 10
0.90191
 20
0.898376
 30
0.0
 11
0.837155
 21
0.895234
 31
0.0
  0
LINE
  8
TRMODEL1
  6
CONTINUOUS
 62
     7
  5
AA1
 10
0.837155
 20
0.895234
 30
0.0
 11
0.772381
 21
0.892326
 31
0.0
  0
LINE
  8
TRMODEL1
  6
CONTINUOUS
 62
     7
  5
AA2
 10
0.772381
 20
0.892326
 30
0.0
 11
0.707591
 21
0.889653
 31
0.0
  0
LINE
  8
TRMODEL1
  6
CONTINUOUS
 62
     7
  5
AA3
 10
0.707591
 20
0.889653
 30
0.0
 11
0.642784
 21
0.887213
 31
0.0
  0
LINE
  8
TRMODEL1
  6
CONTINUOUS
 62
     7
  5
AA4
 10
0.642784
 20
0.887213
 30
0.0
 11
0.577963
 21
0.885008
 31
0.0
  0
LINE
  8
TRMODEL1
  6
CONTINUOUS
 62
     7
  5
AA5
 10
0.577963
 20
0.885008
 30
0.0
 11
0.51313
 21
0.883037
 31
0.0
  0
LINE
  8
TRMODEL1
  6
CONTINUOUS
 62
     7
  5
AA6
 10
0.51313
 20
0.883037
 30
0.0
 11
0.448285
 21
0.8813
 31
0.0
  0
LINE
  8
TRMODEL1
  6
CONTINUOUS
 62
     7
  5
AA7
 10
0.448285
 20
0.8813
 30
0.0
 11
0.383429
 21
0.879797
 31
0.0
  0
LINE
  8
TRMODEL1
  6
CONTINUOUS
 62
     7
  5
AA8
 10
0.383429
 20
0.879797
 30
0.0
 11
0.318566
 21
0.878529
 31
0.0
  0
LINE
  8
TRMODEL1
  6
CONTINUOUS
 62
     7
  5
AA9
 10
0.318566
 20
0.878529
 30
0.0
 11
0.253695
 21
0.877495
 31
0.0
  0
LINE
  8
TRMODEL1
  6
CONTINUOUS
 62
     7
  5
AAA
 10
0.253695
 20
0.877495
 30
0.0
 11
0.188819
 21
0.876696
 31
0.0
  0
LINE
  8
TRMODEL1
  6
CONTINUOUS
 62
     7
  5
AAB
 10
0.188819
 20
0.876696
 30
0.0
 11
0.123938
 21
0.876131
 31
0.0
  0
LINE
  8
TRMODEL1
  6
CONTINUOUS
 62
     7
  5
AAC
 10
0.123938
 20
0.876131
 30
0.0
 11
0.059055
 21
0.8758
 31
0.0
  0
LINE
  8
TRMODEL1
  6
CONTINUOUS
 62
     7
  5
AAD
 10
-0.059055
 20
0.8758
 30
0.0
 11
-0.123938
 21
0.876131
 31
0.0
  0
LINE
  8
TRMODEL1
  6
CONTINUOUS
 62
     7
  5
AAE
 10
-0.123938
 20
0.876131
 30
0.0
 11
-0.188819
 21
0.876696
 31
0.0
  0
LINE
  8
TRMODEL1
  6
CONTINUOUS
 62
     7
  5
AAF
 10
-0.188819
 20
0.876696
 30
0.0
 11
-0.253695
 21
0.877495
 31
0.0
  0
LINE
  8
TRMODEL1
  6
CONTINUOUS
 62
     7
  5
AB0
 10
-0.253695
 20
0.877495
 30
0.0
 11
-0.318566
 21
0.878529
 31
0.0
  0
LINE
  8
TRMODEL1
  6
CONTINUOUS
 62
     7
  5
AB1
 10
-0.318566
 20
0.878529
 30
0.0
 11
-0.383429
 21
0.879797
 31
0.0
  0
LINE
  8
TRMODEL1
  6
CONTINUOUS
 62
     7
  5
AB2
 10
-0.383429
 20
0.879797
 30
0.0
 11
-0.448285
 21
0.8813
 31
0.0
  0
LINE
  8
TRMODEL1
  6
CONTINUOUS
 62
     7
  5
AB3
 10
-0.448285
 20
0.8813
 30
0.0
 11
-0.51313
 21
0.883037
 31
0.0
  0
LINE
  8
TRMODEL1
  6
CONTINUOUS
 62
     7
  5
AB4
 10
-0.51313
 20
0.883037
 30
0.0
 11
-0.577963
 21
0.885008
 31
0.0
  0
LINE
  8
TRMODEL1
  6
CONTINUOUS
 62
     7
  5
AB5
 10
-0.577963
 20
0.885008
 30
0.0
 11
-0.642784
 21
0.887213
 31
0.0
  0
LINE
  8
TRMODEL1
  6
CONTINUOUS
 62
     7
  5
AB6
 10
-0.642784
 20
0.887213
 30
0.0
 11
-0.707591
 21
0.889653
 31
0.0
  0
LINE
  8
TRMODEL1
  6
CONTINUOUS
 62
     7
  5
AB7
 10
-0.707591
 20
0.889653
 30
0.0
 11
-0.772381
 21
0.892326
 31
0.0
  0
LINE
  8
TRMODEL1
  6
CONTINUOUS
 62
     7
  5
AB8
 10
-0.772381
 20
0.892326
 30
0.0
 11
-0.837155
 21
0.895234
 31
0.0
  0
LINE
  8
TRMODEL1
  6
CONTINUOUS
 62
     7
  5
AB9
 10
-0.837155
 20
0.895234
 30
0.0
 11
-0.90191
 21
0.898376
 31
0.0
  0
LINE
  8
TRMODEL1
  6
CONTINUOUS
 62
     7
  5
ABA
 10
-0.90191
 20
0.898376
 30
0.0
 11
-0.966645
 21
0.901751
 31
0.0
  0
LINE
  8
TRMODEL1
  6
CONTINUOUS
 62
     7
  5
ABB
 10
-0.966645
 20
0.901751
 30
0.0
 11
-1.031358
 21
0.905361
 31
0.0
  0
LINE
  8
TRMODEL1
  6
CONTINUOUS
 62
     7
  5
ABC
 10
-1.031358
 20
0.905361
 30
0.0
 11
-1.096049
 21
0.909204
 31
0.0
  0
LINE
  8
TRMODEL1
  6
CONTINUOUS
 62
     7
  5
ABD
 10
-1.096049
 20
0.909204
 30
0.0
 11
-1.160715
 21
0.913281
 31
0.0
  0
LINE
  8
TRMODEL1
  6
CONTINUOUS
 62
     7
  5
ABE
 10
-1.160715
 20
0.913281
 30
0.0
 11
-1.225355
 21
0.917592
 31
0.0
  0
LINE
  8
TRMODEL1
  6
CONTINUOUS
 62
     7
  5
ABF
 10
-1.225355
 20
0.917592
 30
0.0
 11
-1.289968
 21
0.922136
 31
0.0
  0
LINE
  8
TRMODEL1
  6
CONTINUOUS
 62
     7
  5
AC0
 10
-1.289968
 20
0.922136
 30
0.0
 11
-1.354552
 21
0.926913
 31
0.0
  0
LINE
  8
TRMODEL1
  6
CONTINUOUS
 62
     7
  5
AC1
 10
-1.354552
 20
0.926913
 30
0.0
 11
-1.419106
 21
0.931924
 31
0.0
  0
LINE
  8
TRMODEL1
  6
CONTINUOUS
 62
     7
  5
AC2
 10
-1.419106
 20
0.931924
 30
0.0
 11
-1.483629
 21
0.937168
 31
0.0
  0
LINE
  8
TRMODEL1
  6
CONTINUOUS
 62
     7
  5
AC3
 10
-1.483629
 20
0.937168
 30
0.0
 11
-1.548118
 21
0.942645
 31
0.0
  0
LINE
  8
TRMODEL1
  6
CONTINUOUS
 62
     7
  5
AC4
 10
-1.548118
 20
0.942645
 30
0.0
 11
-1.612574
 21
0.948355
 31
0.0
  0
LINE
  8
TRMODEL1
  6
CONTINUOUS
 62
     7
  5
AC5
 10
-1.612574
 20
0.948355
 30
0.0
 11
-1.676993
 21
0.954298
 31
0.0
  0
LINE
  8
TRMODEL1
  6
CONTINUOUS
 62
     7
  5
AC6
 10
-1.676993
 20
0.954298
 30
0.0
 11
-1.741375
 21
0.960473
 31
0.0
  0
LINE
  8
TRMODEL1
  6
CONTINUOUS
 62
     7
  5
AC7
 10
-1.741375
 20
0.960473
 30
0.0
 11
-1.805718
 21
0.966881
 31
0.0
  0
LINE
  8
TRMODEL1
  6
CONTINUOUS
 62
     7
  5
AC8
 10
-1.805718
 20
0.966881
 30
0.0
 11
-1.870021
 21
0.973522
 31
0.0
  0
LINE
  8
TRMODEL1
  6
CONTINUOUS
 62
     7
  5
AC9
 10
-1.870021
 20
0.973522
 30
0.0
 11
-1.934283
 21
0.980394
 31
0.0
  0
LINE
  8
TRMODEL1
  6
CONTINUOUS
 62
     7
  5
ACA
 10
-1.934283
 20
0.980394
 30
0.0
 11
-1.998501
 21
0.987499
 31
0.0
  0
LINE
  8
TRMODEL1
  6
CONTINUOUS
 62
     7
  5
ACB
 10
-1.998501
 20
0.987499
 30
0.0
 11
-2.062675
 21
0.994836
 31
0.0
  0
LINE
  8
TRMODEL1
  6
CONTINUOUS
 62
     7
  5
ACC
 10
-2.062675
 20
0.994836
 30
0.0
 11
-2.126803
 21
1.002405
 31
0.0
  0
LINE
  8
TRMODEL1
  6
CONTINUOUS
 62
     7
  5
ACD
 10
-2.126803
 20
1.002405
 30
0.0
 11
-2.190884
 21
1.010205
 31
0.0
  0
LINE
  8
TRMODEL1
  6
CONTINUOUS
 62
     7
  5
ACE
 10
-2.190884
 20
1.010205
 30
0.0
 11
-2.254916
 21
1.018236
 31
0.0
  0
LINE
  8
TRMODEL1
  6
CONTINUOUS
 62
     7
  5
ACF
 10
-2.254916
 20
1.018236
 30
0.0
 11
-2.318898
 21
1.026499
 31
0.0
  0
LINE
  8
TRMODEL1
  6
CONTINUOUS
 62
     7
  5
AD0
 10
-0.059055
 20
0.91376
 30
0.0
 11
-0.123938
 21
0.914091
 31
0.0
  0
LINE
  8
TRMODEL1
  6
CONTINUOUS
 62
     7
  5
AD1
 10
-0.123938
 20
0.914091
 30
0.0
 11
-0.188819
 21
0.914656
 31
0.0
  0
LINE
  8
TRMODEL1
  6
CONTINUOUS
 62
     7
  5
AD2
 10
-0.188819
 20
0.914656
 30
0.0
 11
-0.253695
 21
0.915455
 31
0.0
  0
LINE
  8
TRMODEL1
  6
CONTINUOUS
 62
     7
  5
AD3
 10
-0.253695
 20
0.915455
 30
0.0
 11
-0.318566
 21
0.916489
 31
0.0
  0
LINE
  8
TRMODEL1
  6
CONTINUOUS
 62
     7
  5
AD4
 10
-0.318566
 20
0.916489
 30
0.0
 11
-0.383429
 21
0.917757
 31
0.0
  0
LINE
  8
TRMODEL1
  6
CONTINUOUS
 62
     7
  5
AD5
 10
-0.383429
 20
0.917757
 30
0.0
 11
-0.448285
 21
0.91926
 31
0.0
  0
LINE
  8
TRMODEL1
  6
CONTINUOUS
 62
     7
  5
AD6
 10
-0.448285
 20
0.91926
 30
0.0
 11
-0.51313
 21
0.920996
 31
0.0
  0
LINE
  8
TRMODEL1
  6
CONTINUOUS
 62
     7
  5
AD7
 10
-0.51313
 20
0.920996
 30
0.0
 11
-0.577963
 21
0.922968
 31
0.0
  0
LINE
  8
TRMODEL1
  6
CONTINUOUS
 62
     7
  5
AD8
 10
-0.577963
 20
0.922968
 30
0.0
 11
-0.642784
 21
0.925173
 31
0.0
  0
LINE
  8
TRMODEL1
  6
CONTINUOUS
 62
     7
  5
AD9
 10
-0.642784
 20
0.925173
 30
0.0
 11
-0.707591
 21
0.927612
 31
0.0
  0
LINE
  8
TRMODEL1
  6
CONTINUOUS
 62
     7
  5
ADA
 10
-0.707591
 20
0.927612
 30
0.0
 11
-0.772381
 21
0.930286
 31
0.0
  0
LINE
  8
TRMODEL1
  6
CONTINUOUS
 62
     7
  5
ADB
 10
-0.772381
 20
0.930286
 30
0.0
 11
-0.837155
 21
0.933194
 31
0.0
  0
LINE
  8
TRMODEL1
  6
CONTINUOUS
 62
     7
  5
ADC
 10
-0.837155
 20
0.933194
 30
0.0
 11
-0.90191
 21
0.936336
 31
0.0
  0
LINE
  8
TRMODEL1
  6
CONTINUOUS
 62
     7
  5
ADD
 10
-0.90191
 20
0.936336
 30
0.0
 11
-0.966645
 21
0.939711
 31
0.0
  0
LINE
  8
TRMODEL1
  6
CONTINUOUS
 62
     7
  5
ADE
 10
-0.966645
 20
0.939711
 30
0.0
 11
-1.031358
 21
0.943321
 31
0.0
  0
LINE
  8
TRMODEL1
  6
CONTINUOUS
 62
     7
  5
ADF
 10
-1.031358
 20
0.943321
 30
0.0
 11
-1.096049
 21
0.947164
 31
0.0
  0
LINE
  8
TRMODEL1
  6
CONTINUOUS
 62
     7
  5
AE0
 10
-1.096049
 20
0.947164
 30
0.0
 11
-1.160715
 21
0.951241
 31
0.0
  0
LINE
  8
TRMODEL1
  6
CONTINUOUS
 62
     7
  5
AE1
 10
-1.160715
 20
0.951241
 30
0.0
 11
-1.225355
 21
0.955552
 31
0.0
  0
LINE
  8
TRMODEL1
  6
CONTINUOUS
 62
     7
  5
AE2
 10
-1.225355
 20
0.955552
 30
0.0
 11
-1.289968
 21
0.960096
 31
0.0
  0
LINE
  8
TRMODEL1
  6
CONTINUOUS
 62
     7
  5
AE3
 10
-1.289968
 20
0.960096
 30
0.0
 11
-1.354552
 21
0.964873
 31
0.0
  0
LINE
  8
TRMODEL1
  6
CONTINUOUS
 62
     7
  5
AE4
 10
-1.354552
 20
0.964873
 30
0.0
 11
-1.419106
 21
0.969884
 31
0.0
  0
LINE
  8
TRMODEL1
  6
CONTINUOUS
 62
     7
  5
AE5
 10
-1.419106
 20
0.969884
 30
0.0
 11
-1.483629
 21
0.975128
 31
0.0
  0
LINE
  8
TRMODEL1
  6
CONTINUOUS
 62
     7
  5
AE6
 10
-1.483629
 20
0.975128
 30
0.0
 11
-1.548118
 21
0.980605
 31
0.0
  0
LINE
  8
TRMODEL1
  6
CONTINUOUS
 62
     7
  5
AE7
 10
-1.548118
 20
0.980605
 30
0.0
 11
-1.612574
 21
0.986315
 31
0.0
  0
LINE
  8
TRMODEL1
  6
CONTINUOUS
 62
     7
  5
AE8
 10
-1.612574
 20
0.986315
 30
0.0
 11
-1.676993
 21
0.992258
 31
0.0
  0
LINE
  8
TRMODEL1
  6
CONTINUOUS
 62
     7
  5
AE9
 10
-1.676993
 20
0.992258
 30
0.0
 11
-1.741375
 21
0.998433
 31
0.0
  0
LINE
  8
TRMODEL1
  6
CONTINUOUS
 62
     7
  5
AEA
 10
-1.741375
 20
0.998433
 30
0.0
 11
-1.805718
 21
1.004841
 31
0.0
  0
LINE
  8
TRMODEL1
  6
CONTINUOUS
 62
     7
  5
AEB
 10
-1.805718
 20
1.004841
 30
0.0
 11
-1.870021
 21
1.011482
 31
0.0
  0
LINE
  8
TRMODEL1
  6
CONTINUOUS
 62
     7
  5
AEC
 10
-1.870021
 20
1.011482
 30
0.0
 11
-1.934283
 21
1.018354
 31
0.0
  0
LINE
  8
TRMODEL1
  6
CONTINUOUS
 62
     7
  5
AED
 10
-1.934283
 20
1.018354
 30
0.0
 11
-1.998501
 21
1.025459
 31
0.0
  0
LINE
  8
TRMODEL1
  6
CONTINUOUS
 62
     7
  5
AEE
 10
-1.998501
 20
1.025459
 30
0.0
 11
-2.062675
 21
1.032796
 31
0.0
  0
LINE
  8
TRMODEL1
  6
CONTINUOUS
 62
     7
  5
AEF
 10
-2.062675
 20
1.032796
 30
0.0
 11
-2.126803
 21
1.040364
 31
0.0
  0
LINE
  8
TRMODEL1
  6
CONTINUOUS
 62
     7
  5
AF0
 10
-2.126803
 20
1.040364
 30
0.0
 11
-2.190884
 21
1.048165
 31
0.0
  0
LINE
  8
TRMODEL1
  6
CONTINUOUS
 62
     7
  5
AF1
 10
-2.190884
 20
1.048165
 30
0.0
 11
-2.254916
 21
1.056196
 31
0.0
  0
LINE
  8
TRMODEL1
  6
CONTINUOUS
 62
     7
  5
AF2
 10
-2.254916
 20
1.056196
 30
0.0
 11
-2.318898
 21
1.064459
 31
0.0
  0
LINE
  8
TRMODEL1
  6
CONTINUOUS
 62
     7
  5
AF3
 10
-2.318898
 20
1.667644
 30
0.0
 11
-2.254916
 21
1.659381
 31
0.0
  0
LINE
  8
TRMODEL1
  6
CONTINUOUS
 62
     7
  5
AF4
 10
-2.254916
 20
1.659381
 30
0.0
 11
-2.190884
 21
1.651349
 31
0.0
  0
LINE
  8
TRMODEL1
  6
CONTINUOUS
 62
     7
  5
AF5
 10
-2.190884
 20
1.651349
 30
0.0
 11
-2.126803
 21
1.643549
 31
0.0
  0
LINE
  8
TRMODEL1
  6
CONTINUOUS
 62
     7
  5
AF6
 10
-2.126803
 20
1.643549
 30
0.0
 11
-2.062675
 21
1.635981
 31
0.0
  0
LINE
  8
TRMODEL1
  6
CONTINUOUS
 62
     7
  5
AF7
 10
-2.062675
 20
1.635981
 30
0.0
 11
-1.998501
 21
1.628644
 31
0.0
  0
LINE
  8
TRMODEL1
  6
CONTINUOUS
 62
     7
  5
AF8
 10
-1.998501
 20
1.628644
 30
0.0
 11
-1.934283
 21
1.621539
 31
0.0
  0
LINE
  8
TRMODEL1
  6
CONTINUOUS
 62
     7
  5
AF9
 10
-1.934283
 20
1.621539
 30
0.0
 11
-1.870021
 21
1.614666
 31
0.0
  0
LINE
  8
TRMODEL1
  6
CONTINUOUS
 62
     7
  5
AFA
 10
-1.870021
 20
1.614666
 30
0.0
 11
-1.805718
 21
1.608026
 31
0.0
  0
LINE
  8
TRMODEL1
  6
CONTINUOUS
 62
     7
  5
AFB
 10
-1.805718
 20
1.608026
 30
0.0
 11
-1.741375
 21
1.601618
 31
0.0
  0
LINE
  8
TRMODEL1
  6
CONTINUOUS
 62
     7
  5
AFC
 10
-1.741375
 20
1.601618
 30
0.0
 11
-1.676993
 21
1.595442
 31
0.0
  0
LINE
  8
TRMODEL1
  6
CONTINUOUS
 62
     7
  5
AFD
 10
-1.676993
 20
1.595442
 30
0.0
 11
-1.612574
 21
1.5895
 31
0.0
  0
LINE
  8
TRMODEL1
  6
CONTINUOUS
 62
     7
  5
AFE
 10
-1.612574
 20
1.5895
 30
0.0
 11
-1.548118
 21
1.58379
 31
0.0
  0
LINE
  8
TRMODEL1
  6
CONTINUOUS
 62
     7
  5
AFF
 10
-1.548118
 20
1.58379
 30
0.0
 11
-1.483629
 21
1.578312
 31
0.0
  0
LINE
  8
TRMODEL1
  6
CONTINUOUS
 62
     7
  5
B00
 10
-1.483629
 20
1.578312
 30
0.0
 11
-1.419106
 21
1.573069
 31
0.0
  0
LINE
  8
TRMODEL1
  6
CONTINUOUS
 62
     7
  5
B01
 10
-1.419106
 20
1.573069
 30
0.0
 11
-1.354552
 21
1.568058
 31
0.0
  0
LINE
  8
TRMODEL1
  6
CONTINUOUS
 62
     7
  5
B02
 10
-1.354552
 20
1.568058
 30
0.0
 11
-1.289968
 21
1.56328
 31
0.0
  0
LINE
  8
TRMODEL1
  6
CONTINUOUS
 62
     7
  5
B03
 10
-1.289968
 20
1.56328
 30
0.0
 11
-1.225355
 21
1.558736
 31
0.0
  0
LINE
  8
TRMODEL1
  6
CONTINUOUS
 62
     7
  5
B04
 10
-1.225355
 20
1.558736
 30
0.0
 11
-1.160715
 21
1.554426
 31
0.0
  0
LINE
  8
TRMODEL1
  6
CONTINUOUS
 62
     7
  5
B05
 10
-1.160715
 20
1.554426
 30
0.0
 11
-1.096049
 21
1.550349
 31
0.0
  0
LINE
  8
TRMODEL1
  6
CONTINUOUS
 62
     7
  5
B06
 10
-1.096049
 20
1.550349
 30
0.0
 11
-1.031358
 21
1.546505
 31
0.0
  0
LINE
  8
TRMODEL1
  6
CONTINUOUS
 62
     7
  5
B07
 10
-1.031358
 20
1.546505
 30
0.0
 11
-0.966645
 21
1.542896
 31
0.0
  0
LINE
  8
TRMODEL1
  6
CONTINUOUS
 62
     7
  5
B08
 10
-0.966645
 20
1.542896
 30
0.0
 11
-0.90191
 21
1.53952
 31
0.0
  0
LINE
  8
TRMODEL1
  6
CONTINUOUS
 62
     7
  5
B09
 10
-0.90191
 20
1.53952
 30
0.0
 11
-0.837155
 21
1.536378
 31
0.0
  0
LINE
  8
TRMODEL1
  6
CONTINUOUS
 62
     7
  5
B0A
 10
-0.837155
 20
1.536378
 30
0.0
 11
-0.772381
 21
1.533471
 31
0.0
  0
LINE
  8
TRMODEL1
  6
CONTINUOUS
 62
     7
  5
B0B
 10
-0.772381
 20
1.533471
 30
0.0
 11
-0.707591
 21
1.530797
 31
0.0
  0
LINE
  8
TRMODEL1
  6
CONTINUOUS
 62
     7
  5
B0C
 10
-0.707591
 20
1.530797
 30
0.0
 11
-0.642784
 21
1.528358
 31
0.0
  0
LINE
  8
TRMODEL1
  6
CONTINUOUS
 62
     7
  5
B0D
 10
-0.642784
 20
1.528358
 30
0.0
 11
-0.577963
 21
1.526152
 31
0.0
  0
LINE
  8
TRMODEL1
  6
CONTINUOUS
 62
     7
  5
B0E
 10
-0.577963
 20
1.526152
 30
0.0
 11
-0.51313
 21
1.524181
 31
0.0
  0
LINE
  8
TRMODEL1
  6
CONTINUOUS
 62
     7
  5
B0F
 10
-0.51313
 20
1.524181
 30
0.0
 11
-0.448285
 21
1.522444
 31
0.0
  0
LINE
  8
TRMODEL1
  6
CONTINUOUS
 62
     7
  5
B10
 10
-0.448285
 20
1.522444
 30
0.0
 11
-0.383429
 21
1.520942
 31
0.0
  0
LINE
  8
TRMODEL1
  6
CONTINUOUS
 62
     7
  5
B11
 10
-0.383429
 20
1.520942
 30
0.0
 11
-0.318566
 21
1.519673
 31
0.0
  0
LINE
  8
TRMODEL1
  6
CONTINUOUS
 62
     7
  5
B12
 10
-0.318566
 20
1.519673
 30
0.0
 11
-0.253695
 21
1.51864
 31
0.0
  0
LINE
  8
TRMODEL1
  6
CONTINUOUS
 62
     7
  5
B13
 10
-0.253695
 20
1.51864
 30
0.0
 11
-0.188819
 21
1.51784
 31
0.0
  0
LINE
  8
TRMODEL1
  6
CONTINUOUS
 62
     7
  5
B14
 10
-0.188819
 20
1.51784
 30
0.0
 11
-0.123938
 21
1.517275
 31
0.0
  0
LINE
  8
TRMODEL1
  6
CONTINUOUS
 62
     7
  5
B15
 10
-0.123938
 20
1.517275
 30
0.0
 11
-0.059055
 21
1.516945
 31
0.0
  0
LINE
  8
TRMODEL1
  6
CONTINUOUS
 62
     7
  5
B16
 10
2.318898
 20
1.689041
 30
0.0
 11
2.254916
 21
1.680779
 31
0.0
  0
LINE
  8
TRMODEL1
  6
CONTINUOUS
 62
     7
  5
B17
 10
2.254916
 20
1.680779
 30
0.0
 11
2.190884
 21
1.672747
 31
0.0
  0
LINE
  8
TRMODEL1
  6
CONTINUOUS
 62
     7
  5
B18
 10
2.190884
 20
1.672747
 30
0.0
 11
2.126803
 21
1.664947
 31
0.0
  0
LINE
  8
TRMODEL1
  6
CONTINUOUS
 62
     7
  5
B19
 10
2.126803
 20
1.664947
 30
0.0
 11
2.062675
 21
1.657378
 31
0.0
  0
LINE
  8
TRMODEL1
  6
CONTINUOUS
 62
     7
  5
B1A
 10
2.062675
 20
1.657378
 30
0.0
 11
1.998501
 21
1.650041
 31
0.0
  0
LINE
  8
TRMODEL1
  6
CONTINUOUS
 62
     7
  5
B1B
 10
1.998501
 20
1.650041
 30
0.0
 11
1.934283
 21
1.642937
 31
0.0
  0
LINE
  8
TRMODEL1
  6
CONTINUOUS
 62
     7
  5
B1C
 10
1.934283
 20
1.642937
 30
0.0
 11
1.870021
 21
1.636064
 31
0.0
  0
LINE
  8
TRMODEL1
  6
CONTINUOUS
 62
     7
  5
B1D
 10
1.870021
 20
1.636064
 30
0.0
 11
1.805718
 21
1.629424
 31
0.0
  0
LINE
  8
TRMODEL1
  6
CONTINUOUS
 62
     7
  5
B1E
 10
1.805718
 20
1.629424
 30
0.0
 11
1.741375
 21
1.623015
 31
0.0
  0
LINE
  8
TRMODEL1
  6
CONTINUOUS
 62
     7
  5
B1F
 10
1.741375
 20
1.623015
 30
0.0
 11
1.676993
 21
1.61684
 31
0.0
  0
LINE
  8
TRMODEL1
  6
CONTINUOUS
 62
     7
  5
B20
 10
1.676993
 20
1.61684
 30
0.0
 11
1.612574
 21
1.610897
 31
0.0
  0
LINE
  8
TRMODEL1
  6
CONTINUOUS
 62
     7
  5
B21
 10
1.612574
 20
1.610897
 30
0.0
 11
1.548118
 21
1.605187
 31
0.0
  0
LINE
  8
TRMODEL1
  6
CONTINUOUS
 62
     7
  5
B22
 10
1.548118
 20
1.605187
 30
0.0
 11
1.483629
 21
1.59971
 31
0.0
  0
LINE
  8
TRMODEL1
  6
CONTINUOUS
 62
     7
  5
B23
 10
1.483629
 20
1.59971
 30
0.0
 11
1.419106
 21
1.594466
 31
0.0
  0
LINE
  8
TRMODEL1
  6
CONTINUOUS
 62
     7
  5
B24
 10
1.419106
 20
1.594466
 30
0.0
 11
1.354552
 21
1.589455
 31
0.0
  0
LINE
  8
TRMODEL1
  6
CONTINUOUS
 62
     7
  5
B25
 10
1.354552
 20
1.589455
 30
0.0
 11
1.289968
 21
1.584678
 31
0.0
  0
LINE
  8
TRMODEL1
  6
CONTINUOUS
 62
     7
  5
B26
 10
1.289968
 20
1.584678
 30
0.0
 11
1.225355
 21
1.580134
 31
0.0
  0
LINE
  8
TRMODEL1
  6
CONTINUOUS
 62
     7
  5
B27
 10
1.225355
 20
1.580134
 30
0.0
 11
1.160715
 21
1.575823
 31
0.0
  0
LINE
  8
TRMODEL1
  6
CONTINUOUS
 62
     7
  5
B28
 10
1.160715
 20
1.575823
 30
0.0
 11
1.096049
 21
1.571746
 31
0.0
  0
LINE
  8
TRMODEL1
  6
CONTINUOUS
 62
     7
  5
B29
 10
1.096049
 20
1.571746
 30
0.0
 11
1.031358
 21
1.567903
 31
0.0
  0
LINE
  8
TRMODEL1
  6
CONTINUOUS
 62
     7
  5
B2A
 10
1.031358
 20
1.567903
 30
0.0
 11
0.966645
 21
1.564294
 31
0.0
  0
LINE
  8
TRMODEL1
  6
CONTINUOUS
 62
     7
  5
B2B
 10
0.966645
 20
1.564294
 30
0.0
 11
0.90191
 21
1.560918
 31
0.0
  0
LINE
  8
TRMODEL1
  6
CONTINUOUS
 62
     7
  5
B2C
 10
0.90191
 20
1.560918
 30
0.0
 11
0.837155
 21
1.557776
 31
0.0
  0
LINE
  8
TRMODEL1
  6
CONTINUOUS
 62
     7
  5
B2D
 10
0.837155
 20
1.557776
 30
0.0
 11
0.772381
 21
1.554868
 31
0.0
  0
LINE
  8
TRMODEL1
  6
CONTINUOUS
 62
     7
  5
B2E
 10
0.772381
 20
1.554868
 30
0.0
 11
0.707591
 21
1.552195
 31
0.0
  0
LINE
  8
TRMODEL1
  6
CONTINUOUS
 62
     7
  5
B2F
 10
0.707591
 20
1.552195
 30
0.0
 11
0.642784
 21
1.549755
 31
0.0
  0
LINE
  8
TRMODEL1
  6
CONTINUOUS
 62
     7
  5
B30
 10
0.642784
 20
1.549755
 30
0.0
 11
0.577963
 21
1.54755
 31
0.0
  0
LINE
  8
TRMODEL1
  6
CONTINUOUS
 62
     7
  5
B31
 10
0.577963
 20
1.54755
 30
0.0
 11
0.51313
 21
1.545579
 31
0.0
  0
LINE
  8
TRMODEL1
  6
CONTINUOUS
 62
     7
  5
B32
 10
0.51313
 20
1.545579
 30
0.0
 11
0.448285
 21
1.543842
 31
0.0
  0
LINE
  8
TRMODEL1
  6
CONTINUOUS
 62
     7
  5
B33
 10
0.448285
 20
1.543842
 30
0.0
 11
0.383429
 21
1.542339
 31
0.0
  0
LINE
  8
TRMODEL1
  6
CONTINUOUS
 62
     7
  5
B34
 10
0.383429
 20
1.542339
 30
0.0
 11
0.318566
 21
1.541071
 31
0.0
  0
LINE
  8
TRMODEL1
  6
CONTINUOUS
 62
     7
  5
B35
 10
0.318566
 20
1.541071
 30
0.0
 11
0.253695
 21
1.540037
 31
0.0
  0
LINE
  8
TRMODEL1
  6
CONTINUOUS
 62
     7
  5
B36
 10
0.253695
 20
1.540037
 30
0.0
 11
0.188819
 21
1.539238
 31
0.0
  0
LINE
  8
TRMODEL1
  6
CONTINUOUS
 62
     7
  5
B37
 10
0.188819
 20
1.539238
 30
0.0
 11
0.123938
 21
1.538673
 31
0.0
  0
LINE
  8
TRMODEL1
  6
CONTINUOUS
 62
     7
  5
B38
 10
0.123938
 20
1.538673
 30
0.0
 11
0.059055
 21
1.538342
 31
0.0
  0
LINE
  8
TRMODEL1
  6
CONTINUOUS
 62
     7
  5
B39
 10
-0.059055
 20
1.538342
 30
0.0
 11
-0.123938
 21
1.538673
 31
0.0
  0
LINE
  8
TRMODEL1
  6
CONTINUOUS
 62
     7
  5
B3A
 10
-0.123938
 20
1.538673
 30
0.0
 11
-0.188819
 21
1.539238
 31
0.0
  0
LINE
  8
TRMODEL1
  6
CONTINUOUS
 62
     7
  5
B3B
 10
-0.188819
 20
1.539238
 30
0.0
 11
-0.253695
 21
1.540037
 31
0.0
  0
LINE
  8
TRMODEL1
  6
CONTINUOUS
 62
     7
  5
B3C
 10
-0.253695
 20
1.540037
 30
0.0
 11
-0.318566
 21
1.541071
 31
0.0
  0
LINE
  8
TRMODEL1
  6
CONTINUOUS
 62
     7
  5
B3D
 10
-0.318566
 20
1.541071
 30
0.0
 11
-0.383429
 21
1.542339
 31
0.0
  0
LINE
  8
TRMODEL1
  6
CONTINUOUS
 62
     7
  5
B3E
 10
-0.383429
 20
1.542339
 30
0.0
 11
-0.448285
 21
1.543842
 31
0.0
  0
LINE
  8
TRMODEL1
  6
CONTINUOUS
 62
     7
  5
B3F
 10
-0.448285
 20
1.543842
 30
0.0
 11
-0.51313
 21
1.545579
 31
0.0
  0
LINE
  8
TRMODEL1
  6
CONTINUOUS
 62
     7
  5
B40
 10
-0.51313
 20
1.545579
 30
0.0
 11
-0.577963
 21
1.54755
 31
0.0
  0
LINE
  8
TRMODEL1
  6
CONTINUOUS
 62
     7
  5
B41
 10
-0.577963
 20
1.54755
 30
0.0
 11
-0.642784
 21
1.549755
 31
0.0
  0
LINE
  8
TRMODEL1
  6
CONTINUOUS
 62
     7
  5
B42
 10
-0.642784
 20
1.549755
 30
0.0
 11
-0.707591
 21
1.552195
 31
0.0
  0
LINE
  8
TRMODEL1
  6
CONTINUOUS
 62
     7
  5
B43
 10
-0.707591
 20
1.552195
 30
0.0
 11
-0.772381
 21
1.554868
 31
0.0
  0
LINE
  8
TRMODEL1
  6
CONTINUOUS
 62
     7
  5
B44
 10
-0.772381
 20
1.554868
 30
0.0
 11
-0.837155
 21
1.557776
 31
0.0
  0
LINE
  8
TRMODEL1
  6
CONTINUOUS
 62
     7
  5
B45
 10
-0.837155
 20
1.557776
 30
0.0
 11
-0.90191
 21
1.560918
 31
0.0
  0
LINE
  8
TRMODEL1
  6
CONTINUOUS
 62
     7
  5
B46
 10
-0.90191
 20
1.560918
 30
0.0
 11
-0.966645
 21
1.564294
 31
0.0
  0
LINE
  8
TRMODEL1
  6
CONTINUOUS
 62
     7
  5
B47
 10
-0.966645
 20
1.564294
 30
0.0
 11
-1.031358
 21
1.567903
 31
0.0
  0
LINE
  8
TRMODEL1
  6
CONTINUOUS
 62
     7
  5
B48
 10
-1.031358
 20
1.567903
 30
0.0
 11
-1.096049
 21
1.571746
 31
0.0
  0
LINE
  8
TRMODEL1
  6
CONTINUOUS
 62
     7
  5
B49
 10
-1.096049
 20
1.571746
 30
0.0
 11
-1.160715
 21
1.575823
 31
0.0
  0
LINE
  8
TRMODEL1
  6
CONTINUOUS
 62
     7
  5
B4A
 10
-1.160715
 20
1.575823
 30
0.0
 11
-1.225355
 21
1.580134
 31
0.0
  0
LINE
  8
TRMODEL1
  6
CONTINUOUS
 62
     7
  5
B4B
 10
-1.225355
 20
1.580134
 30
0.0
 11
-1.289968
 21
1.584678
 31
0.0
  0
LINE
  8
TRMODEL1
  6
CONTINUOUS
 62
     7
  5
B4C
 10
-1.289968
 20
1.584678
 30
0.0
 11
-1.354552
 21
1.589455
 31
0.0
  0
LINE
  8
TRMODEL1
  6
CONTINUOUS
 62
     7
  5
B4D
 10
-1.354552
 20
1.589455
 30
0.0
 11
-1.419106
 21
1.594466
 31
0.0
  0
LINE
  8
TRMODEL1
  6
CONTINUOUS
 62
     7
  5
B4E
 10
-1.419106
 20
1.594466
 30
0.0
 11
-1.483629
 21
1.59971
 31
0.0
  0
LINE
  8
TRMODEL1
  6
CONTINUOUS
 62
     7
  5
B4F
 10
-1.483629
 20
1.59971
 30
0.0
 11
-1.548118
 21
1.605187
 31
0.0
  0
LINE
  8
TRMODEL1
  6
CONTINUOUS
 62
     7
  5
B50
 10
-1.548118
 20
1.605187
 30
0.0
 11
-1.612574
 21
1.610897
 31
0.0
  0
LINE
  8
TRMODEL1
  6
CONTINUOUS
 62
     7
  5
B51
 10
-1.612574
 20
1.610897
 30
0.0
 11
-1.676993
 21
1.61684
 31
0.0
  0
LINE
  8
TRMODEL1
  6
CONTINUOUS
 62
     7
  5
B52
 10
-1.676993
 20
1.61684
 30
0.0
 11
-1.741375
 21
1.623015
 31
0.0
  0
LINE
  8
TRMODEL1
  6
CONTINUOUS
 62
     7
  5
B53
 10
-1.741375
 20
1.623015
 30
0.0
 11
-1.805718
 21
1.629424
 31
0.0
  0
LINE
  8
TRMODEL1
  6
CONTINUOUS
 62
     7
  5
B54
 10
-1.805718
 20
1.629424
 30
0.0
 11
-1.870021
 21
1.636064
 31
0.0
  0
LINE
  8
TRMODEL1
  6
CONTINUOUS
 62
     7
  5
B55
 10
-1.870021
 20
1.636064
 30
0.0
 11
-1.934283
 21
1.642937
 31
0.0
  0
LINE
  8
TRMODEL1
  6
CONTINUOUS
 62
     7
  5
B56
 10
-1.934283
 20
1.642937
 30
0.0
 11
-1.998501
 21
1.650041
 31
0.0
  0
LINE
  8
TRMODEL1
  6
CONTINUOUS
 62
     7
  5
B57
 10
-1.998501
 20
1.650041
 30
0.0
 11
-2.062675
 21
1.657378
 31
0.0
  0
LINE
  8
TRMODEL1
  6
CONTINUOUS
 62
     7
  5
B58
 10
-2.062675
 20
1.657378
 30
0.0
 11
-2.126803
 21
1.664947
 31
0.0
  0
LINE
  8
TRMODEL1
  6
CONTINUOUS
 62
     7
  5
B59
 10
-2.126803
 20
1.664947
 30
0.0
 11
-2.190884
 21
1.672747
 31
0.0
  0
LINE
  8
TRMODEL1
  6
CONTINUOUS
 62
     7
  5
B5A
 10
-2.190884
 20
1.672747
 30
0.0
 11
-2.254916
 21
1.680779
 31
0.0
  0
LINE
  8
TRMODEL1
  6
CONTINUOUS
 62
     7
  5
B5B
 10
-2.254916
 20
1.680779
 30
0.0
 11
-2.318898
 21
1.689041
 31
0.0
  0
LINE
  8
TRMODEL1
  6
CONTINUOUS
 62
     7
  5
B5C
 10
2.318898
 20
1.727001
 30
0.0
 11
2.254916
 21
1.718738
 31
0.0
  0
LINE
  8
TRMODEL1
  6
CONTINUOUS
 62
     7
  5
B5D
 10
2.254916
 20
1.718738
 30
0.0
 11
2.190884
 21
1.710707
 31
0.0
  0
LINE
  8
TRMODEL1
  6
CONTINUOUS
 62
     7
  5
B5E
 10
2.190884
 20
1.710707
 30
0.0
 11
2.126803
 21
1.702907
 31
0.0
  0
LINE
  8
TRMODEL1
  6
CONTINUOUS
 62
     7
  5
B5F
 10
2.126803
 20
1.702907
 30
0.0
 11
2.062675
 21
1.695338
 31
0.0
  0
LINE
  8
TRMODEL1
  6
CONTINUOUS
 62
     7
  5
B60
 10
2.062675
 20
1.695338
 30
0.0
 11
1.998501
 21
1.688001
 31
0.0
  0
LINE
  8
TRMODEL1
  6
CONTINUOUS
 62
     7
  5
B61
 10
1.998501
 20
1.688001
 30
0.0
 11
1.934283
 21
1.680897
 31
0.0
  0
LINE
  8
TRMODEL1
  6
CONTINUOUS
 62
     7
  5
B62
 10
1.934283
 20
1.680897
 30
0.0
 11
1.870021
 21
1.674024
 31
0.0
  0
LINE
  8
TRMODEL1
  6
CONTINUOUS
 62
     7
  5
B63
 10
1.870021
 20
1.674024
 30
0.0
 11
1.805718
 21
1.667383
 31
0.0
  0
LINE
  8
TRMODEL1
  6
CONTINUOUS
 62
     7
  5
B64
 10
1.805718
 20
1.667383
 30
0.0
 11
1.741375
 21
1.660975
 31
0.0
  0
LINE
  8
TRMODEL1
  6
CONTINUOUS
 62
     7
  5
B65
 10
1.741375
 20
1.660975
 30
0.0
 11
1.676993
 21
1.6548
 31
0.0
  0
LINE
  8
TRMODEL1
  6
CONTINUOUS
 62
     7
  5
B66
 10
1.676993
 20
1.6548
 30
0.0
 11
1.612574
 21
1.648857
 31
0.0
  0
LINE
  8
TRMODEL1
  6
CONTINUOUS
 62
     7
  5
B67
 10
1.612574
 20
1.648857
 30
0.0
 11
1.548118
 21
1.643147
 31
0.0
  0
LINE
  8
TRMODEL1
  6
CONTINUOUS
 62
     7
  5
B68
 10
1.548118
 20
1.643147
 30
0.0
 11
1.483629
 21
1.63767
 31
0.0
  0
LINE
  8
TRMODEL1
  6
CONTINUOUS
 62
     7
  5
B69
 10
1.483629
 20
1.63767
 30
0.0
 11
1.419106
 21
1.632426
 31
0.0
  0
LINE
  8
TRMODEL1
  6
CONTINUOUS
 62
     7
  5
B6A
 10
1.419106
 20
1.632426
 30
0.0
 11
1.354552
 21
1.627415
 31
0.0
  0
LINE
  8
TRMODEL1
  6
CONTINUOUS
 62
     7
  5
B6B
 10
1.354552
 20
1.627415
 30
0.0
 11
1.289968
 21
1.622638
 31
0.0
  0
LINE
  8
TRMODEL1
  6
CONTINUOUS
 62
     7
  5
B6C
 10
1.289968
 20
1.622638
 30
0.0
 11
1.225355
 21
1.618094
 31
0.0
  0
LINE
  8
TRMODEL1
  6
CONTINUOUS
 62
     7
  5
B6D
 10
1.225355
 20
1.618094
 30
0.0
 11
1.160715
 21
1.613783
 31
0.0
  0
LINE
  8
TRMODEL1
  6
CONTINUOUS
 62
     7
  5
B6E
 10
1.160715
 20
1.613783
 30
0.0
 11
1.096049
 21
1.609706
 31
0.0
  0
LINE
  8
TRMODEL1
  6
CONTINUOUS
 62
     7
  5
B6F
 10
1.096049
 20
1.609706
 30
0.0
 11
1.031358
 21
1.605863
 31
0.0
  0
LINE
  8
TRMODEL1
  6
CONTINUOUS
 62
     7
  5
B70
 10
1.031358
 20
1.605863
 30
0.0
 11
0.966645
 21
1.602253
 31
0.0
  0
LINE
  8
TRMODEL1
  6
CONTINUOUS
 62
     7
  5
B71
 10
0.966645
 20
1.602253
 30
0.0
 11
0.90191
 21
1.598878
 31
0.0
  0
LINE
  8
TRMODEL1
  6
CONTINUOUS
 62
     7
  5
B72
 10
0.90191
 20
1.598878
 30
0.0
 11
0.837155
 21
1.595736
 31
0.0
  0
LINE
  8
TRMODEL1
  6
CONTINUOUS
 62
     7
  5
B73
 10
0.837155
 20
1.595736
 30
0.0
 11
0.772381
 21
1.592828
 31
0.0
  0
LINE
  8
TRMODEL1
  6
CONTINUOUS
 62
     7
  5
B74
 10
0.772381
 20
1.592828
 30
0.0
 11
0.707591
 21
1.590155
 31
0.0
  0
LINE
  8
TRMODEL1
  6
CONTINUOUS
 62
     7
  5
B75
 10
0.707591
 20
1.590155
 30
0.0
 11
0.642784
 21
1.587715
 31
0.0
  0
LINE
  8
TRMODEL1
  6
CONTINUOUS
 62
     7
  5
B76
 10
0.642784
 20
1.587715
 30
0.0
 11
0.577963
 21
1.58551
 31
0.0
  0
LINE
  8
TRMODEL1
  6
CONTINUOUS
 62
     7
  5
B77
 10
0.577963
 20
1.58551
 30
0.0
 11
0.51313
 21
1.583539
 31
0.0
  0
LINE
  8
TRMODEL1
  6
CONTINUOUS
 62
     7
  5
B78
 10
0.51313
 20
1.583539
 30
0.0
 11
0.448285
 21
1.581802
 31
0.0
  0
LINE
  8
TRMODEL1
  6
CONTINUOUS
 62
     7
  5
B79
 10
0.448285
 20
1.581802
 30
0.0
 11
0.383429
 21
1.580299
 31
0.0
  0
LINE
  8
TRMODEL1
  6
CONTINUOUS
 62
     7
  5
B7A
 10
0.383429
 20
1.580299
 30
0.0
 11
0.318566
 21
1.579031
 31
0.0
  0
LINE
  8
TRMODEL1
  6
CONTINUOUS
 62
     7
  5
B7B
 10
0.318566
 20
1.579031
 30
0.0
 11
0.253695
 21
1.577997
 31
0.0
  0
LINE
  8
TRMODEL1
  6
CONTINUOUS
 62
     7
  5
B7C
 10
0.253695
 20
1.577997
 30
0.0
 11
0.188819
 21
1.577198
 31
0.0
  0
LINE
  8
TRMODEL1
  6
CONTINUOUS
 62
     7
  5
B7D
 10
0.188819
 20
1.577198
 30
0.0
 11
0.123938
 21
1.576633
 31
0.0
  0
LINE
  8
TRMODEL1
  6
CONTINUOUS
 62
     7
  5
B7E
 10
0.123938
 20
1.576633
 30
0.0
 11
0.059055
 21
1.576302
 31
0.0
  0
LINE
  8
TRMODEL1
  6
CONTINUOUS
 62
     7
  5
B7F
 10
-0.059055
 20
1.576302
 30
0.0
 11
-0.123938
 21
1.576633
 31
0.0
  0
LINE
  8
TRMODEL1
  6
CONTINUOUS
 62
     7
  5
B80
 10
-0.123938
 20
1.576633
 30
0.0
 11
-0.188819
 21
1.577198
 31
0.0
  0
LINE
  8
TRMODEL1
  6
CONTINUOUS
 62
     7
  5
B81
 10
-0.188819
 20
1.577198
 30
0.0
 11
-0.253695
 21
1.577997
 31
0.0
  0
LINE
  8
TRMODEL1
  6
CONTINUOUS
 62
     7
  5
B82
 10
-0.253695
 20
1.577997
 30
0.0
 11
-0.318566
 21
1.579031
 31
0.0
  0
LINE
  8
TRMODEL1
  6
CONTINUOUS
 62
     7
  5
B83
 10
-0.318566
 20
1.579031
 30
0.0
 11
-0.383429
 21
1.580299
 31
0.0
  0
LINE
  8
TRMODEL1
  6
CONTINUOUS
 62
     7
  5
B84
 10
-0.383429
 20
1.580299
 30
0.0
 11
-0.448285
 21
1.581802
 31
0.0
  0
LINE
  8
TRMODEL1
  6
CONTINUOUS
 62
     7
  5
B85
 10
-0.448285
 20
1.581802
 30
0.0
 11
-0.51313
 21
1.583539
 31
0.0
  0
LINE
  8
TRMODEL1
  6
CONTINUOUS
 62
     7
  5
B86
 10
-0.51313
 20
1.583539
 30
0.0
 11
-0.577963
 21
1.58551
 31
0.0
  0
LINE
  8
TRMODEL1
  6
CONTINUOUS
 62
     7
  5
B87
 10
-0.577963
 20
1.58551
 30
0.0
 11
-0.642784
 21
1.587715
 31
0.0
  0
LINE
  8
TRMODEL1
  6
CONTINUOUS
 62
     7
  5
B88
 10
-0.642784
 20
1.587715
 30
0.0
 11
-0.707591
 21
1.590155
 31
0.0
  0
LINE
  8
TRMODEL1
  6
CONTINUOUS
 62
     7
  5
B89
 10
-0.707591
 20
1.590155
 30
0.0
 11
-0.772381
 21
1.592828
 31
0.0
  0
LINE
  8
TRMODEL1
  6
CONTINUOUS
 62
     7
  5
B8A
 10
-0.772381
 20
1.592828
 30
0.0
 11
-0.837155
 21
1.595736
 31
0.0
  0
LINE
  8
TRMODEL1
  6
CONTINUOUS
 62
     7
  5
B8B
 10
-0.837155
 20
1.595736
 30
0.0
 11
-0.90191
 21
1.598878
 31
0.0
  0
LINE
  8
TRMODEL1
  6
CONTINUOUS
 62
     7
  5
B8C
 10
-0.90191
 20
1.598878
 30
0.0
 11
-0.966645
 21
1.602253
 31
0.0
  0
LINE
  8
TRMODEL1
  6
CONTINUOUS
 62
     7
  5
B8D
 10
-0.966645
 20
1.602253
 30
0.0
 11
-1.031358
 21
1.605863
 31
0.0
  0
LINE
  8
TRMODEL1
  6
CONTINUOUS
 62
     7
  5
B8E
 10
-1.031358
 20
1.605863
 30
0.0
 11
-1.096049
 21
1.609706
 31
0.0
  0
LINE
  8
TRMODEL1
  6
CONTINUOUS
 62
     7
  5
B8F
 10
-1.096049
 20
1.609706
 30
0.0
 11
-1.160715
 21
1.613783
 31
0.0
  0
LINE
  8
TRMODEL1
  6
CONTINUOUS
 62
     7
  5
B90
 10
-1.160715
 20
1.613783
 30
0.0
 11
-1.225355
 21
1.618094
 31
0.0
  0
LINE
  8
TRMODEL1
  6
CONTINUOUS
 62
     7
  5
B91
 10
-1.225355
 20
1.618094
 30
0.0
 11
-1.289968
 21
1.622638
 31
0.0
  0
LINE
  8
TRMODEL1
  6
CONTINUOUS
 62
     7
  5
B92
 10
-1.289968
 20
1.622638
 30
0.0
 11
-1.354552
 21
1.627415
 31
0.0
  0
LINE
  8
TRMODEL1
  6
CONTINUOUS
 62
     7
  5
B93
 10
-1.354552
 20
1.627415
 30
0.0
 11
-1.419106
 21
1.632426
 31
0.0
  0
LINE
  8
TRMODEL1
  6
CONTINUOUS
 62
     7
  5
B94
 10
-1.419106
 20
1.632426
 30
0.0
 11
-1.483629
 21
1.63767
 31
0.0
  0
LINE
  8
TRMODEL1
  6
CONTINUOUS
 62
     7
  5
B95
 10
-1.483629
 20
1.63767
 30
0.0
 11
-1.548118
 21
1.643147
 31
0.0
  0
LINE
  8
TRMODEL1
  6
CONTINUOUS
 62
     7
  5
B96
 10
-1.548118
 20
1.643147
 30
0.0
 11
-1.612574
 21
1.648857
 31
0.0
  0
LINE
  8
TRMODEL1
  6
CONTINUOUS
 62
     7
  5
B97
 10
-1.612574
 20
1.648857
 30
0.0
 11
-1.676993
 21
1.6548
 31
0.0
  0
LINE
  8
TRMODEL1
  6
CONTINUOUS
 62
     7
  5
B98
 10
-1.676993
 20
1.6548
 30
0.0
 11
-1.741375
 21
1.660975
 31
0.0
  0
LINE
  8
TRMODEL1
  6
CONTINUOUS
 62
     7
  5
B99
 10
-1.741375
 20
1.660975
 30
0.0
 11
-1.805718
 21
1.667383
 31
0.0
  0
LINE
  8
TRMODEL1
  6
CONTINUOUS
 62
     7
  5
B9A
 10
-1.805718
 20
1.667383
 30
0.0
 11
-1.870021
 21
1.674024
 31
0.0
  0
LINE
  8
TRMODEL1
  6
CONTINUOUS
 62
     7
  5
B9B
 10
-1.870021
 20
1.674024
 30
0.0
 11
-1.934283
 21
1.680897
 31
0.0
  0
LINE
  8
TRMODEL1
  6
CONTINUOUS
 62
     7
  5
B9C
 10
-1.934283
 20
1.680897
 30
0.0
 11
-1.998501
 21
1.688001
 31
0.0
  0
LINE
  8
TRMODEL1
  6
CONTINUOUS
 62
     7
  5
B9D
 10
-1.998501
 20
1.688001
 30
0.0
 11
-2.062675
 21
1.695338
 31
0.0
  0
LINE
  8
TRMODEL1
  6
CONTINUOUS
 62
     7
  5
B9E
 10
-2.062675
 20
1.695338
 30
0.0
 11
-2.126803
 21
1.702907
 31
0.0
  0
LINE
  8
TRMODEL1
  6
CONTINUOUS
 62
     7
  5
B9F
 10
-2.126803
 20
1.702907
 30
0.0
 11
-2.190884
 21
1.710707
 31
0.0
  0
LINE
  8
TRMODEL1
  6
CONTINUOUS
 62
     7
  5
BA0
 10
-2.190884
 20
1.710707
 30
0.0
 11
-2.254916
 21
1.718738
 31
0.0
  0
LINE
  8
TRMODEL1
  6
CONTINUOUS
 62
     7
  5
BA1
 10
-2.254916
 20
1.718738
 30
0.0
 11
-2.318898
 21
1.727001
 31
0.0
  0
LINE
  8
TRMODEL1
  6
CONTINUOUS
 62
     7
  5
BA2
 10
0.059055
 20
2.179487
 30
0.0
 11
0.121393
 21
2.1798
 31
0.0
  0
LINE
  8
TRMODEL1
  6
CONTINUOUS
 62
     7
  5
BA3
 10
0.121393
 20
2.1798
 30
0.0
 11
0.183728
 21
2.18033
 31
0.0
  0
LINE
  8
TRMODEL1
  6
CONTINUOUS
 62
     7
  5
BA4
 10
0.183728
 20
2.18033
 30
0.0
 11
0.246059
 21
2.181076
 31
0.0
  0
LINE
  8
TRMODEL1
  6
CONTINUOUS
 62
     7
  5
BA5
 10
0.246059
 20
2.181076
 30
0.0
 11
0.308385
 21
2.182038
 31
0.0
  0
LINE
  8
TRMODEL1
  6
CONTINUOUS
 62
     7
  5
BA6
 10
0.308385
 20
2.182038
 30
0.0
 11
0.370705
 21
2.183217
 31
0.0
  0
LINE
  8
TRMODEL1
  6
CONTINUOUS
 62
     7
  5
BA7
 10
0.370705
 20
2.183217
 30
0.0
 11
0.433017
 21
2.184612
 31
0.0
  0
LINE
  8
TRMODEL1
  6
CONTINUOUS
 62
     7
  5
BA8
 10
0.433017
 20
2.184612
 30
0.0
 11
0.49532
 21
2.186223
 31
0.0
  0
LINE
  8
TRMODEL1
  6
CONTINUOUS
 62
     7
  5
BA9
 10
0.49532
 20
2.186223
 30
0.0
 11
0.557613
 21
2.18805
 31
0.0
  0
LINE
  8
TRMODEL1
  6
CONTINUOUS
 62
     7
  5
BAA
 10
0.557613
 20
2.18805
 30
0.0
 11
0.619895
 21
2.190094
 31
0.0
  0
LINE
  8
TRMODEL1
  6
CONTINUOUS
 62
     7
  5
BAB
 10
0.619895
 20
2.190094
 30
0.0
 11
0.682164
 21
2.192354
 31
0.0
  0
LINE
  8
TRMODEL1
  6
CONTINUOUS
 62
     7
  5
BAC
 10
0.682164
 20
2.192354
 30
0.0
 11
0.744419
 21
2.19483
 31
0.0
  0
LINE
  8
TRMODEL1
  6
CONTINUOUS
 62
     7
  5
BAD
 10
0.744419
 20
2.19483
 30
0.0
 11
0.806658
 21
2.197522
 31
0.0
  0
LINE
  8
TRMODEL1
  6
CONTINUOUS
 62
     7
  5
BAE
 10
0.806658
 20
2.197522
 30
0.0
 11
0.868882
 21
2.200431
 31
0.0
  0
LINE
  8
TRMODEL1
  6
CONTINUOUS
 62
     7
  5
BAF
 10
0.868882
 20
2.200431
 30
0.0
 11
0.931087
 21
2.203555
 31
0.0
  0
LINE
  8
TRMODEL1
  6
CONTINUOUS
 62
     7
  5
BB0
 10
0.931087
 20
2.203555
 30
0.0
 11
0.993273
 21
2.206895
 31
0.0
  0
LINE
  8
TRMODEL1
  6
CONTINUOUS
 62
     7
  5
BB1
 10
0.993273
 20
2.206895
 30
0.0
 11
1.055439
 21
2.210451
 31
0.0
  0
LINE
  8
TRMODEL1
  6
CONTINUOUS
 62
     7
  5
BB2
 10
1.055439
 20
2.210451
 30
0.0
 11
1.117583
 21
2.214222
 31
0.0
  0
LINE
  8
TRMODEL1
  6
CONTINUOUS
 62
     7
  5
BB3
 10
1.117583
 20
2.214222
 30
0.0
 11
1.179704
 21
2.21821
 31
0.0
  0
LINE
  8
TRMODEL1
  6
CONTINUOUS
 62
     7
  5
BB4
 10
1.179704
 20
2.21821
 30
0.0
 11
1.241801
 21
2.222413
 31
0.0
  0
LINE
  8
TRMODEL1
  6
CONTINUOUS
 62
     7
  5
BB5
 10
1.241801
 20
2.222413
 30
0.0
 11
1.303872
 21
2.226831
 31
0.0
  0
LINE
  8
TRMODEL1
  6
CONTINUOUS
 62
     7
  5
BB6
 10
1.303872
 20
2.226831
 30
0.0
 11
1.365917
 21
2.231465
 31
0.0
  0
LINE
  8
TRMODEL1
  6
CONTINUOUS
 62
     7
  5
BB7
 10
1.365917
 20
2.231465
 30
0.0
 11
1.427933
 21
2.236314
 31
0.0
  0
LINE
  8
TRMODEL1
  6
CONTINUOUS
 62
     7
  5
BB8
 10
1.427933
 20
2.236314
 30
0.0
 11
1.48992
 21
2.241379
 31
0.0
  0
LINE
  8
TRMODEL1
  6
CONTINUOUS
 62
     7
  5
BB9
 10
1.48992
 20
2.241379
 30
0.0
 11
1.551877
 21
2.246658
 31
0.0
  0
LINE
  8
TRMODEL1
  6
CONTINUOUS
 62
     7
  5
BBA
 10
1.551877
 20
2.246658
 30
0.0
 11
1.613802
 21
2.252153
 31
0.0
  0
LINE
  8
TRMODEL1
  6
CONTINUOUS
 62
     7
  5
BBB
 10
1.613802
 20
2.252153
 30
0.0
 11
1.675694
 21
2.257862
 31
0.0
  0
LINE
  8
TRMODEL1
  6
CONTINUOUS
 62
     7
  5
BBC
 10
1.675694
 20
2.257862
 30
0.0
 11
1.737551
 21
2.263787
 31
0.0
  0
LINE
  8
TRMODEL1
  6
CONTINUOUS
 62
     7
  5
BBD
 10
1.737551
 20
2.263787
 30
0.0
 11
1.799372
 21
2.269926
 31
0.0
  0
LINE
  8
TRMODEL1
  6
CONTINUOUS
 62
     7
  5
BBE
 10
1.799372
 20
2.269926
 30
0.0
 11
1.861157
 21
2.276279
 31
0.0
  0
LINE
  8
TRMODEL1
  6
CONTINUOUS
 62
     7
  5
BBF
 10
1.861157
 20
2.276279
 30
0.0
 11
1.922903
 21
2.282847
 31
0.0
  0
LINE
  8
TRMODEL1
  6
CONTINUOUS
 62
     7
  5
BC0
 10
1.922903
 20
2.282847
 30
0.0
 11
1.98461
 21
2.289629
 31
0.0
  0
LINE
  8
TRMODEL1
  6
CONTINUOUS
 62
     7
  5
BC1
 10
1.98461
 20
2.289629
 30
0.0
 11
2.046276
 21
2.296625
 31
0.0
  0
LINE
  8
TRMODEL1
  6
CONTINUOUS
 62
     7
  5
BC2
 10
2.046276
 20
2.296625
 30
0.0
 11
2.1079
 21
2.303836
 31
0.0
  0
LINE
  8
TRMODEL1
  6
CONTINUOUS
 62
     7
  5
BC3
 10
2.1079
 20
2.303836
 30
0.0
 11
2.169481
 21
2.31126
 31
0.0
  0
LINE
  8
TRMODEL1
  6
CONTINUOUS
 62
     7
  5
BC4
 10
2.169481
 20
2.31126
 30
0.0
 11
2.231018
 21
2.318898
 31
0.0
  0
LINE
  8
TRMODEL1
  6
CONTINUOUS
 62
     7
  5
BC5
 10
-2.231018
 20
2.318898
 30
0.0
 11
-2.169481
 21
2.31126
 31
0.0
  0
LINE
  8
TRMODEL1
  6
CONTINUOUS
 62
     7
  5
BC6
 10
-2.169481
 20
2.31126
 30
0.0
 11
-2.1079
 21
2.303836
 31
0.0
  0
LINE
  8
TRMODEL1
  6
CONTINUOUS
 62
     7
  5
BC7
 10
-2.1079
 20
2.303836
 30
0.0
 11
-2.046276
 21
2.296625
 31
0.0
  0
LINE
  8
TRMODEL1
  6
CONTINUOUS
 62
     7
  5
BC8
 10
-2.046276
 20
2.296625
 30
0.0
 11
-1.98461
 21
2.289629
 31
0.0
  0
LINE
  8
TRMODEL1
  6
CONTINUOUS
 62
     7
  5
BC9
 10
-1.98461
 20
2.289629
 30
0.0
 11
-1.922903
 21
2.282847
 31
0.0
  0
LINE
  8
TRMODEL1
  6
CONTINUOUS
 62
     7
  5
BCA
 10
-1.922903
 20
2.282847
 30
0.0
 11
-1.861157
 21
2.276279
 31
0.0
  0
LINE
  8
TRMODEL1
  6
CONTINUOUS
 62
     7
  5
BCB
 10
-1.861157
 20
2.276279
 30
0.0
 11
-1.799372
 21
2.269926
 31
0.0
  0
LINE
  8
TRMODEL1
  6
CONTINUOUS
 62
     7
  5
BCC
 10
-1.799372
 20
2.269926
 30
0.0
 11
-1.737551
 21
2.263787
 31
0.0
  0
LINE
  8
TRMODEL1
  6
CONTINUOUS
 62
     7
  5
BCD
 10
-1.737551
 20
2.263787
 30
0.0
 11
-1.675694
 21
2.257862
 31
0.0
  0
LINE
  8
TRMODEL1
  6
CONTINUOUS
 62
     7
  5
BCE
 10
-1.675694
 20
2.257862
 30
0.0
 11
-1.613802
 21
2.252153
 31
0.0
  0
LINE
  8
TRMODEL1
  6
CONTINUOUS
 62
     7
  5
BCF
 10
-1.613802
 20
2.252153
 30
0.0
 11
-1.551877
 21
2.246658
 31
0.0
  0
LINE
  8
TRMODEL1
  6
CONTINUOUS
 62
     7
  5
BD0
 10
-1.551877
 20
2.246658
 30
0.0
 11
-1.48992
 21
2.241379
 31
0.0
  0
LINE
  8
TRMODEL1
  6
CONTINUOUS
 62
     7
  5
BD1
 10
-1.48992
 20
2.241379
 30
0.0
 11
-1.427933
 21
2.236314
 31
0.0
  0
LINE
  8
TRMODEL1
  6
CONTINUOUS
 62
     7
  5
BD2
 10
-1.427933
 20
2.236314
 30
0.0
 11
-1.365917
 21
2.231465
 31
0.0
  0
LINE
  8
TRMODEL1
  6
CONTINUOUS
 62
     7
  5
BD3
 10
-1.365917
 20
2.231465
 30
0.0
 11
-1.303872
 21
2.226831
 31
0.0
  0
LINE
  8
TRMODEL1
  6
CONTINUOUS
 62
     7
  5
BD4
 10
-1.303872
 20
2.226831
 30
0.0
 11
-1.241801
 21
2.222413
 31
0.0
  0
LINE
  8
TRMODEL1
  6
CONTINUOUS
 62
     7
  5
BD5
 10
-1.241801
 20
2.222413
 30
0.0
 11
-1.179704
 21
2.21821
 31
0.0
  0
LINE
  8
TRMODEL1
  6
CONTINUOUS
 62
     7
  5
BD6
 10
-1.179704
 20
2.21821
 30
0.0
 11
-1.117583
 21
2.214222
 31
0.0
  0
LINE
  8
TRMODEL1
  6
CONTINUOUS
 62
     7
  5
BD7
 10
-1.117583
 20
2.214222
 30
0.0
 11
-1.055439
 21
2.210451
 31
0.0
  0
LINE
  8
TRMODEL1
  6
CONTINUOUS
 62
     7
  5
BD8
 10
-1.055439
 20
2.210451
 30
0.0
 11
-0.993273
 21
2.206895
 31
0.0
  0
LINE
  8
TRMODEL1
  6
CONTINUOUS
 62
     7
  5
BD9
 10
-0.993273
 20
2.206895
 30
0.0
 11
-0.931087
 21
2.203555
 31
0.0
  0
LINE
  8
TRMODEL1
  6
CONTINUOUS
 62
     7
  5
BDA
 10
-0.931087
 20
2.203555
 30
0.0
 11
-0.868882
 21
2.200431
 31
0.0
  0
LINE
  8
TRMODEL1
  6
CONTINUOUS
 62
     7
  5
BDB
 10
-0.868882
 20
2.200431
 30
0.0
 11
-0.806658
 21
2.197522
 31
0.0
  0
LINE
  8
TRMODEL1
  6
CONTINUOUS
 62
     7
  5
BDC
 10
-0.806658
 20
2.197522
 30
0.0
 11
-0.744419
 21
2.19483
 31
0.0
  0
LINE
  8
TRMODEL1
  6
CONTINUOUS
 62
     7
  5
BDD
 10
-0.744419
 20
2.19483
 30
0.0
 11
-0.682164
 21
2.192354
 31
0.0
  0
LINE
  8
TRMODEL1
  6
CONTINUOUS
 62
     7
  5
BDE
 10
-0.682164
 20
2.192354
 30
0.0
 11
-0.619895
 21
2.190094
 31
0.0
  0
LINE
  8
TRMODEL1
  6
CONTINUOUS
 62
     7
  5
BDF
 10
-0.619895
 20
2.190094
 30
0.0
 11
-0.557613
 21
2.18805
 31
0.0
  0
LINE
  8
TRMODEL1
  6
CONTINUOUS
 62
     7
  5
BE0
 10
-0.557613
 20
2.18805
 30
0.0
 11
-0.49532
 21
2.186223
 31
0.0
  0
LINE
  8
TRMODEL1
  6
CONTINUOUS
 62
     7
  5
BE1
 10
-0.49532
 20
2.186223
 30
0.0
 11
-0.433017
 21
2.184612
 31
0.0
  0
LINE
  8
TRMODEL1
  6
CONTINUOUS
 62
     7
  5
BE2
 10
-0.433017
 20
2.184612
 30
0.0
 11
-0.370705
 21
2.183217
 31
0.0
  0
LINE
  8
TRMODEL1
  6
CONTINUOUS
 62
     7
  5
BE3
 10
-0.370705
 20
2.183217
 30
0.0
 11
-0.308385
 21
2.182038
 31
0.0
  0
LINE
  8
TRMODEL1
  6
CONTINUOUS
 62
     7
  5
BE4
 10
-0.308385
 20
2.182038
 30
0.0
 11
-0.246059
 21
2.181076
 31
0.0
  0
LINE
  8
TRMODEL1
  6
CONTINUOUS
 62
     7
  5
BE5
 10
-0.246059
 20
2.181076
 30
0.0
 11
-0.183728
 21
2.18033
 31
0.0
  0
LINE
  8
TRMODEL1
  6
CONTINUOUS
 62
     7
  5
BE6
 10
-0.183728
 20
2.18033
 30
0.0
 11
-0.121393
 21
2.1798
 31
0.0
  0
LINE
  8
TRMODEL1
  6
CONTINUOUS
 62
     7
  5
BE7
 10
-0.121393
 20
2.1798
 30
0.0
 11
-0.059055
 21
2.179487
 31
0.0
  0
LINE
  8
TRMODEL1
  6
CONTINUOUS
 62
     7
  5
BE8
 10
2.318898
 20
2.351584
 30
0.0
 11
2.254916
 21
2.343321
 31
0.0
  0
LINE
  8
TRMODEL1
  6
CONTINUOUS
 62
     7
  5
BE9
 10
2.254916
 20
2.343321
 30
0.0
 11
2.190884
 21
2.335289
 31
0.0
  0
LINE
  8
TRMODEL1
  6
CONTINUOUS
 62
     7
  5
BEA
 10
2.190884
 20
2.335289
 30
0.0
 11
2.126803
 21
2.327489
 31
0.0
  0
LINE
  8
TRMODEL1
  6
CONTINUOUS
 62
     7
  5
BEB
 10
2.126803
 20
2.327489
 30
0.0
 11
2.062675
 21
2.31992
 31
0.0
  0
LINE
  8
TRMODEL1
  6
CONTINUOUS
 62
     7
  5
BEC
 10
2.062675
 20
2.31992
 30
0.0
 11
1.998501
 21
2.312584
 31
0.0
  0
LINE
  8
TRMODEL1
  6
CONTINUOUS
 62
     7
  5
BED
 10
1.998501
 20
2.312584
 30
0.0
 11
1.934283
 21
2.305479
 31
0.0
  0
LINE
  8
TRMODEL1
  6
CONTINUOUS
 62
     7
  5
BEE
 10
1.934283
 20
2.305479
 30
0.0
 11
1.870021
 21
2.298606
 31
0.0
  0
LINE
  8
TRMODEL1
  6
CONTINUOUS
 62
     7
  5
BEF
 10
1.870021
 20
2.298606
 30
0.0
 11
1.805718
 21
2.291966
 31
0.0
  0
LINE
  8
TRMODEL1
  6
CONTINUOUS
 62
     7
  5
BF0
 10
1.805718
 20
2.291966
 30
0.0
 11
1.741375
 21
2.285558
 31
0.0
  0
LINE
  8
TRMODEL1
  6
CONTINUOUS
 62
     7
  5
BF1
 10
1.741375
 20
2.285558
 30
0.0
 11
1.676993
 21
2.279382
 31
0.0
  0
LINE
  8
TRMODEL1
  6
CONTINUOUS
 62
     7
  5
BF2
 10
1.676993
 20
2.279382
 30
0.0
 11
1.612574
 21
2.273439
 31
0.0
  0
LINE
  8
TRMODEL1
  6
CONTINUOUS
 62
     7
  5
BF3
 10
1.612574
 20
2.273439
 30
0.0
 11
1.548118
 21
2.267729
 31
0.0
  0
LINE
  8
TRMODEL1
  6
CONTINUOUS
 62
     7
  5
BF4
 10
1.548118
 20
2.267729
 30
0.0
 11
1.483629
 21
2.262252
 31
0.0
  0
LINE
  8
TRMODEL1
  6
CONTINUOUS
 62
     7
  5
BF5
 10
1.483629
 20
2.262252
 30
0.0
 11
1.419106
 21
2.257008
 31
0.0
  0
LINE
  8
TRMODEL1
  6
CONTINUOUS
 62
     7
  5
BF6
 10
1.419106
 20
2.257008
 30
0.0
 11
1.354552
 21
2.251998
 31
0.0
  0
LINE
  8
TRMODEL1
  6
CONTINUOUS
 62
     7
  5
BF7
 10
1.354552
 20
2.251998
 30
0.0
 11
1.289968
 21
2.24722
 31
0.0
  0
LINE
  8
TRMODEL1
  6
CONTINUOUS
 62
     7
  5
BF8
 10
1.289968
 20
2.24722
 30
0.0
 11
1.225355
 21
2.242676
 31
0.0
  0
LINE
  8
TRMODEL1
  6
CONTINUOUS
 62
     7
  5
BF9
 10
1.225355
 20
2.242676
 30
0.0
 11
1.160715
 21
2.238365
 31
0.0
  0
LINE
  8
TRMODEL1
  6
CONTINUOUS
 62
     7
  5
BFA
 10
1.160715
 20
2.238365
 30
0.0
 11
1.096049
 21
2.234289
 31
0.0
  0
LINE
  8
TRMODEL1
  6
CONTINUOUS
 62
     7
  5
BFB
 10
1.096049
 20
2.234289
 30
0.0
 11
1.031358
 21
2.230445
 31
0.0
  0
LINE
  8
TRMODEL1
  6
CONTINUOUS
 62
     7
  5
BFC
 10
1.031358
 20
2.230445
 30
0.0
 11
0.966645
 21
2.226836
 31
0.0
  0
LINE
  8
TRMODEL1
  6
CONTINUOUS
 62
     7
  5
BFD
 10
0.966645
 20
2.226836
 30
0.0
 11
0.90191
 21
2.22346
 31
0.0
  0
LINE
  8
TRMODEL1
  6
CONTINUOUS
 62
     7
  5
BFE
 10
0.90191
 20
2.22346
 30
0.0
 11
0.837155
 21
2.220318
 31
0.0
  0
LINE
  8
TRMODEL1
  6
CONTINUOUS
 62
     7
  5
BFF
 10
0.837155
 20
2.220318
 30
0.0
 11
0.772381
 21
2.217411
 31
0.0
  0
LINE
  8
TRMODEL1
  6
CONTINUOUS
 62
     7
  5
C00
 10
0.772381
 20
2.217411
 30
0.0
 11
0.707591
 21
2.214737
 31
0.0
  0
LINE
  8
TRMODEL1
  6
CONTINUOUS
 62
     7
  5
C01
 10
0.707591
 20
2.214737
 30
0.0
 11
0.642784
 21
2.212297
 31
0.0
  0
LINE
  8
TRMODEL1
  6
CONTINUOUS
 62
     7
  5
C02
 10
0.642784
 20
2.212297
 30
0.0
 11
0.577963
 21
2.210092
 31
0.0
  0
LINE
  8
TRMODEL1
  6
CONTINUOUS
 62
     7
  5
C03
 10
0.577963
 20
2.210092
 30
0.0
 11
0.51313
 21
2.208121
 31
0.0
  0
LINE
  8
TRMODEL1
  6
CONTINUOUS
 62
     7
  5
C04
 10
0.51313
 20
2.208121
 30
0.0
 11
0.448285
 21
2.206384
 31
0.0
  0
LINE
  8
TRMODEL1
  6
CONTINUOUS
 62
     7
  5
C05
 10
0.448285
 20
2.206384
 30
0.0
 11
0.383429
 21
2.204882
 31
0.0
  0
LINE
  8
TRMODEL1
  6
CONTINUOUS
 62
     7
  5
C06
 10
0.383429
 20
2.204882
 30
0.0
 11
0.318566
 21
2.203613
 31
0.0
  0
LINE
  8
TRMODEL1
  6
CONTINUOUS
 62
     7
  5
C07
 10
0.318566
 20
2.203613
 30
0.0
 11
0.253695
 21
2.20258
 31
0.0
  0
LINE
  8
TRMODEL1
  6
CONTINUOUS
 62
     7
  5
C08
 10
0.253695
 20
2.20258
 30
0.0
 11
0.188819
 21
2.20178
 31
0.0
  0
LINE
  8
TRMODEL1
  6
CONTINUOUS
 62
     7
  5
C09
 10
0.188819
 20
2.20178
 30
0.0
 11
0.123938
 21
2.201215
 31
0.0
  0
LINE
  8
TRMODEL1
  6
CONTINUOUS
 62
     7
  5
C0A
 10
0.123938
 20
2.201215
 30
0.0
 11
0.059055
 21
2.200885
 31
0.0
  0
LINE
  8
TRMODEL1
  6
CONTINUOUS
 62
     7
  5
C0B
 10
2.318898
 20
2.351584
 30
0.0
 11
2.318898
 21
2.389543
 31
0.0
  0
LINE
  8
TRMODEL1
  6
CONTINUOUS
 62
     7
  5
C0C
 10
2.318898
 20
2.389543
 30
0.0
 11
2.254916
 21
2.381281
 31
0.0
  0
LINE
  8
TRMODEL1
  6
CONTINUOUS
 62
     7
  5
C0D
 10
2.254916
 20
2.381281
 30
0.0
 11
2.190884
 21
2.373249
 31
0.0
  0
LINE
  8
TRMODEL1
  6
CONTINUOUS
 62
     7
  5
C0E
 10
2.190884
 20
2.373249
 30
0.0
 11
2.126803
 21
2.365449
 31
0.0
  0
LINE
  8
TRMODEL1
  6
CONTINUOUS
 62
     7
  5
C0F
 10
2.126803
 20
2.365449
 30
0.0
 11
2.062675
 21
2.35788
 31
0.0
  0
LINE
  8
TRMODEL1
  6
CONTINUOUS
 62
     7
  5
C10
 10
2.062675
 20
2.35788
 30
0.0
 11
1.998501
 21
2.350544
 31
0.0
  0
LINE
  8
TRMODEL1
  6
CONTINUOUS
 62
     7
  5
C11
 10
1.998501
 20
2.350544
 30
0.0
 11
1.934283
 21
2.343439
 31
0.0
  0
LINE
  8
TRMODEL1
  6
CONTINUOUS
 62
     7
  5
C12
 10
1.934283
 20
2.343439
 30
0.0
 11
1.870021
 21
2.336566
 31
0.0
  0
LINE
  8
TRMODEL1
  6
CONTINUOUS
 62
     7
  5
C13
 10
1.870021
 20
2.336566
 30
0.0
 11
1.805718
 21
2.329926
 31
0.0
  0
LINE
  8
TRMODEL1
  6
CONTINUOUS
 62
     7
  5
C14
 10
1.805718
 20
2.329926
 30
0.0
 11
1.741375
 21
2.323518
 31
0.0
  0
LINE
  8
TRMODEL1
  6
CONTINUOUS
 62
     7
  5
C15
 10
1.741375
 20
2.323518
 30
0.0
 11
1.676993
 21
2.317342
 31
0.0
  0
LINE
  8
TRMODEL1
  6
CONTINUOUS
 62
     7
  5
C16
 10
1.676993
 20
2.317342
 30
0.0
 11
1.612574
 21
2.311399
 31
0.0
  0
LINE
  8
TRMODEL1
  6
CONTINUOUS
 62
     7
  5
C17
 10
1.612574
 20
2.311399
 30
0.0
 11
1.548118
 21
2.305689
 31
0.0
  0
LINE
  8
TRMODEL1
  6
CONTINUOUS
 62
     7
  5
C18
 10
1.548118
 20
2.305689
 30
0.0
 11
1.483629
 21
2.300212
 31
0.0
  0
LINE
  8
TRMODEL1
  6
CONTINUOUS
 62
     7
  5
C19
 10
1.483629
 20
2.300212
 30
0.0
 11
1.419106
 21
2.294968
 31
0.0
  0
LINE
  8
TRMODEL1
  6
CONTINUOUS
 62
     7
  5
C1A
 10
1.419106
 20
2.294968
 30
0.0
 11
1.354552
 21
2.289958
 31
0.0
  0
LINE
  8
TRMODEL1
  6
CONTINUOUS
 62
     7
  5
C1B
 10
1.354552
 20
2.289958
 30
0.0
 11
1.289968
 21
2.28518
 31
0.0
  0
LINE
  8
TRMODEL1
  6
CONTINUOUS
 62
     7
  5
C1C
 10
1.289968
 20
2.28518
 30
0.0
 11
1.225355
 21
2.280636
 31
0.0
  0
LINE
  8
TRMODEL1
  6
CONTINUOUS
 62
     7
  5
C1D
 10
1.225355
 20
2.280636
 30
0.0
 11
1.160715
 21
2.276325
 31
0.0
  0
LINE
  8
TRMODEL1
  6
CONTINUOUS
 62
     7
  5
C1E
 10
1.160715
 20
2.276325
 30
0.0
 11
1.096049
 21
2.272248
 31
0.0
  0
LINE
  8
TRMODEL1
  6
CONTINUOUS
 62
     7
  5
C1F
 10
1.096049
 20
2.272248
 30
0.0
 11
1.031358
 21
2.268405
 31
0.0
  0
LINE
  8
TRMODEL1
  6
CONTINUOUS
 62
     7
  5
C20
 10
1.031358
 20
2.268405
 30
0.0
 11
0.966645
 21
2.264796
 31
0.0
  0
LINE
  8
TRMODEL1
  6
CONTINUOUS
 62
     7
  5
C21
 10
0.966645
 20
2.264796
 30
0.0
 11
0.90191
 21
2.26142
 31
0.0
  0
LINE
  8
TRMODEL1
  6
CONTINUOUS
 62
     7
  5
C22
 10
0.90191
 20
2.26142
 30
0.0
 11
0.837155
 21
2.258278
 31
0.0
  0
LINE
  8
TRMODEL1
  6
CONTINUOUS
 62
     7
  5
C23
 10
0.837155
 20
2.258278
 30
0.0
 11
0.772381
 21
2.255371
 31
0.0
  0
LINE
  8
TRMODEL1
  6
CONTINUOUS
 62
     7
  5
C24
 10
0.772381
 20
2.255371
 30
0.0
 11
0.707591
 21
2.252697
 31
0.0
  0
LINE
  8
TRMODEL1
  6
CONTINUOUS
 62
     7
  5
C25
 10
0.707591
 20
2.252697
 30
0.0
 11
0.642784
 21
2.250257
 31
0.0
  0
LINE
  8
TRMODEL1
  6
CONTINUOUS
 62
     7
  5
C26
 10
0.642784
 20
2.250257
 30
0.0
 11
0.577963
 21
2.248052
 31
0.0
  0
LINE
  8
TRMODEL1
  6
CONTINUOUS
 62
     7
  5
C27
 10
0.577963
 20
2.248052
 30
0.0
 11
0.51313
 21
2.246081
 31
0.0
  0
LINE
  8
TRMODEL1
  6
CONTINUOUS
 62
     7
  5
C28
 10
0.51313
 20
2.246081
 30
0.0
 11
0.448285
 21
2.244344
 31
0.0
  0
LINE
  8
TRMODEL1
  6
CONTINUOUS
 62
     7
  5
C29
 10
0.448285
 20
2.244344
 30
0.0
 11
0.383429
 21
2.242841
 31
0.0
  0
LINE
  8
TRMODEL1
  6
CONTINUOUS
 62
     7
  5
C2A
 10
0.383429
 20
2.242841
 30
0.0
 11
0.318566
 21
2.241573
 31
0.0
  0
LINE
  8
TRMODEL1
  6
CONTINUOUS
 62
     7
  5
C2B
 10
0.318566
 20
2.241573
 30
0.0
 11
0.253695
 21
2.240539
 31
0.0
  0
LINE
  8
TRMODEL1
  6
CONTINUOUS
 62
     7
  5
C2C
 10
0.253695
 20
2.240539
 30
0.0
 11
0.188819
 21
2.23974
 31
0.0
  0
LINE
  8
TRMODEL1
  6
CONTINUOUS
 62
     7
  5
C2D
 10
0.188819
 20
2.23974
 30
0.0
 11
0.123938
 21
2.239175
 31
0.0
  0
LINE
  8
TRMODEL1
  6
CONTINUOUS
 62
     7
  5
C2E
 10
0.123938
 20
2.239175
 30
0.0
 11
0.059055
 21
2.238844
 31
0.0
  0
LINE
  8
TRMODEL1
  6
CONTINUOUS
 62
     7
  5
C2F
 10
2.318898
 20
2.565667
 30
0.0
 11
2.318898
 21
2.389543
 31
0.0
  0
LINE
  8
TRMODEL1
  6
CONTINUOUS
 62
     7
  5
C30
 10
2.318898
 20
2.992728
 30
0.0
 11
2.318898
 21
2.992126
 31
0.0
  0
LINE
  8
TRMODEL1
  6
CONTINUOUS
 62
     7
  5
C31
 10
-2.318898
 20
2.565667
 30
0.0
 11
2.318898
 21
2.565667
 31
0.0
  0
LINE
  8
TRMODEL1
  6
CONTINUOUS
 62
     7
  5
C32
 10
-2.318898
 20
2.389543
 30
0.0
 11
-2.318898
 21
2.565667
 31
0.0
  0
LINE
  8
TRMODEL1
  6
CONTINUOUS
 62
     7
  5
C33
 10
-0.059055
 20
2.238844
 30
0.0
 11
-0.123938
 21
2.239175
 31
0.0
  0
LINE
  8
TRMODEL1
  6
CONTINUOUS
 62
     7
  5
C34
 10
-0.123938
 20
2.239175
 30
0.0
 11
-0.188819
 21
2.23974
 31
0.0
  0
LINE
  8
TRMODEL1
  6
CONTINUOUS
 62
     7
  5
C35
 10
-0.188819
 20
2.23974
 30
0.0
 11
-0.253695
 21
2.240539
 31
0.0
  0
LINE
  8
TRMODEL1
  6
CONTINUOUS
 62
     7
  5
C36
 10
-0.253695
 20
2.240539
 30
0.0
 11
-0.318566
 21
2.241573
 31
0.0
  0
LINE
  8
TRMODEL1
  6
CONTINUOUS
 62
     7
  5
C37
 10
-0.318566
 20
2.241573
 30
0.0
 11
-0.383429
 21
2.242841
 31
0.0
  0
LINE
  8
TRMODEL1
  6
CONTINUOUS
 62
     7
  5
C38
 10
-0.383429
 20
2.242841
 30
0.0
 11
-0.448285
 21
2.244344
 31
0.0
  0
LINE
  8
TRMODEL1
  6
CONTINUOUS
 62
     7
  5
C39
 10
-0.448285
 20
2.244344
 30
0.0
 11
-0.51313
 21
2.246081
 31
0.0
  0
LINE
  8
TRMODEL1
  6
CONTINUOUS
 62
     7
  5
C3A
 10
-0.51313
 20
2.246081
 30
0.0
 11
-0.577963
 21
2.248052
 31
0.0
  0
LINE
  8
TRMODEL1
  6
CONTINUOUS
 62
     7
  5
C3B
 10
-0.577963
 20
2.248052
 30
0.0
 11
-0.642784
 21
2.250257
 31
0.0
  0
LINE
  8
TRMODEL1
  6
CONTINUOUS
 62
     7
  5
C3C
 10
-0.642784
 20
2.250257
 30
0.0
 11
-0.707591
 21
2.252697
 31
0.0
  0
LINE
  8
TRMODEL1
  6
CONTINUOUS
 62
     7
  5
C3D
 10
-0.707591
 20
2.252697
 30
0.0
 11
-0.772381
 21
2.255371
 31
0.0
  0
LINE
  8
TRMODEL1
  6
CONTINUOUS
 62
     7
  5
C3E
 10
-0.772381
 20
2.255371
 30
0.0
 11
-0.837155
 21
2.258278
 31
0.0
  0
LINE
  8
TRMODEL1
  6
CONTINUOUS
 62
     7
  5
C3F
 10
-0.837155
 20
2.258278
 30
0.0
 11
-0.90191
 21
2.26142
 31
0.0
  0
LINE
  8
TRMODEL1
  6
CONTINUOUS
 62
     7
  5
C40
 10
-0.90191
 20
2.26142
 30
0.0
 11
-0.966645
 21
2.264796
 31
0.0
  0
LINE
  8
TRMODEL1
  6
CONTINUOUS
 62
     7
  5
C41
 10
-0.966645
 20
2.264796
 30
0.0
 11
-1.031358
 21
2.268405
 31
0.0
  0
LINE
  8
TRMODEL1
  6
CONTINUOUS
 62
     7
  5
C42
 10
-1.031358
 20
2.268405
 30
0.0
 11
-1.096049
 21
2.272248
 31
0.0
  0
LINE
  8
TRMODEL1
  6
CONTINUOUS
 62
     7
  5
C43
 10
-1.096049
 20
2.272248
 30
0.0
 11
-1.160715
 21
2.276325
 31
0.0
  0
LINE
  8
TRMODEL1
  6
CONTINUOUS
 62
     7
  5
C44
 10
-1.160715
 20
2.276325
 30
0.0
 11
-1.225355
 21
2.280636
 31
0.0
  0
LINE
  8
TRMODEL1
  6
CONTINUOUS
 62
     7
  5
C45
 10
-1.225355
 20
2.280636
 30
0.0
 11
-1.289968
 21
2.28518
 31
0.0
  0
LINE
  8
TRMODEL1
  6
CONTINUOUS
 62
     7
  5
C46
 10
-1.289968
 20
2.28518
 30
0.0
 11
-1.354552
 21
2.289958
 31
0.0
  0
LINE
  8
TRMODEL1
  6
CONTINUOUS
 62
     7
  5
C47
 10
-1.354552
 20
2.289958
 30
0.0
 11
-1.419106
 21
2.294968
 31
0.0
  0
LINE
  8
TRMODEL1
  6
CONTINUOUS
 62
     7
  5
C48
 10
-1.419106
 20
2.294968
 30
0.0
 11
-1.483629
 21
2.300212
 31
0.0
  0
LINE
  8
TRMODEL1
  6
CONTINUOUS
 62
     7
  5
C49
 10
-1.483629
 20
2.300212
 30
0.0
 11
-1.548118
 21
2.305689
 31
0.0
  0
LINE
  8
TRMODEL1
  6
CONTINUOUS
 62
     7
  5
C4A
 10
-1.548118
 20
2.305689
 30
0.0
 11
-1.612574
 21
2.311399
 31
0.0
  0
LINE
  8
TRMODEL1
  6
CONTINUOUS
 62
     7
  5
C4B
 10
-1.612574
 20
2.311399
 30
0.0
 11
-1.676993
 21
2.317342
 31
0.0
  0
LINE
  8
TRMODEL1
  6
CONTINUOUS
 62
     7
  5
C4C
 10
-1.676993
 20
2.317342
 30
0.0
 11
-1.741375
 21
2.323518
 31
0.0
  0
LINE
  8
TRMODEL1
  6
CONTINUOUS
 62
     7
  5
C4D
 10
-1.741375
 20
2.323518
 30
0.0
 11
-1.805718
 21
2.329926
 31
0.0
  0
LINE
  8
TRMODEL1
  6
CONTINUOUS
 62
     7
  5
C4E
 10
-1.805718
 20
2.329926
 30
0.0
 11
-1.870021
 21
2.336566
 31
0.0
  0
LINE
  8
TRMODEL1
  6
CONTINUOUS
 62
     7
  5
C4F
 10
-1.870021
 20
2.336566
 30
0.0
 11
-1.934283
 21
2.343439
 31
0.0
  0
LINE
  8
TRMODEL1
  6
CONTINUOUS
 62
     7
  5
C50
 10
-1.934283
 20
2.343439
 30
0.0
 11
-1.998501
 21
2.350544
 31
0.0
  0
LINE
  8
TRMODEL1
  6
CONTINUOUS
 62
     7
  5
C51
 10
-1.998501
 20
2.350544
 30
0.0
 11
-2.062675
 21
2.35788
 31
0.0
  0
LINE
  8
TRMODEL1
  6
CONTINUOUS
 62
     7
  5
C52
 10
-2.062675
 20
2.35788
 30
0.0
 11
-2.126803
 21
2.365449
 31
0.0
  0
LINE
  8
TRMODEL1
  6
CONTINUOUS
 62
     7
  5
C53
 10
-2.126803
 20
2.365449
 30
0.0
 11
-2.190884
 21
2.373249
 31
0.0
  0
LINE
  8
TRMODEL1
  6
CONTINUOUS
 62
     7
  5
C54
 10
-2.190884
 20
2.373249
 30
0.0
 11
-2.254916
 21
2.381281
 31
0.0
  0
LINE
  8
TRMODEL1
  6
CONTINUOUS
 62
     7
  5
C55
 10
-2.254916
 20
2.381281
 30
0.0
 11
-2.318898
 21
2.389543
 31
0.0
  0
LINE
  8
TRMODEL1
  6
CONTINUOUS
 62
     7
  5
C56
 10
-2.318898
 20
2.992126
 30
0.0
 11
-2.318898
 21
2.992728
 31
0.0
  0
LINE
  8
TRMODEL1
  6
CONTINUOUS
 62
     7
  5
C57
 10
-2.318898
 20
2.351584
 30
0.0
 11
-2.318898
 21
2.389543
 31
0.0
  0
LINE
  8
TRMODEL1
  6
CONTINUOUS
 62
     7
  5
C58
 10
-0.059055
 20
2.200885
 30
0.0
 11
-0.123938
 21
2.201215
 31
0.0
  0
LINE
  8
TRMODEL1
  6
CONTINUOUS
 62
     7
  5
C59
 10
-0.123938
 20
2.201215
 30
0.0
 11
-0.188819
 21
2.20178
 31
0.0
  0
LINE
  8
TRMODEL1
  6
CONTINUOUS
 62
     7
  5
C5A
 10
-0.188819
 20
2.20178
 30
0.0
 11
-0.253695
 21
2.20258
 31
0.0
  0
LINE
  8
TRMODEL1
  6
CONTINUOUS
 62
     7
  5
C5B
 10
-0.253695
 20
2.20258
 30
0.0
 11
-0.318566
 21
2.203613
 31
0.0
  0
LINE
  8
TRMODEL1
  6
CONTINUOUS
 62
     7
  5
C5C
 10
-0.318566
 20
2.203613
 30
0.0
 11
-0.383429
 21
2.204882
 31
0.0
  0
LINE
  8
TRMODEL1
  6
CONTINUOUS
 62
     7
  5
C5D
 10
-0.383429
 20
2.204882
 30
0.0
 11
-0.448285
 21
2.206384
 31
0.0
  0
LINE
  8
TRMODEL1
  6
CONTINUOUS
 62
     7
  5
C5E
 10
-0.448285
 20
2.206384
 30
0.0
 11
-0.51313
 21
2.208121
 31
0.0
  0
LINE
  8
TRMODEL1
  6
CONTINUOUS
 62
     7
  5
C5F
 10
-0.51313
 20
2.208121
 30
0.0
 11
-0.577963
 21
2.210092
 31
0.0
  0
LINE
  8
TRMODEL1
  6
CONTINUOUS
 62
     7
  5
C60
 10
-0.577963
 20
2.210092
 30
0.0
 11
-0.642784
 21
2.212297
 31
0.0
  0
LINE
  8
TRMODEL1
  6
CONTINUOUS
 62
     7
  5
C61
 10
-0.642784
 20
2.212297
 30
0.0
 11
-0.707591
 21
2.214737
 31
0.0
  0
LINE
  8
TRMODEL1
  6
CONTINUOUS
 62
     7
  5
C62
 10
-0.707591
 20
2.214737
 30
0.0
 11
-0.772381
 21
2.217411
 31
0.0
  0
LINE
  8
TRMODEL1
  6
CONTINUOUS
 62
     7
  5
C63
 10
-0.772381
 20
2.217411
 30
0.0
 11
-0.837155
 21
2.220318
 31
0.0
  0
LINE
  8
TRMODEL1
  6
CONTINUOUS
 62
     7
  5
C64
 10
-0.837155
 20
2.220318
 30
0.0
 11
-0.90191
 21
2.22346
 31
0.0
  0
LINE
  8
TRMODEL1
  6
CONTINUOUS
 62
     7
  5
C65
 10
-0.90191
 20
2.22346
 30
0.0
 11
-0.966645
 21
2.226836
 31
0.0
  0
LINE
  8
TRMODEL1
  6
CONTINUOUS
 62
     7
  5
C66
 10
-0.966645
 20
2.226836
 30
0.0
 11
-1.031358
 21
2.230445
 31
0.0
  0
LINE
  8
TRMODEL1
  6
CONTINUOUS
 62
     7
  5
C67
 10
-1.031358
 20
2.230445
 30
0.0
 11
-1.096049
 21
2.234289
 31
0.0
  0
LINE
  8
TRMODEL1
  6
CONTINUOUS
 62
     7
  5
C68
 10
-1.096049
 20
2.234289
 30
0.0
 11
-1.160715
 21
2.238365
 31
0.0
  0
LINE
  8
TRMODEL1
  6
CONTINUOUS
 62
     7
  5
C69
 10
-1.160715
 20
2.238365
 30
0.0
 11
-1.225355
 21
2.242676
 31
0.0
  0
LINE
  8
TRMODEL1
  6
CONTINUOUS
 62
     7
  5
C6A
 10
-1.225355
 20
2.242676
 30
0.0
 11
-1.289968
 21
2.24722
 31
0.0
  0
LINE
  8
TRMODEL1
  6
CONTINUOUS
 62
     7
  5
C6B
 10
-1.289968
 20
2.24722
 30
0.0
 11
-1.354552
 21
2.251998
 31
0.0
  0
LINE
  8
TRMODEL1
  6
CONTINUOUS
 62
     7
  5
C6C
 10
-1.354552
 20
2.251998
 30
0.0
 11
-1.419106
 21
2.257008
 31
0.0
  0
LINE
  8
TRMODEL1
  6
CONTINUOUS
 62
     7
  5
C6D
 10
-1.419106
 20
2.257008
 30
0.0
 11
-1.483629
 21
2.262252
 31
0.0
  0
LINE
  8
TRMODEL1
  6
CONTINUOUS
 62
     7
  5
C6E
 10
-1.483629
 20
2.262252
 30
0.0
 11
-1.548118
 21
2.267729
 31
0.0
  0
LINE
  8
TRMODEL1
  6
CONTINUOUS
 62
     7
  5
C6F
 10
-1.548118
 20
2.267729
 30
0.0
 11
-1.612574
 21
2.273439
 31
0.0
  0
LINE
  8
TRMODEL1
  6
CONTINUOUS
 62
     7
  5
C70
 10
-1.612574
 20
2.273439
 30
0.0
 11
-1.676993
 21
2.279382
 31
0.0
  0
LINE
  8
TRMODEL1
  6
CONTINUOUS
 62
     7
  5
C71
 10
-1.676993
 20
2.279382
 30
0.0
 11
-1.741375
 21
2.285558
 31
0.0
  0
LINE
  8
TRMODEL1
  6
CONTINUOUS
 62
     7
  5
C72
 10
-1.741375
 20
2.285558
 30
0.0
 11
-1.805718
 21
2.291966
 31
0.0
  0
LINE
  8
TRMODEL1
  6
CONTINUOUS
 62
     7
  5
C73
 10
-1.805718
 20
2.291966
 30
0.0
 11
-1.870021
 21
2.298606
 31
0.0
  0
LINE
  8
TRMODEL1
  6
CONTINUOUS
 62
     7
  5
C74
 10
-1.870021
 20
2.298606
 30
0.0
 11
-1.934283
 21
2.305479
 31
0.0
  0
LINE
  8
TRMODEL1
  6
CONTINUOUS
 62
     7
  5
C75
 10
-1.934283
 20
2.305479
 30
0.0
 11
-1.998501
 21
2.312584
 31
0.0
  0
LINE
  8
TRMODEL1
  6
CONTINUOUS
 62
     7
  5
C76
 10
-1.998501
 20
2.312584
 30
0.0
 11
-2.062675
 21
2.31992
 31
0.0
  0
LINE
  8
TRMODEL1
  6
CONTINUOUS
 62
     7
  5
C77
 10
-2.062675
 20
2.31992
 30
0.0
 11
-2.126803
 21
2.327489
 31
0.0
  0
LINE
  8
TRMODEL1
  6
CONTINUOUS
 62
     7
  5
C78
 10
-2.126803
 20
2.327489
 30
0.0
 11
-2.190884
 21
2.335289
 31
0.0
  0
LINE
  8
TRMODEL1
  6
CONTINUOUS
 62
     7
  5
C79
 10
-2.190884
 20
2.335289
 30
0.0
 11
-2.254916
 21
2.343321
 31
0.0
  0
LINE
  8
TRMODEL1
  6
CONTINUOUS
 62
     7
  5
C7A
 10
-2.254916
 20
2.343321
 30
0.0
 11
-2.318898
 21
2.351584
 31
0.0
  0
LINE
  8
TRMODEL1
  6
CONTINUOUS
 62
     7
  5
C7B
 10
0.059055
 20
2.318898
 30
0.0
 11
0.059055
 21
-2.318898
 31
0.0
  0
LINE
  8
TRMODEL1
  6
CONTINUOUS
 62
     7
  5
C7C
 10
-0.059055
 20
2.318898
 30
0.0
 11
0.059055
 21
2.318898
 31
0.0
  0
LINE
  8
TRMODEL1
  6
CONTINUOUS
 62
     7
  5
C7D
 10
2.992126
 20
-2.992126
 30
0.0
 11
2.992126
 21
2.992126
 31
0.0
  0
LINE
  8
TRMODEL1
  6
CONTINUOUS
 62
     7
  5
C7E
 10
-2.992126
 20
2.992126
 30
0.0
 11
2.992126
 21
2.992126
 31
0.0
  0
LINE
  8
TRMODEL1
  6
CONTINUOUS
 62
     7
  5
C7F
 10
-2.992126
 20
2.992126
 30
0.0
 11
-2.992126
 21
-2.992126
 31
0.0
  0
LINE
  8
TRMODEL1
  6
CONTINUOUS
 62
     7
  5
C80
 10
2.992126
 20
-2.992126
 30
0.0
 11
-2.992126
 21
-2.992126
 31
0.0
  0
ENDSEC
  0
EOF
