  0
SECTION
  2
HEADER
  9
$ACADVER
  1
AC1009
  9
$DWGCODEPAGE
  3
ansi_1252
  9
$INSBASE
 10
0.0
 20
0.0
 30
0.0
  9
$EXTMIN
 10
-2.992126
 20
-2.992126
 30
0.0
  9
$EXTMAX
 10
2.992126
 20
2.992728
 30
0.0
  9
$LIMMIN
 10
0.0
 20
0.0
  9
$LIMMAX
 10
0.0
 20
0.0
  9
$ORTHOMODE
 70
     0
  9
$REGENMODE
 70
     1
  9
$FILLMODE
 70
     1
  9
$QTEXTMODE
 70
     0
  9
$MIRRTEXT
 70
     1
  9
$DRAGMODE
 70
     2
  9
$LTSCALE
 40
1.0
  9
$OSMODE
 70
     0
  9
$ATTMODE
 70
     1
  9
$TEXTSIZE
 40
0.2
  9
$TRACEWID
 40
0.05
  9
$TEXTSTYLE
  7
STANDARD
  9
$CLAYER
  8
0
  9
$CELTYPE
  6
CONTINUOUS
  9
$CECOLOR
 62
   256
  9
$DIMSCALE
 40
1.0
  9
$DIMASZ
 40
0.18
  9
$DIMEXO
 40
0.0625
  9
$DIMDLI
 40
0.38
  9
$DIMRND
 40
0.0
  9
$DIMDLE
 40
0.0
  9
$DIMEXE
 40
0.18
  9
$DIMTP
 40
0.0
  9
$DIMTM
 40
0.0
  9
$DIMTXT
 40
0.18
  9
$DIMCEN
 40
0.09
  9
$DIMTSZ
 40
0.0
  9
$DIMTOL
 70
     0
  9
$DIMLIM
 70
     0
  9
$DIMTIH
 70
     1
  9
$DIMTOH
 70
     1
  9
$DIMSE1
 70
     0
  9
$DIMSE2
 70
     0
  9
$DIMTAD
 70
     0
  9
$DIMZIN
 70
     0
  9
$DIMBLK
  1

  9
$DIMASO
 70
     1
  9
$DIMSHO
 70
     1
  9
$DIMPOST
  1

  9
$DIMAPOST
  1

  9
$DIMALT
 70
     0
  9
$DIMALTD
 70
     2
  9
$DIMALTF
 40
25.4
  9
$DIMLFAC
 40
1.0
  9
$DIMTOFL
 70
     0
  9
$DIMTVP
 40
0.0
  9
$DIMTIX
 70
     0
  9
$DIMSOXD
 70
     0
  9
$DIMSAH
 70
     0
  9
$DIMBLK1
  1

  9
$DIMBLK2
  1

  9
$DIMSTYLE
  2
STANDARD
  9
$DIMCLRD
 70
     0
  9
$DIMCLRE
 70
     0
  9
$DIMCLRT
 70
     0
  9
$DIMTFAC
 40
1.0
  9
$DIMGAP
 40
0.09
  9
$LUNITS
 70
     2
  9
$LUPREC
 70
     4
  9
$AXISMODE
 70
     0
  9
$AXISUNIT
 10
0.0
 20
0.0
  9
$SKETCHINC
 40
0.1
  9
$FILLETRAD
 40
0.0
  9
$AUNITS
 70
     0
  9
$AUPREC
 70
     0
  9
$MENU
  1
acad
  9
$ELEVATION
 40
0.0
  9
$PELEVATION
 40
0.0
  9
$THICKNESS
 40
0.0
  9
$LIMCHECK
 70
     0
  9
$BLIPMODE
 70
     1
  9
$CHAMFERA
 40
0.0
  9
$CHAMFERB
 40
0.0
  9
$SKPOLY
 70
     0
  9
$TDCREATE
 40
0.000000000
  9
$TDUPDATE
 40
0.000000000
  9
$TDINDWG
 40
0.0000000000
  9
$TDUSRTIMER
 40
0.0000000000
  9
$USRTIMER
 70
     1
  9
$ANGBASE
 50
0.0
  9
$ANGDIR
 70
     0
  9
$PDMODE
 70
     0
  9
$PDSIZE
 40
0.0
  9
$PLINEWID
 40
0.0
  9
$COORDS
 70
     0
  9
$SPLFRAME
 70
     0
  9
$SPLINETYPE
 70
     6
  9
$SPLINESEGS
 70
     8
  9
$ATTDIA
 70
     0
  9
$ATTREQ
 70
     1
  9
$HANDLING
 70
     1
  9
$HANDSEED
  5
221
  9
$SURFTAB1
 70
     6
  9
$SURFTAB2
 70
     6
  9
$SURFTYPE
 70
     6
  9
$SURFU
 70
     6
  9
$SURFV
 70
     6
  9
$UCSNAME
  2

  9
$UCSORG
 10
0.0
 20
0.0
 30
0.0
  9
$UCSXDIR
 10
1.0
 20
0.0
 30
0.0
  9
$UCSYDIR
 10
0.0
 20
1.0
 30
0.0
  9
$PUCSNAME
  2

  9
$PUCSORG
 10
0.0
 20
0.0
 30
0.0
  9
$PUCSXDIR
 10
1.0
 20
0.0
 30
0.0
  9
$PUCSYDIR
 10
0.0
 20
1.0
 30
0.0
  9
$USERI1
 70
     0
  9
$USERI2
 70
     0
  9
$USERI3
 70
     0
  9
$USERI4
 70
     0
  9
$USERI5
 70
     0
  9
$USERR1
 40
0.0
  9
$USERR2
 40
0.0
  9
$USERR3
 40
0.0
  9
$USERR4
 40
0.0
  9
$USERR5
 40
0.0
  9
$WORLDVIEW
 70
     1
  9
$SHADEDGE
 70
     3
  9
$SHADEDIF
 70
    70
  9
$TILEMODE
 70
     1
  9
$MAXACTVP
 70
    16
  9
$PINSBASE
 10
0.0
 20
0.0
 30
0.0
  9
$PLIMCHECK
 70
     0
  9
$PEXTMIN
 10
1.000000E+20
 20
1.000000E+20
 30
1.000000E+20
  9
$PEXTMAX
 10
-1.000000E+20
 20
-1.000000E+20
 30
-1.000000E+20
  9
$PLIMMIN
 10
0.0
 20
0.0
  9
$PLIMMAX
 10
12.0
 20
9.0
  9
$UNITMODE
 70
     0
  9
$VISRETAIN
 70
     0
  9
$PLINEGEN
 70
     1
  9
$PSLTSCALE
 70
     0
  9
$TREEDEPTH
 70
  3020
  0
ENDSEC
  0
SECTION
  2
TABLES
  0
TABLE
  2
VPORT
 70
     1
  0
VPORT
  2
*ACTIVE
 70
     0
 10
0.0
 20
0.0
 11
1.0
 21
1.0
 12
6.591288
 22
4.579184
 13
0.0
 23
0.0
 14
1.0
 24
1.0
 15
0.0
 25
0.0
 16
0.0
 26
0.0
 36
1.0
 17
0.0
 27
0.0
 37
0.0
 40
9.158369
 41
0.688564
 42
50.0
 43
0.0
 44
0.0
 50
0.0
 51
0.0
 71
     0
 72
   100
 73
     1
 74
     1
 75
     0
 76
     0
 77
     0
 78
     0
  0
ENDTAB
  0
TABLE
  2
LTYPE
 70
     5
  0
LTYPE
  2
CONTINUOUS
 70
    64
  3
Solid line
 72
    65
 73
     0
 40
0.0
  0
LTYPE
  2
CENTER
 70
    64
  3
Center ____ _ ____ _ ____ _ ____ _ ____ _ ____
 72
    65
 73
     4
 40
50.8
 49
31.75
 49
-6.35
 49
6.35
 49
-6.35
  0
LTYPE
  2
HIDDEN
 70
    64
  3
Hidden __ __ __ __ __ __ __ __ __ __ __ __ __ __
 72
    65
 73
     2
 40
9.525
 49
6.35
 49
-3.175
  0
LTYPE
  2
CENTER2
 70
    64
  3
Center (.5x) ___ _ ___ _ ___ _ ___ _ ___ _ ___
 72
    65
 73
     4
 40
28.575
 49
19.05
 49
-3.175
 49
3.175
 49
-3.175
  0
LTYPE
  2
HIDDEN2
 70
    64
  3
Hidden (.5x) _ _ _ _ _ _ _ _ _ _ _ _ _ _ _ _ _
 72
    65
 73
     2
 40
4.7625
 49
3.175
 49
-1.5875
  0
ENDTAB
  0
TABLE
  2
LAYER
 70
     7
  0
LAYER
  2
0
 70
     0
 62
     7
  6
CONTINUOUS
  0
LAYER
  2
TRMODEL1
 70
     0
 62
     7
  6
CONTINUOUS
  0
LAYER
  2
TRMODEL3
 70
     0
 62
     7
  6
CONTINUOUS
  0
LAYER
  2
TRDETAIL2
 70
     0
 62
     7
  6
CONTINUOUS
  0
LAYER
  2
TRDETAIL3
 70
     0
 62
     7
  6
CONTINUOUS
  0
LAYER
  2
TRDETAIL4
 70
     0
 62
     7
  6
CONTINUOUS
  0
LAYER
  2
TRDETAIL5
 70
     0
 62
     7
  6
CONTINUOUS
  0
ENDTAB
  0
TABLE
  2
STYLE
 70
     1
  0
STYLE
  2
STANDARD
 70
     0
 40
0.0
 41
1.0
 50
0.0
 71
     0
 42
0.0
  3
txt
  4

  0
ENDTAB
  0
TABLE
  2
VIEW
 70
     0
  0
ENDTAB
  0
TABLE
  2
UCS
 70
     0
  0
ENDTAB
  0
TABLE
  2
APPID
 70
     1
  0
APPID
  2
ACAD
 70
     0
  0
ENDTAB
  0
TABLE
  2
DIMSTYLE
 70
     1
  0
DIMSTYLE
  2
STANDARD
 70
     0
  3

  4

  5

  6

  7

 40
1.0
 41
0.18
 42
0.0625
 43
0.38
 44
0.18
 45
0.0
 46
0.0
 47
0.0
 48
0.0
 71
     0
 72
     0
 73
     1
 74
     1
 75
     0
 76
     0
 77
     0
 78
     0
140
0.18
141
0.09
142
0.0
143
25.4
144
1.0
145
0.0
146
1.0
147
0.09
170
     0
171
     2
172
     0
173
     0
174
     0
175
     0
176
     0
177
     0
178
     0
  0
ENDTAB
  0
ENDSEC
  0
SECTION
  2
BLOCKS
  0
ENDSEC
  0
SECTION
  2
ENTITIES
  0
LINE
  8
TRMODEL1
  6
CONTINUOUS
 62
     7
  5
131
 10
-2.318898
 20
2.992126
 30
0.0
 11
-2.318898
 21
2.992728
 31
0.0
  0
LINE
  8
TRMODEL1
  6
CONTINUOUS
 62
     7
  5
132
 10
2.318898
 20
2.992126
 30
0.0
 11
2.318898
 21
2.992728
 31
0.0
  0
ARC
  8
TRMODEL1
  6
CONTINUOUS
 62
     7
  5
133
 10
0.0
 20
0.0
 30
0.0
 40
0.518701
 50
276.537414
 51
289.176872
  0
ARC
  8
TRMODEL1
  6
CONTINUOUS
 62
     7
  5
134
 10
0.0
 20
0.0
 30
0.0
 40
0.518701
 50
250.823128
 51
263.462586
  0
ARC
  8
TRMODEL1
  6
CONTINUOUS
 62
     7
  5
135
 10
0.0
 20
0.0
 30
0.0
 40
0.518701
 50
302.2517
 51
314.891157
  0
ARC
  8
TRMODEL1
  6
CONTINUOUS
 62
     7
  5
136
 10
0.0
 20
0.0
 30
0.0
 40
0.518701
 50
225.108843
 51
237.7483
  0
ARC
  8
TRMODEL1
  6
CONTINUOUS
 62
     7
  5
137
 10
0.0
 20
0.0
 30
0.0
 40
0.518701
 50
327.965986
 51
340.605443
  0
ARC
  8
TRMODEL1
  6
CONTINUOUS
 62
     7
  5
138
 10
0.0
 20
0.0
 30
0.0
 40
0.518701
 50
199.394557
 51
212.034014
  0
ARC
  8
TRMODEL1
  6
CONTINUOUS
 62
     7
  5
139
 10
0.0
 20
0.0
 30
0.0
 40
0.518701
 50
353.680271
 51
6.319729
  0
ARC
  8
TRMODEL1
  6
CONTINUOUS
 62
     7
  5
13A
 10
0.0
 20
0.0
 30
0.0
 40
0.518701
 50
173.680271
 51
186.319729
  0
ARC
  8
TRMODEL1
  6
CONTINUOUS
 62
     7
  5
13B
 10
0.0
 20
0.0
 30
0.0
 40
0.518701
 50
19.394557
 51
32.034014
  0
ARC
  8
TRMODEL1
  6
CONTINUOUS
 62
     7
  5
13C
 10
0.0
 20
0.0
 30
0.0
 40
0.518701
 50
147.965986
 51
160.605443
  0
ARC
  8
TRMODEL1
  6
CONTINUOUS
 62
     7
  5
13D
 10
0.0
 20
0.0
 30
0.0
 40
0.518701
 50
45.108843
 51
57.7483
  0
ARC
  8
TRMODEL1
  6
CONTINUOUS
 62
     7
  5
13E
 10
0.0
 20
0.0
 30
0.0
 40
0.518701
 50
122.2517
 51
134.891157
  0
ARC
  8
TRMODEL1
  6
CONTINUOUS
 62
     7
  5
13F
 10
0.0
 20
0.0
 30
0.0
 40
0.518701
 50
96.537414
 51
109.176872
  0
ARC
  8
TRMODEL1
  6
CONTINUOUS
 62
     7
  5
140
 10
0.0
 20
0.0
 30
0.0
 40
0.518701
 50
70.823128
 51
83.462586
  0
LINE
  8
TRMODEL1
  6
CONTINUOUS
 62
     7
  5
141
 10
0.314125
 20
0.788396
 30
0.0
 11
0.170386
 21
0.489918
 31
0.0
  0
LINE
  8
TRMODEL1
  6
CONTINUOUS
 62
     7
  5
142
 10
0.420539
 20
0.73715
 30
0.0
 11
0.276799
 21
0.438671
 31
0.0
  0
LINE
  8
TRMODEL1
  6
CONTINUOUS
 62
     7
  5
143
 10
0.625089
 20
0.574026
 30
0.0
 11
0.366079
 21
0.367473
 31
0.0
  0
LINE
  8
TRMODEL1
  6
CONTINUOUS
 62
     7
  5
144
 10
0.69873
 20
0.481684
 30
0.0
 11
0.43972
 21
0.275131
 31
0.0
  0
LINE
  8
TRMODEL1
  6
CONTINUOUS
 62
     7
  5
145
 10
0.812247
 20
0.245964
 30
0.0
 11
0.489267
 21
0.172246
 31
0.0
  0
LINE
  8
TRMODEL1
  6
CONTINUOUS
 62
     7
  5
146
 10
0.838529
 20
0.130815
 30
0.0
 11
0.515549
 21
0.057097
 31
0.0
  0
LINE
  8
TRMODEL1
  6
CONTINUOUS
 62
     7
  5
147
 10
0.838529
 20
-0.130815
 30
0.0
 11
0.515549
 21
-0.057097
 31
0.0
  0
LINE
  8
TRMODEL1
  6
CONTINUOUS
 62
     7
  5
148
 10
0.812247
 20
-0.245964
 30
0.0
 11
0.489267
 21
-0.172246
 31
0.0
  0
LINE
  8
TRMODEL1
  6
CONTINUOUS
 62
     7
  5
149
 10
0.69873
 20
-0.481684
 30
0.0
 11
0.43972
 21
-0.275131
 31
0.0
  0
LINE
  8
TRMODEL1
  6
CONTINUOUS
 62
     7
  5
14A
 10
0.625089
 20
-0.574026
 30
0.0
 11
0.366079
 21
-0.367473
 31
0.0
  0
LINE
  8
TRMODEL1
  6
CONTINUOUS
 62
     7
  5
14B
 10
0.420539
 20
-0.73715
 30
0.0
 11
0.276799
 21
-0.438671
 31
0.0
  0
LINE
  8
TRMODEL1
  6
CONTINUOUS
 62
     7
  5
14C
 10
0.314125
 20
-0.788396
 30
0.0
 11
0.170386
 21
-0.489918
 31
0.0
  0
LINE
  8
TRMODEL1
  6
CONTINUOUS
 62
     7
  5
14D
 10
-0.314125
 20
-0.788396
 30
0.0
 11
-0.170386
 21
-0.489918
 31
0.0
  0
LINE
  8
TRMODEL1
  6
CONTINUOUS
 62
     7
  5
14E
 10
0.059055
 20
-0.846614
 30
0.0
 11
0.059055
 21
-0.515328
 31
0.0
  0
ARC
  8
TRMODEL1
  6
CONTINUOUS
 62
     7
  5
14F
 10
0.0
 20
0.0
 30
0.0
 40
0.848671
 50
248.275888
 51
266.009826
  0
ARC
  8
TRMODEL1
  6
CONTINUOUS
 62
     7
  5
150
 10
0.0
 20
0.0
 30
0.0
 40
0.848671
 50
222.561602
 51
240.295541
  0
ARC
  8
TRMODEL1
  6
CONTINUOUS
 62
     7
  5
151
 10
0.0
 20
0.0
 30
0.0
 40
0.848671
 50
273.990174
 51
291.724112
  0
ARC
  8
TRMODEL1
  6
CONTINUOUS
 62
     7
  5
152
 10
0.0
 20
0.0
 30
0.0
 40
0.848671
 50
196.847316
 51
214.581255
  0
ARC
  8
TRMODEL1
  6
CONTINUOUS
 62
     7
  5
153
 10
0.0
 20
0.0
 30
0.0
 40
0.848671
 50
299.704459
 51
317.438398
  0
ARC
  8
TRMODEL1
  6
CONTINUOUS
 62
     7
  5
154
 10
0.0
 20
0.0
 30
0.0
 40
0.848671
 50
171.133031
 51
188.866969
  0
ARC
  8
TRMODEL1
  6
CONTINUOUS
 62
     7
  5
155
 10
0.0
 20
0.0
 30
0.0
 40
0.848671
 50
325.418745
 51
343.152684
  0
ARC
  8
TRMODEL1
  6
CONTINUOUS
 62
     7
  5
156
 10
0.0
 20
0.0
 30
0.0
 40
0.848671
 50
145.418745
 51
163.152684
  0
ARC
  8
TRMODEL1
  6
CONTINUOUS
 62
     7
  5
157
 10
0.0
 20
0.0
 30
0.0
 40
0.848671
 50
351.133031
 51
8.866969
  0
ARC
  8
TRMODEL1
  6
CONTINUOUS
 62
     7
  5
158
 10
0.0
 20
0.0
 30
0.0
 40
0.848671
 50
119.704459
 51
137.438398
  0
ARC
  8
TRMODEL1
  6
CONTINUOUS
 62
     7
  5
159
 10
0.0
 20
0.0
 30
0.0
 40
0.848671
 50
16.847316
 51
34.581255
  0
ARC
  8
TRMODEL1
  6
CONTINUOUS
 62
     7
  5
15A
 10
0.0
 20
0.0
 30
0.0
 40
0.848671
 50
93.990174
 51
111.724112
  0
ARC
  8
TRMODEL1
  6
CONTINUOUS
 62
     7
  5
15B
 10
0.0
 20
0.0
 30
0.0
 40
0.848671
 50
42.561602
 51
60.295541
  0
ARC
  8
TRMODEL1
  6
CONTINUOUS
 62
     7
  5
15C
 10
0.0
 20
0.0
 30
0.0
 40
0.966781
 50
247.787764
 51
266.49795
  0
ARC
  8
TRMODEL1
  6
CONTINUOUS
 62
     7
  5
15D
 10
0.0
 20
0.0
 30
0.0
 40
0.966781
 50
222.073478
 51
240.783665
  0
ARC
  8
TRMODEL1
  6
CONTINUOUS
 62
     7
  5
15E
 10
0.0
 20
0.0
 30
0.0
 40
0.966781
 50
273.50205
 51
292.212236
  0
ARC
  8
TRMODEL1
  6
CONTINUOUS
 62
     7
  5
15F
 10
0.0
 20
0.0
 30
0.0
 40
0.966781
 50
196.359192
 51
215.069379
  0
ARC
  8
TRMODEL1
  6
CONTINUOUS
 62
     7
  5
160
 10
0.0
 20
0.0
 30
0.0
 40
0.966781
 50
299.216335
 51
317.926522
  0
ARC
  8
TRMODEL1
  6
CONTINUOUS
 62
     7
  5
161
 10
0.0
 20
0.0
 30
0.0
 40
0.966781
 50
170.644907
 51
189.355093
  0
ARC
  8
TRMODEL1
  6
CONTINUOUS
 62
     7
  5
162
 10
0.0
 20
0.0
 30
0.0
 40
0.966781
 50
324.930621
 51
343.640808
  0
ARC
  8
TRMODEL1
  6
CONTINUOUS
 62
     7
  5
163
 10
0.0
 20
0.0
 30
0.0
 40
0.966781
 50
144.930621
 51
163.640808
  0
ARC
  8
TRMODEL1
  6
CONTINUOUS
 62
     7
  5
164
 10
0.0
 20
0.0
 30
0.0
 40
0.966781
 50
350.644907
 51
9.355093
  0
ARC
  8
TRMODEL1
  6
CONTINUOUS
 62
     7
  5
165
 10
0.0
 20
0.0
 30
0.0
 40
0.966781
 50
119.216335
 51
137.926522
  0
ARC
  8
TRMODEL1
  6
CONTINUOUS
 62
     7
  5
166
 10
0.0
 20
0.0
 30
0.0
 40
0.966781
 50
93.50205
 51
112.212236
  0
ARC
  8
TRMODEL1
  6
CONTINUOUS
 62
     7
  5
167
 10
0.0
 20
0.0
 30
0.0
 40
0.966781
 50
16.359192
 51
35.069379
  0
ARC
  8
TRMODEL1
  6
CONTINUOUS
 62
     7
  5
168
 10
0.0
 20
0.0
 30
0.0
 40
0.966781
 50
42.073478
 51
60.783665
  0
ARC
  8
TRMODEL1
  6
CONTINUOUS
 62
     7
  5
169
 10
0.0
 20
0.0
 30
0.0
 40
0.848671
 50
68.275888
 51
86.009826
  0
ARC
  8
TRMODEL1
  6
CONTINUOUS
 62
     7
  5
16A
 10
0.0
 20
0.0
 30
0.0
 40
0.966781
 50
67.787764
 51
86.49795
  0
LINE
  8
TRMODEL1
  6
CONTINUOUS
 62
     7
  5
16B
 10
0.483198
 20
1.139479
 30
0.0
 11
0.365481
 21
0.895037
 31
0.0
  0
LINE
  8
TRMODEL1
  6
CONTINUOUS
 62
     7
  5
16C
 10
0.059055
 20
0.846614
 30
0.0
 11
0.059055
 21
0.515328
 31
0.0
  0
LINE
  8
TRMODEL1
  6
CONTINUOUS
 62
     7
  5
16D
 10
0.589612
 20
1.088233
 30
0.0
 11
0.471894
 21
0.84379
 31
0.0
  0
LINE
  8
TRMODEL1
  6
CONTINUOUS
 62
     7
  5
16E
 10
0.929748
 20
0.816984
 30
0.0
 11
0.717628
 21
0.647824
 31
0.0
  0
LINE
  8
TRMODEL1
  6
CONTINUOUS
 62
     7
  5
16F
 10
-0.059055
 20
0.846614
 30
0.0
 11
-0.059055
 21
0.515328
 31
0.0
  0
LINE
  8
TRMODEL1
  6
CONTINUOUS
 62
     7
  5
170
 10
1.003389
 20
0.724641
 30
0.0
 11
0.791269
 21
0.555482
 31
0.0
  0
LINE
  8
TRMODEL1
  6
CONTINUOUS
 62
     7
  5
171
 10
-0.314125
 20
0.788396
 30
0.0
 11
-0.170386
 21
0.489918
 31
0.0
  0
LINE
  8
TRMODEL1
  6
CONTINUOUS
 62
     7
  5
172
 10
1.19215
 20
0.332674
 30
0.0
 11
0.927641
 21
0.272302
 31
0.0
  0
LINE
  8
TRMODEL1
  6
CONTINUOUS
 62
     7
  5
173
 10
-0.420539
 20
0.73715
 30
0.0
 11
-0.276799
 21
0.438671
 31
0.0
  0
LINE
  8
TRMODEL1
  6
CONTINUOUS
 62
     7
  5
174
 10
1.218432
 20
0.217525
 30
0.0
 11
0.953923
 21
0.157153
 31
0.0
  0
LINE
  8
TRMODEL1
  6
CONTINUOUS
 62
     7
  5
175
 10
-0.625089
 20
0.574026
 30
0.0
 11
-0.366079
 21
0.367473
 31
0.0
  0
LINE
  8
TRMODEL1
  6
CONTINUOUS
 62
     7
  5
176
 10
1.218432
 20
-0.217525
 30
0.0
 11
0.953923
 21
-0.157153
 31
0.0
  0
LINE
  8
TRMODEL1
  6
CONTINUOUS
 62
     7
  5
177
 10
-0.69873
 20
0.481684
 30
0.0
 11
-0.43972
 21
0.275131
 31
0.0
  0
LINE
  8
TRMODEL1
  6
CONTINUOUS
 62
     7
  5
178
 10
1.19215
 20
-0.332674
 30
0.0
 11
0.927641
 21
-0.272302
 31
0.0
  0
LINE
  8
TRMODEL1
  6
CONTINUOUS
 62
     7
  5
179
 10
-0.812247
 20
0.245964
 30
0.0
 11
-0.489267
 21
0.172246
 31
0.0
  0
LINE
  8
TRMODEL1
  6
CONTINUOUS
 62
     7
  5
17A
 10
1.003389
 20
-0.724641
 30
0.0
 11
0.791269
 21
-0.555482
 31
0.0
  0
LINE
  8
TRMODEL1
  6
CONTINUOUS
 62
     7
  5
17B
 10
-0.838529
 20
0.130815
 30
0.0
 11
-0.515549
 21
0.057097
 31
0.0
  0
LINE
  8
TRMODEL1
  6
CONTINUOUS
 62
     7
  5
17C
 10
0.929748
 20
-0.816984
 30
0.0
 11
0.717628
 21
-0.647824
 31
0.0
  0
LINE
  8
TRMODEL1
  6
CONTINUOUS
 62
     7
  5
17D
 10
-0.838529
 20
-0.130815
 30
0.0
 11
-0.515549
 21
-0.057097
 31
0.0
  0
LINE
  8
TRMODEL1
  6
CONTINUOUS
 62
     7
  5
17E
 10
0.589612
 20
-1.088233
 30
0.0
 11
0.471894
 21
-0.84379
 31
0.0
  0
LINE
  8
TRMODEL1
  6
CONTINUOUS
 62
     7
  5
17F
 10
-0.812247
 20
-0.245964
 30
0.0
 11
-0.489267
 21
-0.172246
 31
0.0
  0
LINE
  8
TRMODEL1
  6
CONTINUOUS
 62
     7
  5
180
 10
0.483198
 20
-1.139479
 30
0.0
 11
0.365481
 21
-0.895037
 31
0.0
  0
LINE
  8
TRMODEL1
  6
CONTINUOUS
 62
     7
  5
181
 10
-0.69873
 20
-0.481684
 30
0.0
 11
-0.43972
 21
-0.275131
 31
0.0
  0
LINE
  8
TRMODEL1
  6
CONTINUOUS
 62
     7
  5
182
 10
0.059055
 20
-1.236287
 30
0.0
 11
0.059055
 21
-0.964976
 31
0.0
  0
LINE
  8
TRMODEL1
  6
CONTINUOUS
 62
     7
  5
183
 10
-0.625089
 20
-0.574026
 30
0.0
 11
-0.366079
 21
-0.367473
 31
0.0
  0
LINE
  8
TRMODEL1
  6
CONTINUOUS
 62
     7
  5
184
 10
-0.059055
 20
-0.964976
 30
0.0
 11
-0.059055
 21
-1.236287
 31
0.0
  0
LINE
  8
TRMODEL1
  6
CONTINUOUS
 62
     7
  5
185
 10
-0.420539
 20
-0.73715
 30
0.0
 11
-0.276799
 21
-0.438671
 31
0.0
  0
LINE
  8
TRMODEL1
  6
CONTINUOUS
 62
     7
  5
186
 10
-0.059055
 20
-0.515328
 30
0.0
 11
-0.059055
 21
-0.846614
 31
0.0
  0
ARC
  8
TRMODEL1
  6
CONTINUOUS
 62
     7
  5
187
 10
0.0
 20
0.0
 30
0.0
 40
1.237697
 50
41.306262
 51
61.550881
  0
ARC
  8
TRMODEL1
  6
CONTINUOUS
 62
     7
  5
188
 10
0.0
 20
0.0
 30
0.0
 40
1.237697
 50
15.591976
 51
35.836596
  0
ARC
  8
TRMODEL1
  6
CONTINUOUS
 62
     7
  5
189
 10
0.0
 20
0.0
 30
0.0
 40
1.237697
 50
349.87769
 51
10.12231
  0
ARC
  8
TRMODEL1
  6
CONTINUOUS
 62
     7
  5
18A
 10
0.0
 20
0.0
 30
0.0
 40
1.237697
 50
324.163404
 51
344.408024
  0
ARC
  8
TRMODEL1
  6
CONTINUOUS
 62
     7
  5
18B
 10
0.0
 20
0.0
 30
0.0
 40
1.237697
 50
298.449119
 51
318.693738
  0
ARC
  8
TRMODEL1
  6
CONTINUOUS
 62
     7
  5
18C
 10
0.0
 20
0.0
 30
0.0
 40
1.237697
 50
272.734833
 51
292.979453
  0
ARC
  8
TRMODEL1
  6
CONTINUOUS
 62
     7
  5
18D
 10
0.0
 20
0.0
 30
0.0
 40
1.237697
 50
247.020547
 51
267.265167
  0
LINE
  8
TRMODEL1
  6
CONTINUOUS
 62
     7
  5
18E
 10
-0.483198
 20
-1.139479
 30
0.0
 11
-0.365481
 21
-0.895037
 31
0.0
  0
LINE
  8
TRMODEL1
  6
CONTINUOUS
 62
     7
  5
18F
 10
0.059055
 20
1.236287
 30
0.0
 11
0.059055
 21
0.964976
 31
0.0
  0
ARC
  8
TRMODEL1
  6
CONTINUOUS
 62
     7
  5
190
 10
0.0
 20
0.0
 30
0.0
 40
1.237697
 50
67.020547
 51
87.265167
  0
LINE
  8
TRMODEL1
  6
CONTINUOUS
 62
     7
  5
191
 10
-0.483198
 20
1.139479
 30
0.0
 11
-0.365481
 21
0.895037
 31
0.0
  0
ARC
  8
TRMODEL1
  6
CONTINUOUS
 62
     7
  5
192
 10
0.0
 20
0.0
 30
0.0
 40
1.237697
 50
92.734833
 51
112.979453
  0
LINE
  8
TRMODEL1
  6
CONTINUOUS
 62
     7
  5
193
 10
-0.059055
 20
1.236287
 30
0.0
 11
-0.059055
 21
0.964976
 31
0.0
  0
LINE
  8
TRMODEL1
  6
CONTINUOUS
 62
     7
  5
194
 10
-0.929748
 20
0.816984
 30
0.0
 11
-0.717628
 21
0.647824
 31
0.0
  0
ARC
  8
TRMODEL1
  6
CONTINUOUS
 62
     7
  5
195
 10
0.0
 20
0.0
 30
0.0
 40
1.237697
 50
118.449119
 51
138.693738
  0
LINE
  8
TRMODEL1
  6
CONTINUOUS
 62
     7
  5
196
 10
-0.589612
 20
1.088233
 30
0.0
 11
-0.471894
 21
0.84379
 31
0.0
  0
LINE
  8
TRMODEL1
  6
CONTINUOUS
 62
     7
  5
197
 10
-1.19215
 20
0.332674
 30
0.0
 11
-0.927641
 21
0.272302
 31
0.0
  0
ARC
  8
TRMODEL1
  6
CONTINUOUS
 62
     7
  5
198
 10
0.0
 20
0.0
 30
0.0
 40
1.237697
 50
144.163404
 51
164.408024
  0
LINE
  8
TRMODEL1
  6
CONTINUOUS
 62
     7
  5
199
 10
-1.003389
 20
0.724641
 30
0.0
 11
-0.791269
 21
0.555482
 31
0.0
  0
LINE
  8
TRMODEL1
  6
CONTINUOUS
 62
     7
  5
19A
 10
-1.218432
 20
-0.217525
 30
0.0
 11
-0.953923
 21
-0.157153
 31
0.0
  0
ARC
  8
TRMODEL1
  6
CONTINUOUS
 62
     7
  5
19B
 10
0.0
 20
0.0
 30
0.0
 40
1.237697
 50
169.87769
 51
190.12231
  0
LINE
  8
TRMODEL1
  6
CONTINUOUS
 62
     7
  5
19C
 10
-1.218432
 20
0.217525
 30
0.0
 11
-0.953923
 21
0.157153
 31
0.0
  0
LINE
  8
TRMODEL1
  6
CONTINUOUS
 62
     7
  5
19D
 10
-1.003389
 20
-0.724641
 30
0.0
 11
-0.791269
 21
-0.555482
 31
0.0
  0
ARC
  8
TRMODEL1
  6
CONTINUOUS
 62
     7
  5
19E
 10
0.0
 20
0.0
 30
0.0
 40
1.237697
 50
195.591976
 51
215.836596
  0
LINE
  8
TRMODEL1
  6
CONTINUOUS
 62
     7
  5
19F
 10
-1.19215
 20
-0.332674
 30
0.0
 11
-0.927641
 21
-0.272302
 31
0.0
  0
LINE
  8
TRMODEL1
  6
CONTINUOUS
 62
     7
  5
1A0
 10
-0.589612
 20
-1.088233
 30
0.0
 11
-0.471894
 21
-0.84379
 31
0.0
  0
ARC
  8
TRMODEL1
  6
CONTINUOUS
 62
     7
  5
1A1
 10
0.0
 20
0.0
 30
0.0
 40
1.237697
 50
221.306262
 51
241.550881
  0
LINE
  8
TRMODEL1
  6
CONTINUOUS
 62
     7
  5
1A2
 10
-0.929748
 20
-0.816984
 30
0.0
 11
-0.717628
 21
-0.647824
 31
0.0
  0
LINE
  8
TRMODEL1
  6
CONTINUOUS
 62
     7
  5
1A3
 10
2.440945
 20
2.322835
 30
0.0
 11
2.440945
 21
-2.322835
 31
0.0
  0
ARC
  8
TRMODEL1
  6
CONTINUOUS
 62
     7
  5
1A4
 10
2.322835
 20
2.322835
 30
0.0
 40
0.11811
 50
0.0
 51
90.0
  0
LINE
  8
TRMODEL1
  6
CONTINUOUS
 62
     7
  5
1A5
 10
-2.322835
 20
2.440945
 30
0.0
 11
2.322835
 21
2.440945
 31
0.0
  0
ARC
  8
TRMODEL1
  6
CONTINUOUS
 62
     7
  5
1A6
 10
-2.322835
 20
2.322835
 30
0.0
 40
0.11811
 50
90.0
 51
180.0
  0
LINE
  8
TRMODEL1
  6
CONTINUOUS
 62
     7
  5
1A7
 10
-2.440945
 20
-2.322835
 30
0.0
 11
-2.440945
 21
2.322835
 31
0.0
  0
ARC
  8
TRMODEL1
  6
CONTINUOUS
 62
     7
  5
1A8
 10
-2.322835
 20
-2.322835
 30
0.0
 40
0.11811
 50
180.0
 51
270.0
  0
LINE
  8
TRMODEL1
  6
CONTINUOUS
 62
     7
  5
1A9
 10
2.322835
 20
-2.440945
 30
0.0
 11
-2.322835
 21
-2.440945
 31
0.0
  0
ARC
  8
TRMODEL1
  6
CONTINUOUS
 62
     7
  5
1AA
 10
2.322835
 20
-2.322835
 30
0.0
 40
0.11811
 50
270.0
 51
0.0
  0
ARC
  8
TRMODEL1
  6
CONTINUOUS
 62
     7
  5
1AB
 10
0.0
 20
0.0
 30
0.0
 40
1.744833
 50
66.225302
 51
88.060413
  0
LINE
  8
TRMODEL1
  6
CONTINUOUS
 62
     7
  5
1AC
 10
0.059055
 20
2.073963
 30
0.0
 11
0.059055
 21
1.743833
 31
0.0
  0
ARC
  8
TRMODEL1
  6
CONTINUOUS
 62
     7
  5
1AD
 10
0.0
 20
0.0
 30
0.0
 40
2.074803
 50
65.916744
 51
88.36897
  0
LINE
  8
TRMODEL1
  6
CONTINUOUS
 62
     7
  5
1AE
 10
0.846652
 20
1.894199
 30
0.0
 11
0.703414
 21
1.596762
 31
0.0
  0
ARC
  8
TRMODEL1
  6
CONTINUOUS
 62
     7
  5
1AF
 10
0.0
 20
0.0
 30
0.0
 40
1.744833
 50
40.511016
 51
62.346127
  0
LINE
  8
TRMODEL1
  6
CONTINUOUS
 62
     7
  5
1B0
 10
0.953065
 20
1.842953
 30
0.0
 11
0.809828
 21
1.545516
 31
0.0
  0
ARC
  8
TRMODEL1
  6
CONTINUOUS
 62
     7
  5
1B1
 10
0.0
 20
0.0
 30
0.0
 40
2.074803
 50
40.202459
 51
62.654684
  0
LINE
  8
TRMODEL1
  6
CONTINUOUS
 62
     7
  5
1B2
 10
1.584669
 20
1.339266
 30
0.0
 11
1.326563
 21
1.133433
 31
0.0
  0
ARC
  8
TRMODEL1
  6
CONTINUOUS
 62
     7
  5
1B3
 10
0.0
 20
0.0
 30
0.0
 40
1.744833
 50
14.79673
 51
36.631841
  0
LINE
  8
TRMODEL1
  6
CONTINUOUS
 62
     7
  5
1B4
 10
1.658309
 20
1.246923
 30
0.0
 11
1.400204
 21
1.041091
 31
0.0
  0
ARC
  8
TRMODEL1
  6
CONTINUOUS
 62
     7
  5
1B5
 10
0.0
 20
0.0
 30
0.0
 40
2.074803
 50
14.488173
 51
36.940399
  0
LINE
  8
TRMODEL1
  6
CONTINUOUS
 62
     7
  5
1B6
 10
2.008823
 20
0.519075
 30
0.0
 11
1.68697
 21
0.445614
 31
0.0
  0
ARC
  8
TRMODEL1
  6
CONTINUOUS
 62
     7
  5
1B7
 10
0.0
 20
0.0
 30
0.0
 40
1.744833
 50
349.082444
 51
10.917556
  0
LINE
  8
TRMODEL1
  6
CONTINUOUS
 62
     7
  5
1B8
 10
2.035105
 20
0.403926
 30
0.0
 11
1.713252
 21
0.330465
 31
0.0
  0
ARC
  8
TRMODEL1
  6
CONTINUOUS
 62
     7
  5
1B9
 10
0.0
 20
0.0
 30
0.0
 40
2.074803
 50
348.773887
 51
11.226113
  0
LINE
  8
TRMODEL1
  6
CONTINUOUS
 62
     7
  5
1BA
 10
2.035105
 20
-0.403926
 30
0.0
 11
1.713252
 21
-0.330465
 31
0.0
  0
ARC
  8
TRMODEL1
  6
CONTINUOUS
 62
     7
  5
1BB
 10
0.0
 20
0.0
 30
0.0
 40
1.744833
 50
323.368159
 51
345.20327
  0
LINE
  8
TRMODEL1
  6
CONTINUOUS
 62
     7
  5
1BC
 10
2.008823
 20
-0.519075
 30
0.0
 11
1.68697
 21
-0.445614
 31
0.0
  0
ARC
  8
TRMODEL1
  6
CONTINUOUS
 62
     7
  5
1BD
 10
0.0
 20
0.0
 30
0.0
 40
2.074803
 50
323.059601
 51
345.511827
  0
LINE
  8
TRMODEL1
  6
CONTINUOUS
 62
     7
  5
1BE
 10
1.658309
 20
-1.246923
 30
0.0
 11
1.400204
 21
-1.041091
 31
0.0
  0
ARC
  8
TRMODEL1
  6
CONTINUOUS
 62
     7
  5
1BF
 10
0.0
 20
0.0
 30
0.0
 40
1.744833
 50
297.653873
 51
319.488984
  0
LINE
  8
TRMODEL1
  6
CONTINUOUS
 62
     7
  5
1C0
 10
1.584669
 20
-1.339266
 30
0.0
 11
1.326563
 21
-1.133433
 31
0.0
  0
ARC
  8
TRMODEL1
  6
CONTINUOUS
 62
     7
  5
1C1
 10
0.0
 20
0.0
 30
0.0
 40
2.074803
 50
297.345316
 51
319.797541
  0
LINE
  8
TRMODEL1
  6
CONTINUOUS
 62
     7
  5
1C2
 10
0.953065
 20
-1.842953
 30
0.0
 11
0.809828
 21
-1.545516
 31
0.0
  0
ARC
  8
TRMODEL1
  6
CONTINUOUS
 62
     7
  5
1C3
 10
0.0
 20
0.0
 30
0.0
 40
1.744833
 50
271.939587
 51
293.774698
  0
LINE
  8
TRMODEL1
  6
CONTINUOUS
 62
     7
  5
1C4
 10
0.846652
 20
-1.894199
 30
0.0
 11
0.703414
 21
-1.596762
 31
0.0
  0
ARC
  8
TRMODEL1
  6
CONTINUOUS
 62
     7
  5
1C5
 10
0.0
 20
0.0
 30
0.0
 40
2.074803
 50
271.63103
 51
294.083256
  0
LINE
  8
TRMODEL1
  6
CONTINUOUS
 62
     7
  5
1C6
 10
0.059055
 20
-2.073963
 30
0.0
 11
0.059055
 21
-1.743833
 31
0.0
  0
LINE
  8
TRMODEL1
  6
CONTINUOUS
 62
     7
  5
1C7
 10
-0.846652
 20
1.894199
 30
0.0
 11
-0.703414
 21
1.596762
 31
0.0
  0
ARC
  8
TRMODEL1
  6
CONTINUOUS
 62
     7
  5
1C8
 10
0.0
 20
0.0
 30
0.0
 40
2.074803
 50
91.63103
 51
114.083256
  0
LINE
  8
TRMODEL1
  6
CONTINUOUS
 62
     7
  5
1C9
 10
-0.059055
 20
2.073963
 30
0.0
 11
-0.059055
 21
1.743833
 31
0.0
  0
ARC
  8
TRMODEL1
  6
CONTINUOUS
 62
     7
  5
1CA
 10
0.0
 20
0.0
 30
0.0
 40
1.744833
 50
91.939587
 51
113.774698
  0
LINE
  8
TRMODEL1
  6
CONTINUOUS
 62
     7
  5
1CB
 10
-1.584669
 20
1.339266
 30
0.0
 11
-1.326563
 21
1.133433
 31
0.0
  0
ARC
  8
TRMODEL1
  6
CONTINUOUS
 62
     7
  5
1CC
 10
0.0
 20
0.0
 30
0.0
 40
2.074803
 50
117.345316
 51
139.797541
  0
LINE
  8
TRMODEL1
  6
CONTINUOUS
 62
     7
  5
1CD
 10
-0.953065
 20
1.842953
 30
0.0
 11
-0.809828
 21
1.545516
 31
0.0
  0
ARC
  8
TRMODEL1
  6
CONTINUOUS
 62
     7
  5
1CE
 10
0.0
 20
0.0
 30
0.0
 40
1.744833
 50
117.653873
 51
139.488984
  0
LINE
  8
TRMODEL1
  6
CONTINUOUS
 62
     7
  5
1CF
 10
-2.008823
 20
0.519075
 30
0.0
 11
-1.68697
 21
0.445614
 31
0.0
  0
ARC
  8
TRMODEL1
  6
CONTINUOUS
 62
     7
  5
1D0
 10
0.0
 20
0.0
 30
0.0
 40
2.074803
 50
143.059601
 51
165.511827
  0
LINE
  8
TRMODEL1
  6
CONTINUOUS
 62
     7
  5
1D1
 10
-1.658309
 20
1.246923
 30
0.0
 11
-1.400204
 21
1.041091
 31
0.0
  0
ARC
  8
TRMODEL1
  6
CONTINUOUS
 62
     7
  5
1D2
 10
0.0
 20
0.0
 30
0.0
 40
1.744833
 50
143.368159
 51
165.20327
  0
LINE
  8
TRMODEL1
  6
CONTINUOUS
 62
     7
  5
1D3
 10
-2.035105
 20
-0.403926
 30
0.0
 11
-1.713252
 21
-0.330465
 31
0.0
  0
ARC
  8
TRMODEL1
  6
CONTINUOUS
 62
     7
  5
1D4
 10
0.0
 20
0.0
 30
0.0
 40
2.074803
 50
168.773887
 51
191.226113
  0
LINE
  8
TRMODEL1
  6
CONTINUOUS
 62
     7
  5
1D5
 10
-2.035105
 20
0.403926
 30
0.0
 11
-1.713252
 21
0.330465
 31
0.0
  0
ARC
  8
TRMODEL1
  6
CONTINUOUS
 62
     7
  5
1D6
 10
0.0
 20
0.0
 30
0.0
 40
1.744833
 50
169.082444
 51
190.917556
  0
LINE
  8
TRMODEL1
  6
CONTINUOUS
 62
     7
  5
1D7
 10
-1.658309
 20
-1.246923
 30
0.0
 11
-1.400204
 21
-1.041091
 31
0.0
  0
ARC
  8
TRMODEL1
  6
CONTINUOUS
 62
     7
  5
1D8
 10
0.0
 20
0.0
 30
0.0
 40
2.074803
 50
194.488173
 51
216.940399
  0
LINE
  8
TRMODEL1
  6
CONTINUOUS
 62
     7
  5
1D9
 10
-2.008823
 20
-0.519075
 30
0.0
 11
-1.68697
 21
-0.445614
 31
0.0
  0
ARC
  8
TRMODEL1
  6
CONTINUOUS
 62
     7
  5
1DA
 10
0.0
 20
0.0
 30
0.0
 40
1.744833
 50
194.79673
 51
216.631841
  0
LINE
  8
TRMODEL1
  6
CONTINUOUS
 62
     7
  5
1DB
 10
-0.953065
 20
-1.842953
 30
0.0
 11
-0.809828
 21
-1.545516
 31
0.0
  0
ARC
  8
TRMODEL1
  6
CONTINUOUS
 62
     7
  5
1DC
 10
0.0
 20
0.0
 30
0.0
 40
2.074803
 50
220.202459
 51
242.654684
  0
LINE
  8
TRMODEL1
  6
CONTINUOUS
 62
     7
  5
1DD
 10
-1.584669
 20
-1.339266
 30
0.0
 11
-1.326563
 21
-1.133433
 31
0.0
  0
ARC
  8
TRMODEL1
  6
CONTINUOUS
 62
     7
  5
1DE
 10
0.0
 20
0.0
 30
0.0
 40
1.744833
 50
220.511016
 51
242.346127
  0
LINE
  8
TRMODEL1
  6
CONTINUOUS
 62
     7
  5
1DF
 10
-0.059055
 20
-1.743833
 30
0.0
 11
-0.059055
 21
-2.073963
 31
0.0
  0
ARC
  8
TRMODEL1
  6
CONTINUOUS
 62
     7
  5
1E0
 10
0.0
 20
0.0
 30
0.0
 40
2.074803
 50
245.916744
 51
268.36897
  0
LINE
  8
TRMODEL1
  6
CONTINUOUS
 62
     7
  5
1E1
 10
-0.846652
 20
-1.894199
 30
0.0
 11
-0.703414
 21
-1.596762
 31
0.0
  0
ARC
  8
TRMODEL1
  6
CONTINUOUS
 62
     7
  5
1E2
 10
0.0
 20
0.0
 30
0.0
 40
1.744833
 50
246.225302
 51
268.060413
  0
ARC
  8
TRMODEL1
  6
CONTINUOUS
 62
     7
  5
1E3
 10
0.0
 20
0.0
 30
0.0
 40
1.355807
 50
221.06786
 51
241.789283
  0
LINE
  8
TRMODEL1
  6
CONTINUOUS
 62
     7
  5
1E4
 10
-0.75855
 20
-1.439037
 30
0.0
 11
-0.640911
 21
-1.194758
 31
0.0
  0
ARC
  8
TRMODEL1
  6
CONTINUOUS
 62
     7
  5
1E5
 10
0.0
 20
0.0
 30
0.0
 40
1.626722
 50
220.651902
 51
242.205241
  0
LINE
  8
TRMODEL1
  6
CONTINUOUS
 62
     7
  5
1E6
 10
-1.234164
 20
-1.059747
 30
0.0
 11
-1.022186
 21
-0.890701
 31
0.0
  0
ARC
  8
TRMODEL1
  6
CONTINUOUS
 62
     7
  5
1E7
 10
0.0
 20
0.0
 30
0.0
 40
1.355807
 50
195.353575
 51
216.074997
  0
LINE
  8
TRMODEL1
  6
CONTINUOUS
 62
     7
  5
1E8
 10
-1.307805
 20
-0.967405
 30
0.0
 11
-1.095827
 21
-0.798358
 31
0.0
  0
ARC
  8
TRMODEL1
  6
CONTINUOUS
 62
     7
  5
1E9
 10
0.0
 20
0.0
 30
0.0
 40
1.626722
 50
194.937616
 51
216.490955
  0
LINE
  8
TRMODEL1
  6
CONTINUOUS
 62
     7
  5
1EA
 10
-1.571751
 20
-0.419316
 30
0.0
 11
-1.307419
 21
-0.358984
 31
0.0
  0
ARC
  8
TRMODEL1
  6
CONTINUOUS
 62
     7
  5
1EB
 10
0.0
 20
0.0
 30
0.0
 40
1.355807
 50
169.639289
 51
190.360711
  0
LINE
  8
TRMODEL1
  6
CONTINUOUS
 62
     7
  5
1EC
 10
-1.598033
 20
-0.304167
 30
0.0
 11
-1.333701
 21
-0.243835
 31
0.0
  0
ARC
  8
TRMODEL1
  6
CONTINUOUS
 62
     7
  5
1ED
 10
0.0
 20
0.0
 30
0.0
 40
1.626722
 50
169.22333
 51
190.77667
  0
LINE
  8
TRMODEL1
  6
CONTINUOUS
 62
     7
  5
1EE
 10
-1.598033
 20
0.304167
 30
0.0
 11
-1.333701
 21
0.243835
 31
0.0
  0
ARC
  8
TRMODEL1
  6
CONTINUOUS
 62
     7
  5
1EF
 10
0.0
 20
0.0
 30
0.0
 40
1.355807
 50
143.925003
 51
164.646425
  0
LINE
  8
TRMODEL1
  6
CONTINUOUS
 62
     7
  5
1F0
 10
-1.571751
 20
0.419316
 30
0.0
 11
-1.307419
 21
0.358984
 31
0.0
  0
ARC
  8
TRMODEL1
  6
CONTINUOUS
 62
     7
  5
1F1
 10
0.0
 20
0.0
 30
0.0
 40
1.626722
 50
143.509045
 51
165.062384
  0
LINE
  8
TRMODEL1
  6
CONTINUOUS
 62
     7
  5
1F2
 10
-1.307805
 20
0.967405
 30
0.0
 11
-1.095827
 21
0.798358
 31
0.0
  0
ARC
  8
TRMODEL1
  6
CONTINUOUS
 62
     7
  5
1F3
 10
0.0
 20
0.0
 30
0.0
 40
1.355807
 50
118.210717
 51
138.93214
  0
LINE
  8
TRMODEL1
  6
CONTINUOUS
 62
     7
  5
1F4
 10
-1.234164
 20
1.059747
 30
0.0
 11
-1.022186
 21
0.890701
 31
0.0
  0
ARC
  8
TRMODEL1
  6
CONTINUOUS
 62
     7
  5
1F5
 10
0.0
 20
0.0
 30
0.0
 40
1.626722
 50
117.794759
 51
139.348098
  0
LINE
  8
TRMODEL1
  6
CONTINUOUS
 62
     7
  5
1F6
 10
-0.75855
 20
1.439037
 30
0.0
 11
-0.640911
 21
1.194758
 31
0.0
  0
ARC
  8
TRMODEL1
  6
CONTINUOUS
 62
     7
  5
1F7
 10
0.0
 20
0.0
 30
0.0
 40
1.355807
 50
92.496432
 51
113.217854
  0
LINE
  8
TRMODEL1
  6
CONTINUOUS
 62
     7
  5
1F8
 10
-0.652136
 20
1.490283
 30
0.0
 11
-0.534498
 21
1.246004
 31
0.0
  0
ARC
  8
TRMODEL1
  6
CONTINUOUS
 62
     7
  5
1F9
 10
0.0
 20
0.0
 30
0.0
 40
1.626722
 50
92.080473
 51
113.633812
  0
LINE
  8
TRMODEL1
  6
CONTINUOUS
 62
     7
  5
1FA
 10
-0.059055
 20
1.62565
 30
0.0
 11
-0.059055
 21
1.35452
 31
0.0
  0
LINE
  8
TRMODEL1
  6
CONTINUOUS
 62
     7
  5
1FB
 10
-0.059055
 20
-1.35452
 30
0.0
 11
-0.059055
 21
-1.62565
 31
0.0
  0
ARC
  8
TRMODEL1
  6
CONTINUOUS
 62
     7
  5
1FC
 10
0.0
 20
0.0
 30
0.0
 40
1.626722
 50
246.366188
 51
267.919527
  0
LINE
  8
TRMODEL1
  6
CONTINUOUS
 62
     7
  5
1FD
 10
-0.652136
 20
-1.490283
 30
0.0
 11
-0.534498
 21
-1.246004
 31
0.0
  0
ARC
  8
TRMODEL1
  6
CONTINUOUS
 62
     7
  5
1FE
 10
0.0
 20
0.0
 30
0.0
 40
1.355807
 50
246.782146
 51
267.503568
  0
LINE
  8
TRMODEL1
  6
CONTINUOUS
 62
     7
  5
1FF
 10
0.652136
 20
-1.490283
 30
0.0
 11
0.534498
 21
-1.246004
 31
0.0
  0
ARC
  8
TRMODEL1
  6
CONTINUOUS
 62
     7
  5
200
 10
0.0
 20
0.0
 30
0.0
 40
1.626722
 50
272.080473
 51
293.633812
  0
LINE
  8
TRMODEL1
  6
CONTINUOUS
 62
     7
  5
201
 10
0.059055
 20
-1.62565
 30
0.0
 11
0.059055
 21
-1.35452
 31
0.0
  0
ARC
  8
TRMODEL1
  6
CONTINUOUS
 62
     7
  5
202
 10
0.0
 20
0.0
 30
0.0
 40
1.355807
 50
272.496432
 51
293.217854
  0
LINE
  8
TRMODEL1
  6
CONTINUOUS
 62
     7
  5
203
 10
1.234164
 20
-1.059747
 30
0.0
 11
1.022186
 21
-0.890701
 31
0.0
  0
ARC
  8
TRMODEL1
  6
CONTINUOUS
 62
     7
  5
204
 10
0.0
 20
0.0
 30
0.0
 40
1.626722
 50
297.794759
 51
319.348098
  0
LINE
  8
TRMODEL1
  6
CONTINUOUS
 62
     7
  5
205
 10
0.75855
 20
-1.439037
 30
0.0
 11
0.640911
 21
-1.194758
 31
0.0
  0
ARC
  8
TRMODEL1
  6
CONTINUOUS
 62
     7
  5
206
 10
0.0
 20
0.0
 30
0.0
 40
1.355807
 50
298.210717
 51
318.93214
  0
LINE
  8
TRMODEL1
  6
CONTINUOUS
 62
     7
  5
207
 10
1.571751
 20
-0.419316
 30
0.0
 11
1.307419
 21
-0.358984
 31
0.0
  0
ARC
  8
TRMODEL1
  6
CONTINUOUS
 62
     7
  5
208
 10
0.0
 20
0.0
 30
0.0
 40
1.626722
 50
323.509045
 51
345.062384
  0
LINE
  8
TRMODEL1
  6
CONTINUOUS
 62
     7
  5
209
 10
1.307805
 20
-0.967405
 30
0.0
 11
1.095827
 21
-0.798358
 31
0.0
  0
ARC
  8
TRMODEL1
  6
CONTINUOUS
 62
     7
  5
20A
 10
0.0
 20
0.0
 30
0.0
 40
1.355807
 50
323.925003
 51
344.646425
  0
LINE
  8
TRMODEL1
  6
CONTINUOUS
 62
     7
  5
20B
 10
1.598033
 20
0.304167
 30
0.0
 11
1.333701
 21
0.243835
 31
0.0
  0
ARC
  8
TRMODEL1
  6
CONTINUOUS
 62
     7
  5
20C
 10
0.0
 20
0.0
 30
0.0
 40
1.626722
 50
349.22333
 51
10.77667
  0
LINE
  8
TRMODEL1
  6
CONTINUOUS
 62
     7
  5
20D
 10
1.598033
 20
-0.304167
 30
0.0
 11
1.333701
 21
-0.243835
 31
0.0
  0
ARC
  8
TRMODEL1
  6
CONTINUOUS
 62
     7
  5
20E
 10
0.0
 20
0.0
 30
0.0
 40
1.355807
 50
349.639289
 51
10.360711
  0
LINE
  8
TRMODEL1
  6
CONTINUOUS
 62
     7
  5
20F
 10
1.307805
 20
0.967405
 30
0.0
 11
1.095827
 21
0.798358
 31
0.0
  0
ARC
  8
TRMODEL1
  6
CONTINUOUS
 62
     7
  5
210
 10
0.0
 20
0.0
 30
0.0
 40
1.626722
 50
14.937616
 51
36.490955
  0
LINE
  8
TRMODEL1
  6
CONTINUOUS
 62
     7
  5
211
 10
1.571751
 20
0.419316
 30
0.0
 11
1.307419
 21
0.358984
 31
0.0
  0
ARC
  8
TRMODEL1
  6
CONTINUOUS
 62
     7
  5
212
 10
0.0
 20
0.0
 30
0.0
 40
1.355807
 50
15.353575
 51
36.074997
  0
LINE
  8
TRMODEL1
  6
CONTINUOUS
 62
     7
  5
213
 10
0.75855
 20
1.439037
 30
0.0
 11
0.640911
 21
1.194758
 31
0.0
  0
ARC
  8
TRMODEL1
  6
CONTINUOUS
 62
     7
  5
214
 10
0.0
 20
0.0
 30
0.0
 40
1.626722
 50
40.651902
 51
62.205241
  0
LINE
  8
TRMODEL1
  6
CONTINUOUS
 62
     7
  5
215
 10
1.234164
 20
1.059747
 30
0.0
 11
1.022186
 21
0.890701
 31
0.0
  0
ARC
  8
TRMODEL1
  6
CONTINUOUS
 62
     7
  5
216
 10
0.0
 20
0.0
 30
0.0
 40
1.355807
 50
41.06786
 51
61.789283
  0
LINE
  8
TRMODEL1
  6
CONTINUOUS
 62
     7
  5
217
 10
0.059055
 20
1.62565
 30
0.0
 11
0.059055
 21
1.35452
 31
0.0
  0
ARC
  8
TRMODEL1
  6
CONTINUOUS
 62
     7
  5
218
 10
0.0
 20
0.0
 30
0.0
 40
1.626722
 50
66.366188
 51
87.919527
  0
LINE
  8
TRMODEL1
  6
CONTINUOUS
 62
     7
  5
219
 10
0.652136
 20
1.490283
 30
0.0
 11
0.534498
 21
1.246004
 31
0.0
  0
ARC
  8
TRMODEL1
  6
CONTINUOUS
 62
     7
  5
21A
 10
0.0
 20
0.0
 30
0.0
 40
1.355807
 50
66.782146
 51
87.503568
  0
LINE
  8
TRMODEL1
  6
CONTINUOUS
 62
     7
  5
21B
 10
-2.992126
 20
-2.992126
 30
0.0
 11
-2.992126
 21
2.992126
 31
0.0
  0
LINE
  8
TRMODEL1
  6
CONTINUOUS
 62
     7
  5
21C
 10
2.992126
 20
-2.992126
 30
0.0
 11
-2.992126
 21
-2.992126
 31
0.0
  0
LINE
  8
TRMODEL1
  6
CONTINUOUS
 62
     7
  5
21D
 10
2.992126
 20
2.992126
 30
0.0
 11
2.992126
 21
-2.992126
 31
0.0
  0
LINE
  8
TRMODEL1
  6
CONTINUOUS
 62
     7
  5
21E
 10
-2.992126
 20
2.992126
 30
0.0
 11
2.992126
 21
2.992126
 31
0.0
  0
ENDSEC
  0
EOF
