  0
SECTION
  2
HEADER
  9
$ACADVER
  1
AC1009
  9
$DWGCODEPAGE
  3
ansi_1252
  9
$INSBASE
 10
0.0
 20
0.0
 30
0.0
  9
$EXTMIN
 10
-2.362205
 20
-2.362205
 30
0.0
  9
$EXTMAX
 10
2.362205
 20
2.362205
 30
0.0
  9
$LIMMIN
 10
0.0
 20
0.0
  9
$LIMMAX
 10
0.0
 20
0.0
  9
$ORTHOMODE
 70
     0
  9
$REGENMODE
 70
     1
  9
$FILLMODE
 70
     1
  9
$QTEXTMODE
 70
     0
  9
$MIRRTEXT
 70
     1
  9
$DRAGMODE
 70
     2
  9
$LTSCALE
 40
1.0
  9
$OSMODE
 70
     0
  9
$ATTMODE
 70
     1
  9
$TEXTSIZE
 40
0.2
  9
$TRACEWID
 40
0.05
  9
$TEXTSTYLE
  7
STANDARD
  9
$CLAYER
  8
0
  9
$CELTYPE
  6
CONTINUOUS
  9
$CECOLOR
 62
   256
  9
$DIMSCALE
 40
1.0
  9
$DIMASZ
 40
0.18
  9
$DIMEXO
 40
0.0625
  9
$DIMDLI
 40
0.38
  9
$DIMRND
 40
0.0
  9
$DIMDLE
 40
0.0
  9
$DIMEXE
 40
0.18
  9
$DIMTP
 40
0.0
  9
$DIMTM
 40
0.0
  9
$DIMTXT
 40
0.18
  9
$DIMCEN
 40
0.09
  9
$DIMTSZ
 40
0.0
  9
$DIMTOL
 70
     0
  9
$DIMLIM
 70
     0
  9
$DIMTIH
 70
     1
  9
$DIMTOH
 70
     1
  9
$DIMSE1
 70
     0
  9
$DIMSE2
 70
     0
  9
$DIMTAD
 70
     0
  9
$DIMZIN
 70
     0
  9
$DIMBLK
  1

  9
$DIMASO
 70
     1
  9
$DIMSHO
 70
     1
  9
$DIMPOST
  1

  9
$DIMAPOST
  1

  9
$DIMALT
 70
     0
  9
$DIMALTD
 70
     2
  9
$DIMALTF
 40
25.4
  9
$DIMLFAC
 40
1.0
  9
$DIMTOFL
 70
     0
  9
$DIMTVP
 40
0.0
  9
$DIMTIX
 70
     0
  9
$DIMSOXD
 70
     0
  9
$DIMSAH
 70
     0
  9
$DIMBLK1
  1

  9
$DIMBLK2
  1

  9
$DIMSTYLE
  2
STANDARD
  9
$DIMCLRD
 70
     0
  9
$DIMCLRE
 70
     0
  9
$DIMCLRT
 70
     0
  9
$DIMTFAC
 40
1.0
  9
$DIMGAP
 40
0.09
  9
$LUNITS
 70
     2
  9
$LUPREC
 70
     4
  9
$AXISMODE
 70
     0
  9
$AXISUNIT
 10
0.0
 20
0.0
  9
$SKETCHINC
 40
0.1
  9
$FILLETRAD
 40
0.0
  9
$AUNITS
 70
     0
  9
$AUPREC
 70
     0
  9
$MENU
  1
acad
  9
$ELEVATION
 40
0.0
  9
$PELEVATION
 40
0.0
  9
$THICKNESS
 40
0.0
  9
$LIMCHECK
 70
     0
  9
$BLIPMODE
 70
     1
  9
$CHAMFERA
 40
0.0
  9
$CHAMFERB
 40
0.0
  9
$SKPOLY
 70
     0
  9
$TDCREATE
 40
0.000000000
  9
$TDUPDATE
 40
0.000000000
  9
$TDINDWG
 40
0.0000000000
  9
$TDUSRTIMER
 40
0.0000000000
  9
$USRTIMER
 70
     1
  9
$ANGBASE
 50
0.0
  9
$ANGDIR
 70
     0
  9
$PDMODE
 70
     0
  9
$PDSIZE
 40
0.0
  9
$PLINEWID
 40
0.0
  9
$COORDS
 70
     0
  9
$SPLFRAME
 70
     0
  9
$SPLINETYPE
 70
     6
  9
$SPLINESEGS
 70
     8
  9
$ATTDIA
 70
     0
  9
$ATTREQ
 70
     1
  9
$HANDLING
 70
     1
  9
$HANDSEED
  5
8AB
  9
$SURFTAB1
 70
     6
  9
$SURFTAB2
 70
     6
  9
$SURFTYPE
 70
     6
  9
$SURFU
 70
     6
  9
$SURFV
 70
     6
  9
$UCSNAME
  2

  9
$UCSORG
 10
0.0
 20
0.0
 30
0.0
  9
$UCSXDIR
 10
1.0
 20
0.0
 30
0.0
  9
$UCSYDIR
 10
0.0
 20
1.0
 30
0.0
  9
$PUCSNAME
  2

  9
$PUCSORG
 10
0.0
 20
0.0
 30
0.0
  9
$PUCSXDIR
 10
1.0
 20
0.0
 30
0.0
  9
$PUCSYDIR
 10
0.0
 20
1.0
 30
0.0
  9
$USERI1
 70
     0
  9
$USERI2
 70
     0
  9
$USERI3
 70
     0
  9
$USERI4
 70
     0
  9
$USERI5
 70
     0
  9
$USERR1
 40
0.0
  9
$USERR2
 40
0.0
  9
$USERR3
 40
0.0
  9
$USERR4
 40
0.0
  9
$USERR5
 40
0.0
  9
$WORLDVIEW
 70
     1
  9
$SHADEDGE
 70
     3
  9
$SHADEDIF
 70
    70
  9
$TILEMODE
 70
     1
  9
$MAXACTVP
 70
    16
  9
$PINSBASE
 10
0.0
 20
0.0
 30
0.0
  9
$PLIMCHECK
 70
     0
  9
$PEXTMIN
 10
1.000000E+20
 20
1.000000E+20
 30
1.000000E+20
  9
$PEXTMAX
 10
-1.000000E+20
 20
-1.000000E+20
 30
-1.000000E+20
  9
$PLIMMIN
 10
0.0
 20
0.0
  9
$PLIMMAX
 10
12.0
 20
9.0
  9
$UNITMODE
 70
     0
  9
$VISRETAIN
 70
     0
  9
$PLINEGEN
 70
     1
  9
$PSLTSCALE
 70
     0
  9
$TREEDEPTH
 70
  3020
  0
ENDSEC
  0
SECTION
  2
TABLES
  0
TABLE
  2
VPORT
 70
     1
  0
VPORT
  2
*ACTIVE
 70
     0
 10
0.0
 20
0.0
 11
1.0
 21
1.0
 12
6.591288
 22
4.579184
 13
0.0
 23
0.0
 14
1.0
 24
1.0
 15
0.0
 25
0.0
 16
0.0
 26
0.0
 36
1.0
 17
0.0
 27
0.0
 37
0.0
 40
9.158369
 41
0.688564
 42
50.0
 43
0.0
 44
0.0
 50
0.0
 51
0.0
 71
     0
 72
   100
 73
     1
 74
     1
 75
     0
 76
     0
 77
     0
 78
     0
  0
ENDTAB
  0
TABLE
  2
LTYPE
 70
     5
  0
LTYPE
  2
CONTINUOUS
 70
    64
  3
Solid line
 72
    65
 73
     0
 40
0.0
  0
LTYPE
  2
CENTER
 70
    64
  3
Center ____ _ ____ _ ____ _ ____ _ ____ _ ____
 72
    65
 73
     4
 40
50.8
 49
31.75
 49
-6.35
 49
6.35
 49
-6.35
  0
LTYPE
  2
HIDDEN
 70
    64
  3
Hidden __ __ __ __ __ __ __ __ __ __ __ __ __ __
 72
    65
 73
     2
 40
9.525
 49
6.35
 49
-3.175
  0
LTYPE
  2
CENTER2
 70
    64
  3
Center (.5x) ___ _ ___ _ ___ _ ___ _ ___ _ ___
 72
    65
 73
     4
 40
28.575
 49
19.05
 49
-3.175
 49
3.175
 49
-3.175
  0
LTYPE
  2
HIDDEN2
 70
    64
  3
Hidden (.5x) _ _ _ _ _ _ _ _ _ _ _ _ _ _ _ _ _
 72
    65
 73
     2
 40
4.7625
 49
3.175
 49
-1.5875
  0
ENDTAB
  0
TABLE
  2
LAYER
 70
     7
  0
LAYER
  2
0
 70
     0
 62
     7
  6
CONTINUOUS
  0
LAYER
  2
TRMODEL1
 70
     0
 62
     7
  6
CONTINUOUS
  0
LAYER
  2
TRMODEL3
 70
     0
 62
     7
  6
CONTINUOUS
  0
LAYER
  2
TRDETAIL2
 70
     0
 62
     7
  6
CONTINUOUS
  0
LAYER
  2
TRDETAIL3
 70
     0
 62
     7
  6
CONTINUOUS
  0
LAYER
  2
TRDETAIL4
 70
     0
 62
     7
  6
CONTINUOUS
  0
LAYER
  2
TRDETAIL5
 70
     0
 62
     7
  6
CONTINUOUS
  0
ENDTAB
  0
TABLE
  2
STYLE
 70
     1
  0
STYLE
  2
STANDARD
 70
     0
 40
0.0
 41
1.0
 50
0.0
 71
     0
 42
0.0
  3
txt
  4

  0
ENDTAB
  0
TABLE
  2
VIEW
 70
     0
  0
ENDTAB
  0
TABLE
  2
UCS
 70
     0
  0
ENDTAB
  0
TABLE
  2
APPID
 70
     1
  0
APPID
  2
ACAD
 70
     0
  0
ENDTAB
  0
TABLE
  2
DIMSTYLE
 70
     1
  0
DIMSTYLE
  2
STANDARD
 70
     0
  3

  4

  5

  6

  7

 40
1.0
 41
0.18
 42
0.0625
 43
0.38
 44
0.18
 45
0.0
 46
0.0
 47
0.0
 48
0.0
 71
     0
 72
     0
 73
     1
 74
     1
 75
     0
 76
     0
 77
     0
 78
     0
140
0.18
141
0.09
142
0.0
143
25.4
144
1.0
145
0.0
146
1.0
147
0.09
170
     0
171
     2
172
     0
173
     0
174
     0
175
     0
176
     0
177
     0
178
     0
  0
ENDTAB
  0
ENDSEC
  0
SECTION
  2
BLOCKS
  0
ENDSEC
  0
SECTION
  2
ENTITIES
  0
LINE
  8
TRMODEL1
  6
CONTINUOUS
 62
     7
  5
476
 10
1.720472
 20
-1.705884
 30
0.0
 11
1.720472
 21
-1.720472
 31
0.0
  0
LINE
  8
TRMODEL1
  6
CONTINUOUS
 62
     7
  5
477
 10
1.720472
 20
1.720472
 30
0.0
 11
1.720472
 21
-1.624119
 31
0.0
  0
LINE
  8
TRMODEL1
  6
CONTINUOUS
 62
     7
  5
478
 10
1.624202
 20
1.720472
 30
0.0
 11
1.720472
 21
1.720472
 31
0.0
  0
LINE
  8
TRMODEL1
  6
CONTINUOUS
 62
     7
  5
479
 10
-1.720472
 20
1.720472
 30
0.0
 11
-1.624202
 21
1.720472
 31
0.0
  0
LINE
  8
TRMODEL1
  6
CONTINUOUS
 62
     7
  5
47A
 10
-1.624204
 20
-1.720472
 30
0.0
 11
-1.720472
 21
-1.720472
 31
0.0
  0
LINE
  8
TRMODEL1
  6
CONTINUOUS
 62
     7
  5
47B
 10
1.720472
 20
-1.720472
 30
0.0
 11
1.624204
 21
-1.720472
 31
0.0
  0
LINE
  8
TRMODEL1
  6
CONTINUOUS
 62
     7
  5
47C
 10
-1.720472
 20
-1.624119
 30
0.0
 11
-1.720472
 21
1.720472
 31
0.0
  0
LINE
  8
TRMODEL1
  6
CONTINUOUS
 62
     7
  5
47D
 10
-1.720472
 20
-1.720472
 30
0.0
 11
-1.720472
 21
-1.697872
 31
0.0
  0
LINE
  8
TRMODEL1
  6
CONTINUOUS
 62
     7
  5
47E
 10
1.720472
 20
-1.705882
 30
0.0
 11
1.623372
 21
-1.720571
 31
0.0
  0
LINE
  8
TRMODEL1
  6
CONTINUOUS
 62
     7
  5
47F
 10
1.623372
 20
-1.720571
 30
0.0
 11
1.526059
 21
-1.734405
 31
0.0
  0
LINE
  8
TRMODEL1
  6
CONTINUOUS
 62
     7
  5
480
 10
1.526059
 20
-1.734405
 30
0.0
 11
1.428544
 21
-1.747384
 31
0.0
  0
LINE
  8
TRMODEL1
  6
CONTINUOUS
 62
     7
  5
481
 10
1.428544
 20
-1.747384
 30
0.0
 11
1.330842
 21
-1.759505
 31
0.0
  0
LINE
  8
TRMODEL1
  6
CONTINUOUS
 62
     7
  5
482
 10
1.330842
 20
-1.759505
 30
0.0
 11
1.232965
 21
-1.770767
 31
0.0
  0
LINE
  8
TRMODEL1
  6
CONTINUOUS
 62
     7
  5
483
 10
1.232965
 20
-1.770767
 30
0.0
 11
1.134925
 21
-1.781168
 31
0.0
  0
LINE
  8
TRMODEL1
  6
CONTINUOUS
 62
     7
  5
484
 10
1.134925
 20
-1.781168
 30
0.0
 11
1.036736
 21
-1.790708
 31
0.0
  0
LINE
  8
TRMODEL1
  6
CONTINUOUS
 62
     7
  5
485
 10
1.036736
 20
-1.790708
 30
0.0
 11
0.938411
 21
-1.799384
 31
0.0
  0
LINE
  8
TRMODEL1
  6
CONTINUOUS
 62
     7
  5
486
 10
0.938411
 20
-1.799384
 30
0.0
 11
0.839963
 21
-1.807196
 31
0.0
  0
LINE
  8
TRMODEL1
  6
CONTINUOUS
 62
     7
  5
487
 10
0.839963
 20
-1.807196
 30
0.0
 11
0.741404
 21
-1.814142
 31
0.0
  0
LINE
  8
TRMODEL1
  6
CONTINUOUS
 62
     7
  5
488
 10
0.741404
 20
-1.814142
 30
0.0
 11
0.642747
 21
-1.820222
 31
0.0
  0
LINE
  8
TRMODEL1
  6
CONTINUOUS
 62
     7
  5
489
 10
0.642747
 20
-1.820222
 30
0.0
 11
0.544006
 21
-1.825435
 31
0.0
  0
LINE
  8
TRMODEL1
  6
CONTINUOUS
 62
     7
  5
48A
 10
0.544006
 20
-1.825435
 30
0.0
 11
0.445193
 21
-1.829781
 31
0.0
  0
LINE
  8
TRMODEL1
  6
CONTINUOUS
 62
     7
  5
48B
 10
0.445193
 20
-1.829781
 30
0.0
 11
0.346322
 21
-1.833258
 31
0.0
  0
LINE
  8
TRMODEL1
  6
CONTINUOUS
 62
     7
  5
48C
 10
0.346322
 20
-1.833258
 30
0.0
 11
0.247406
 21
-1.835866
 31
0.0
  0
LINE
  8
TRMODEL1
  6
CONTINUOUS
 62
     7
  5
48D
 10
0.247406
 20
-1.835866
 30
0.0
 11
0.148456
 21
-1.837604
 31
0.0
  0
LINE
  8
TRMODEL1
  6
CONTINUOUS
 62
     7
  5
48E
 10
0.148456
 20
-1.837604
 30
0.0
 11
0.049488
 21
-1.838474
 31
0.0
  0
LINE
  8
TRMODEL1
  6
CONTINUOUS
 62
     7
  5
48F
 10
0.049488
 20
-1.838474
 30
0.0
 11
-0.049488
 21
-1.838474
 31
0.0
  0
LINE
  8
TRMODEL1
  6
CONTINUOUS
 62
     7
  5
490
 10
-0.049488
 20
-1.838474
 30
0.0
 11
-0.148456
 21
-1.837604
 31
0.0
  0
LINE
  8
TRMODEL1
  6
CONTINUOUS
 62
     7
  5
491
 10
-0.148456
 20
-1.837604
 30
0.0
 11
-0.247406
 21
-1.835866
 31
0.0
  0
LINE
  8
TRMODEL1
  6
CONTINUOUS
 62
     7
  5
492
 10
-0.247406
 20
-1.835866
 30
0.0
 11
-0.346322
 21
-1.833258
 31
0.0
  0
LINE
  8
TRMODEL1
  6
CONTINUOUS
 62
     7
  5
493
 10
-0.346322
 20
-1.833258
 30
0.0
 11
-0.445193
 21
-1.829781
 31
0.0
  0
LINE
  8
TRMODEL1
  6
CONTINUOUS
 62
     7
  5
494
 10
-0.445193
 20
-1.829781
 30
0.0
 11
-0.544006
 21
-1.825435
 31
0.0
  0
LINE
  8
TRMODEL1
  6
CONTINUOUS
 62
     7
  5
495
 10
-0.544006
 20
-1.825435
 30
0.0
 11
-0.642747
 21
-1.820222
 31
0.0
  0
LINE
  8
TRMODEL1
  6
CONTINUOUS
 62
     7
  5
496
 10
-0.642747
 20
-1.820222
 30
0.0
 11
-0.741404
 21
-1.814142
 31
0.0
  0
LINE
  8
TRMODEL1
  6
CONTINUOUS
 62
     7
  5
497
 10
-0.741404
 20
-1.814142
 30
0.0
 11
-0.839963
 21
-1.807196
 31
0.0
  0
LINE
  8
TRMODEL1
  6
CONTINUOUS
 62
     7
  5
498
 10
-0.839963
 20
-1.807196
 30
0.0
 11
-0.938411
 21
-1.799384
 31
0.0
  0
LINE
  8
TRMODEL1
  6
CONTINUOUS
 62
     7
  5
499
 10
-0.938411
 20
-1.799384
 30
0.0
 11
-1.036736
 21
-1.790708
 31
0.0
  0
LINE
  8
TRMODEL1
  6
CONTINUOUS
 62
     7
  5
49A
 10
-1.036736
 20
-1.790708
 30
0.0
 11
-1.134925
 21
-1.781168
 31
0.0
  0
LINE
  8
TRMODEL1
  6
CONTINUOUS
 62
     7
  5
49B
 10
-1.134925
 20
-1.781168
 30
0.0
 11
-1.232965
 21
-1.770767
 31
0.0
  0
LINE
  8
TRMODEL1
  6
CONTINUOUS
 62
     7
  5
49C
 10
-1.232965
 20
-1.770767
 30
0.0
 11
-1.330842
 21
-1.759505
 31
0.0
  0
LINE
  8
TRMODEL1
  6
CONTINUOUS
 62
     7
  5
49D
 10
-1.330842
 20
-1.759505
 30
0.0
 11
-1.428544
 21
-1.747384
 31
0.0
  0
LINE
  8
TRMODEL1
  6
CONTINUOUS
 62
     7
  5
49E
 10
-1.428544
 20
-1.747384
 30
0.0
 11
-1.526059
 21
-1.734405
 31
0.0
  0
LINE
  8
TRMODEL1
  6
CONTINUOUS
 62
     7
  5
49F
 10
-1.526059
 20
-1.734405
 30
0.0
 11
-1.623372
 21
-1.720571
 31
0.0
  0
LINE
  8
TRMODEL1
  6
CONTINUOUS
 62
     7
  5
4A0
 10
-1.623372
 20
-1.720571
 30
0.0
 11
-1.720472
 21
-1.705882
 31
0.0
  0
LINE
  8
TRMODEL1
  6
CONTINUOUS
 62
     7
  5
4A1
 10
1.720472
 20
-1.624119
 30
0.0
 11
1.720472
 21
-1.667922
 31
0.0
  0
LINE
  8
TRMODEL1
  6
CONTINUOUS
 62
     7
  5
4A2
 10
1.720472
 20
-1.705882
 30
0.0
 11
1.720472
 21
-1.667922
 31
0.0
  0
LINE
  8
TRMODEL1
  6
CONTINUOUS
 62
     7
  5
4A3
 10
-1.720472
 20
-1.705882
 30
0.0
 11
-1.720472
 21
-1.667922
 31
0.0
  0
LINE
  8
TRMODEL1
  6
CONTINUOUS
 62
     7
  5
4A4
 10
-1.720472
 20
-1.667922
 30
0.0
 11
-1.720472
 21
-1.624119
 31
0.0
  0
LINE
  8
TRMODEL1
  6
CONTINUOUS
 62
     7
  5
4A5
 10
1.720472
 20
-1.667922
 30
0.0
 11
1.623372
 21
-1.682611
 31
0.0
  0
LINE
  8
TRMODEL1
  6
CONTINUOUS
 62
     7
  5
4A6
 10
1.623372
 20
-1.682611
 30
0.0
 11
1.526059
 21
-1.696445
 31
0.0
  0
LINE
  8
TRMODEL1
  6
CONTINUOUS
 62
     7
  5
4A7
 10
1.526059
 20
-1.696445
 30
0.0
 11
1.428544
 21
-1.709424
 31
0.0
  0
LINE
  8
TRMODEL1
  6
CONTINUOUS
 62
     7
  5
4A8
 10
1.428544
 20
-1.709424
 30
0.0
 11
1.330842
 21
-1.721545
 31
0.0
  0
LINE
  8
TRMODEL1
  6
CONTINUOUS
 62
     7
  5
4A9
 10
1.330842
 20
-1.721545
 30
0.0
 11
1.232965
 21
-1.732807
 31
0.0
  0
LINE
  8
TRMODEL1
  6
CONTINUOUS
 62
     7
  5
4AA
 10
1.232965
 20
-1.732807
 30
0.0
 11
1.134925
 21
-1.743208
 31
0.0
  0
LINE
  8
TRMODEL1
  6
CONTINUOUS
 62
     7
  5
4AB
 10
1.134925
 20
-1.743208
 30
0.0
 11
1.036736
 21
-1.752748
 31
0.0
  0
LINE
  8
TRMODEL1
  6
CONTINUOUS
 62
     7
  5
4AC
 10
1.036736
 20
-1.752748
 30
0.0
 11
0.938411
 21
-1.761424
 31
0.0
  0
LINE
  8
TRMODEL1
  6
CONTINUOUS
 62
     7
  5
4AD
 10
0.938411
 20
-1.761424
 30
0.0
 11
0.839963
 21
-1.769236
 31
0.0
  0
LINE
  8
TRMODEL1
  6
CONTINUOUS
 62
     7
  5
4AE
 10
0.839963
 20
-1.769236
 30
0.0
 11
0.741404
 21
-1.776182
 31
0.0
  0
LINE
  8
TRMODEL1
  6
CONTINUOUS
 62
     7
  5
4AF
 10
0.741404
 20
-1.776182
 30
0.0
 11
0.642747
 21
-1.782262
 31
0.0
  0
LINE
  8
TRMODEL1
  6
CONTINUOUS
 62
     7
  5
4B0
 10
0.642747
 20
-1.782262
 30
0.0
 11
0.544006
 21
-1.787475
 31
0.0
  0
LINE
  8
TRMODEL1
  6
CONTINUOUS
 62
     7
  5
4B1
 10
0.544006
 20
-1.787475
 30
0.0
 11
0.445193
 21
-1.791821
 31
0.0
  0
LINE
  8
TRMODEL1
  6
CONTINUOUS
 62
     7
  5
4B2
 10
0.445193
 20
-1.791821
 30
0.0
 11
0.346322
 21
-1.795298
 31
0.0
  0
LINE
  8
TRMODEL1
  6
CONTINUOUS
 62
     7
  5
4B3
 10
0.346322
 20
-1.795298
 30
0.0
 11
0.247406
 21
-1.797906
 31
0.0
  0
LINE
  8
TRMODEL1
  6
CONTINUOUS
 62
     7
  5
4B4
 10
0.247406
 20
-1.797906
 30
0.0
 11
0.148456
 21
-1.799645
 31
0.0
  0
LINE
  8
TRMODEL1
  6
CONTINUOUS
 62
     7
  5
4B5
 10
0.148456
 20
-1.799645
 30
0.0
 11
0.049488
 21
-1.800514
 31
0.0
  0
LINE
  8
TRMODEL1
  6
CONTINUOUS
 62
     7
  5
4B6
 10
0.049488
 20
-1.800514
 30
0.0
 11
-0.049488
 21
-1.800514
 31
0.0
  0
LINE
  8
TRMODEL1
  6
CONTINUOUS
 62
     7
  5
4B7
 10
-0.049488
 20
-1.800514
 30
0.0
 11
-0.148456
 21
-1.799645
 31
0.0
  0
LINE
  8
TRMODEL1
  6
CONTINUOUS
 62
     7
  5
4B8
 10
-0.148456
 20
-1.799645
 30
0.0
 11
-0.247406
 21
-1.797906
 31
0.0
  0
LINE
  8
TRMODEL1
  6
CONTINUOUS
 62
     7
  5
4B9
 10
-0.247406
 20
-1.797906
 30
0.0
 11
-0.346322
 21
-1.795298
 31
0.0
  0
LINE
  8
TRMODEL1
  6
CONTINUOUS
 62
     7
  5
4BA
 10
-0.346322
 20
-1.795298
 30
0.0
 11
-0.445193
 21
-1.791821
 31
0.0
  0
LINE
  8
TRMODEL1
  6
CONTINUOUS
 62
     7
  5
4BB
 10
-0.445193
 20
-1.791821
 30
0.0
 11
-0.544006
 21
-1.787475
 31
0.0
  0
LINE
  8
TRMODEL1
  6
CONTINUOUS
 62
     7
  5
4BC
 10
-0.544006
 20
-1.787475
 30
0.0
 11
-0.642747
 21
-1.782262
 31
0.0
  0
LINE
  8
TRMODEL1
  6
CONTINUOUS
 62
     7
  5
4BD
 10
-0.642747
 20
-1.782262
 30
0.0
 11
-0.741404
 21
-1.776182
 31
0.0
  0
LINE
  8
TRMODEL1
  6
CONTINUOUS
 62
     7
  5
4BE
 10
-0.741404
 20
-1.776182
 30
0.0
 11
-0.839963
 21
-1.769236
 31
0.0
  0
LINE
  8
TRMODEL1
  6
CONTINUOUS
 62
     7
  5
4BF
 10
-0.839963
 20
-1.769236
 30
0.0
 11
-0.938411
 21
-1.761424
 31
0.0
  0
LINE
  8
TRMODEL1
  6
CONTINUOUS
 62
     7
  5
4C0
 10
-0.938411
 20
-1.761424
 30
0.0
 11
-1.036736
 21
-1.752748
 31
0.0
  0
LINE
  8
TRMODEL1
  6
CONTINUOUS
 62
     7
  5
4C1
 10
-1.036736
 20
-1.752748
 30
0.0
 11
-1.134925
 21
-1.743208
 31
0.0
  0
LINE
  8
TRMODEL1
  6
CONTINUOUS
 62
     7
  5
4C2
 10
-1.134925
 20
-1.743208
 30
0.0
 11
-1.232965
 21
-1.732807
 31
0.0
  0
LINE
  8
TRMODEL1
  6
CONTINUOUS
 62
     7
  5
4C3
 10
-1.232965
 20
-1.732807
 30
0.0
 11
-1.330842
 21
-1.721545
 31
0.0
  0
LINE
  8
TRMODEL1
  6
CONTINUOUS
 62
     7
  5
4C4
 10
-1.330842
 20
-1.721545
 30
0.0
 11
-1.428544
 21
-1.709424
 31
0.0
  0
LINE
  8
TRMODEL1
  6
CONTINUOUS
 62
     7
  5
4C5
 10
-1.428544
 20
-1.709424
 30
0.0
 11
-1.526059
 21
-1.696445
 31
0.0
  0
LINE
  8
TRMODEL1
  6
CONTINUOUS
 62
     7
  5
4C6
 10
-1.526059
 20
-1.696445
 30
0.0
 11
-1.623372
 21
-1.682611
 31
0.0
  0
LINE
  8
TRMODEL1
  6
CONTINUOUS
 62
     7
  5
4C7
 10
-1.623372
 20
-1.682611
 30
0.0
 11
-1.720472
 21
-1.667922
 31
0.0
  0
LINE
  8
TRMODEL1
  6
CONTINUOUS
 62
     7
  5
4C8
 10
-0.059055
 20
-1.720472
 30
0.0
 11
-0.059055
 21
1.720472
 31
0.0
  0
LINE
  8
TRMODEL1
  6
CONTINUOUS
 62
     7
  5
4C9
 10
0.059055
 20
-1.720472
 30
0.0
 11
-0.059055
 21
-1.720472
 31
0.0
  0
LINE
  8
TRMODEL1
  6
CONTINUOUS
 62
     7
  5
4CA
 10
1.72046
 20
-1.176361
 30
0.0
 11
1.673593
 21
-1.183561
 31
0.0
  0
LINE
  8
TRMODEL1
  6
CONTINUOUS
 62
     7
  5
4CB
 10
1.673593
 20
-1.183561
 30
0.0
 11
1.626675
 21
-1.190562
 31
0.0
  0
LINE
  8
TRMODEL1
  6
CONTINUOUS
 62
     7
  5
4CC
 10
1.626675
 20
-1.190562
 30
0.0
 11
1.579707
 21
-1.197364
 31
0.0
  0
LINE
  8
TRMODEL1
  6
CONTINUOUS
 62
     7
  5
4CD
 10
1.579707
 20
-1.197364
 30
0.0
 11
1.53269
 21
-1.203967
 31
0.0
  0
LINE
  8
TRMODEL1
  6
CONTINUOUS
 62
     7
  5
4CE
 10
1.53269
 20
-1.203967
 30
0.0
 11
1.485626
 21
-1.21037
 31
0.0
  0
LINE
  8
TRMODEL1
  6
CONTINUOUS
 62
     7
  5
4CF
 10
1.485626
 20
-1.21037
 30
0.0
 11
1.438517
 21
-1.216573
 31
0.0
  0
LINE
  8
TRMODEL1
  6
CONTINUOUS
 62
     7
  5
4D0
 10
1.438517
 20
-1.216573
 30
0.0
 11
1.391364
 21
-1.222577
 31
0.0
  0
LINE
  8
TRMODEL1
  6
CONTINUOUS
 62
     7
  5
4D1
 10
1.391364
 20
-1.222577
 30
0.0
 11
1.344168
 21
-1.22838
 31
0.0
  0
LINE
  8
TRMODEL1
  6
CONTINUOUS
 62
     7
  5
4D2
 10
1.344168
 20
-1.22838
 30
0.0
 11
1.29693
 21
-1.233983
 31
0.0
  0
LINE
  8
TRMODEL1
  6
CONTINUOUS
 62
     7
  5
4D3
 10
1.29693
 20
-1.233983
 30
0.0
 11
1.249653
 21
-1.239385
 31
0.0
  0
LINE
  8
TRMODEL1
  6
CONTINUOUS
 62
     7
  5
4D4
 10
1.249653
 20
-1.239385
 30
0.0
 11
1.202338
 21
-1.244587
 31
0.0
  0
LINE
  8
TRMODEL1
  6
CONTINUOUS
 62
     7
  5
4D5
 10
1.202338
 20
-1.244587
 30
0.0
 11
1.154985
 21
-1.249588
 31
0.0
  0
LINE
  8
TRMODEL1
  6
CONTINUOUS
 62
     7
  5
4D6
 10
1.154985
 20
-1.249588
 30
0.0
 11
1.107598
 21
-1.254388
 31
0.0
  0
LINE
  8
TRMODEL1
  6
CONTINUOUS
 62
     7
  5
4D7
 10
1.107598
 20
-1.254388
 30
0.0
 11
1.060176
 21
-1.258987
 31
0.0
  0
LINE
  8
TRMODEL1
  6
CONTINUOUS
 62
     7
  5
4D8
 10
1.060176
 20
-1.258987
 30
0.0
 11
1.012722
 21
-1.263384
 31
0.0
  0
LINE
  8
TRMODEL1
  6
CONTINUOUS
 62
     7
  5
4D9
 10
1.012722
 20
-1.263384
 30
0.0
 11
0.965237
 21
-1.26758
 31
0.0
  0
LINE
  8
TRMODEL1
  6
CONTINUOUS
 62
     7
  5
4DA
 10
0.965237
 20
-1.26758
 30
0.0
 11
0.917722
 21
-1.271575
 31
0.0
  0
LINE
  8
TRMODEL1
  6
CONTINUOUS
 62
     7
  5
4DB
 10
0.917722
 20
-1.271575
 30
0.0
 11
0.870179
 21
-1.275368
 31
0.0
  0
LINE
  8
TRMODEL1
  6
CONTINUOUS
 62
     7
  5
4DC
 10
0.870179
 20
-1.275368
 30
0.0
 11
0.822609
 21
-1.278959
 31
0.0
  0
LINE
  8
TRMODEL1
  6
CONTINUOUS
 62
     7
  5
4DD
 10
0.822609
 20
-1.278959
 30
0.0
 11
0.775014
 21
-1.282348
 31
0.0
  0
LINE
  8
TRMODEL1
  6
CONTINUOUS
 62
     7
  5
4DE
 10
0.775014
 20
-1.282348
 30
0.0
 11
0.727395
 21
-1.285535
 31
0.0
  0
LINE
  8
TRMODEL1
  6
CONTINUOUS
 62
     7
  5
4DF
 10
0.727395
 20
-1.285535
 30
0.0
 11
0.679754
 21
-1.28852
 31
0.0
  0
LINE
  8
TRMODEL1
  6
CONTINUOUS
 62
     7
  5
4E0
 10
0.679754
 20
-1.28852
 30
0.0
 11
0.632092
 21
-1.291303
 31
0.0
  0
LINE
  8
TRMODEL1
  6
CONTINUOUS
 62
     7
  5
4E1
 10
0.632092
 20
-1.291303
 30
0.0
 11
0.584411
 21
-1.293884
 31
0.0
  0
LINE
  8
TRMODEL1
  6
CONTINUOUS
 62
     7
  5
4E2
 10
0.584411
 20
-1.293884
 30
0.0
 11
0.536711
 21
-1.296262
 31
0.0
  0
LINE
  8
TRMODEL1
  6
CONTINUOUS
 62
     7
  5
4E3
 10
0.536711
 20
-1.296262
 30
0.0
 11
0.488996
 21
-1.298438
 31
0.0
  0
LINE
  8
TRMODEL1
  6
CONTINUOUS
 62
     7
  5
4E4
 10
0.488996
 20
-1.298438
 30
0.0
 11
0.441265
 21
-1.300412
 31
0.0
  0
LINE
  8
TRMODEL1
  6
CONTINUOUS
 62
     7
  5
4E5
 10
0.441265
 20
-1.300412
 30
0.0
 11
0.393521
 21
-1.302183
 31
0.0
  0
LINE
  8
TRMODEL1
  6
CONTINUOUS
 62
     7
  5
4E6
 10
0.393521
 20
-1.302183
 30
0.0
 11
0.345764
 21
-1.303751
 31
0.0
  0
LINE
  8
TRMODEL1
  6
CONTINUOUS
 62
     7
  5
4E7
 10
0.345764
 20
-1.303751
 30
0.0
 11
0.297998
 21
-1.305117
 31
0.0
  0
LINE
  8
TRMODEL1
  6
CONTINUOUS
 62
     7
  5
4E8
 10
0.297998
 20
-1.305117
 30
0.0
 11
0.250221
 21
-1.30628
 31
0.0
  0
LINE
  8
TRMODEL1
  6
CONTINUOUS
 62
     7
  5
4E9
 10
0.250221
 20
-1.30628
 30
0.0
 11
0.202438
 21
-1.30724
 31
0.0
  0
LINE
  8
TRMODEL1
  6
CONTINUOUS
 62
     7
  5
4EA
 10
0.202438
 20
-1.30724
 30
0.0
 11
0.154648
 21
-1.307998
 31
0.0
  0
LINE
  8
TRMODEL1
  6
CONTINUOUS
 62
     7
  5
4EB
 10
0.154648
 20
-1.307998
 30
0.0
 11
0.106853
 21
-1.308552
 31
0.0
  0
LINE
  8
TRMODEL1
  6
CONTINUOUS
 62
     7
  5
4EC
 10
0.106853
 20
-1.308552
 30
0.0
 11
0.059055
 21
-1.308904
 31
0.0
  0
LINE
  8
TRMODEL1
  6
CONTINUOUS
 62
     7
  5
4ED
 10
1.72046
 20
-1.21432
 30
0.0
 11
1.673593
 21
-1.221521
 31
0.0
  0
LINE
  8
TRMODEL1
  6
CONTINUOUS
 62
     7
  5
4EE
 10
1.673593
 20
-1.221521
 30
0.0
 11
1.626675
 21
-1.228522
 31
0.0
  0
LINE
  8
TRMODEL1
  6
CONTINUOUS
 62
     7
  5
4EF
 10
1.626675
 20
-1.228522
 30
0.0
 11
1.579707
 21
-1.235324
 31
0.0
  0
LINE
  8
TRMODEL1
  6
CONTINUOUS
 62
     7
  5
4F0
 10
1.579707
 20
-1.235324
 30
0.0
 11
1.53269
 21
-1.241927
 31
0.0
  0
LINE
  8
TRMODEL1
  6
CONTINUOUS
 62
     7
  5
4F1
 10
1.53269
 20
-1.241927
 30
0.0
 11
1.485626
 21
-1.24833
 31
0.0
  0
LINE
  8
TRMODEL1
  6
CONTINUOUS
 62
     7
  5
4F2
 10
1.485626
 20
-1.24833
 30
0.0
 11
1.438517
 21
-1.254533
 31
0.0
  0
LINE
  8
TRMODEL1
  6
CONTINUOUS
 62
     7
  5
4F3
 10
1.438517
 20
-1.254533
 30
0.0
 11
1.391364
 21
-1.260537
 31
0.0
  0
LINE
  8
TRMODEL1
  6
CONTINUOUS
 62
     7
  5
4F4
 10
1.391364
 20
-1.260537
 30
0.0
 11
1.344168
 21
-1.26634
 31
0.0
  0
LINE
  8
TRMODEL1
  6
CONTINUOUS
 62
     7
  5
4F5
 10
1.344168
 20
-1.26634
 30
0.0
 11
1.29693
 21
-1.271943
 31
0.0
  0
LINE
  8
TRMODEL1
  6
CONTINUOUS
 62
     7
  5
4F6
 10
1.29693
 20
-1.271943
 30
0.0
 11
1.249653
 21
-1.277345
 31
0.0
  0
LINE
  8
TRMODEL1
  6
CONTINUOUS
 62
     7
  5
4F7
 10
1.249653
 20
-1.277345
 30
0.0
 11
1.202338
 21
-1.282547
 31
0.0
  0
LINE
  8
TRMODEL1
  6
CONTINUOUS
 62
     7
  5
4F8
 10
1.202338
 20
-1.282547
 30
0.0
 11
1.154985
 21
-1.287548
 31
0.0
  0
LINE
  8
TRMODEL1
  6
CONTINUOUS
 62
     7
  5
4F9
 10
1.154985
 20
-1.287548
 30
0.0
 11
1.107598
 21
-1.292348
 31
0.0
  0
LINE
  8
TRMODEL1
  6
CONTINUOUS
 62
     7
  5
4FA
 10
1.107598
 20
-1.292348
 30
0.0
 11
1.060176
 21
-1.296946
 31
0.0
  0
LINE
  8
TRMODEL1
  6
CONTINUOUS
 62
     7
  5
4FB
 10
1.060176
 20
-1.296946
 30
0.0
 11
1.012722
 21
-1.301344
 31
0.0
  0
LINE
  8
TRMODEL1
  6
CONTINUOUS
 62
     7
  5
4FC
 10
1.012722
 20
-1.301344
 30
0.0
 11
0.965236
 21
-1.30554
 31
0.0
  0
LINE
  8
TRMODEL1
  6
CONTINUOUS
 62
     7
  5
4FD
 10
0.965236
 20
-1.30554
 30
0.0
 11
0.917722
 21
-1.309535
 31
0.0
  0
LINE
  8
TRMODEL1
  6
CONTINUOUS
 62
     7
  5
4FE
 10
0.917722
 20
-1.309535
 30
0.0
 11
0.870179
 21
-1.313328
 31
0.0
  0
LINE
  8
TRMODEL1
  6
CONTINUOUS
 62
     7
  5
4FF
 10
0.870179
 20
-1.313328
 30
0.0
 11
0.822609
 21
-1.316919
 31
0.0
  0
LINE
  8
TRMODEL1
  6
CONTINUOUS
 62
     7
  5
500
 10
0.822609
 20
-1.316919
 30
0.0
 11
0.775014
 21
-1.320308
 31
0.0
  0
LINE
  8
TRMODEL1
  6
CONTINUOUS
 62
     7
  5
501
 10
0.775014
 20
-1.320308
 30
0.0
 11
0.727395
 21
-1.323495
 31
0.0
  0
LINE
  8
TRMODEL1
  6
CONTINUOUS
 62
     7
  5
502
 10
0.727395
 20
-1.323495
 30
0.0
 11
0.679754
 21
-1.32648
 31
0.0
  0
LINE
  8
TRMODEL1
  6
CONTINUOUS
 62
     7
  5
503
 10
0.679754
 20
-1.32648
 30
0.0
 11
0.632092
 21
-1.329263
 31
0.0
  0
LINE
  8
TRMODEL1
  6
CONTINUOUS
 62
     7
  5
504
 10
0.632092
 20
-1.329263
 30
0.0
 11
0.584411
 21
-1.331844
 31
0.0
  0
LINE
  8
TRMODEL1
  6
CONTINUOUS
 62
     7
  5
505
 10
0.584411
 20
-1.331844
 30
0.0
 11
0.536711
 21
-1.334222
 31
0.0
  0
LINE
  8
TRMODEL1
  6
CONTINUOUS
 62
     7
  5
506
 10
0.536711
 20
-1.334222
 30
0.0
 11
0.488996
 21
-1.336398
 31
0.0
  0
LINE
  8
TRMODEL1
  6
CONTINUOUS
 62
     7
  5
507
 10
0.488996
 20
-1.336398
 30
0.0
 11
0.441265
 21
-1.338372
 31
0.0
  0
LINE
  8
TRMODEL1
  6
CONTINUOUS
 62
     7
  5
508
 10
0.441265
 20
-1.338372
 30
0.0
 11
0.393521
 21
-1.340143
 31
0.0
  0
LINE
  8
TRMODEL1
  6
CONTINUOUS
 62
     7
  5
509
 10
0.393521
 20
-1.340143
 30
0.0
 11
0.345764
 21
-1.341711
 31
0.0
  0
LINE
  8
TRMODEL1
  6
CONTINUOUS
 62
     7
  5
50A
 10
0.345764
 20
-1.341711
 30
0.0
 11
0.297998
 21
-1.343077
 31
0.0
  0
LINE
  8
TRMODEL1
  6
CONTINUOUS
 62
     7
  5
50B
 10
0.297998
 20
-1.343077
 30
0.0
 11
0.250221
 21
-1.34424
 31
0.0
  0
LINE
  8
TRMODEL1
  6
CONTINUOUS
 62
     7
  5
50C
 10
0.250221
 20
-1.34424
 30
0.0
 11
0.202438
 21
-1.3452
 31
0.0
  0
LINE
  8
TRMODEL1
  6
CONTINUOUS
 62
     7
  5
50D
 10
0.202438
 20
-1.3452
 30
0.0
 11
0.154648
 21
-1.345958
 31
0.0
  0
LINE
  8
TRMODEL1
  6
CONTINUOUS
 62
     7
  5
50E
 10
0.154648
 20
-1.345958
 30
0.0
 11
0.106853
 21
-1.346512
 31
0.0
  0
LINE
  8
TRMODEL1
  6
CONTINUOUS
 62
     7
  5
50F
 10
0.106853
 20
-1.346512
 30
0.0
 11
0.059055
 21
-1.346864
 31
0.0
  0
LINE
  8
TRMODEL1
  6
CONTINUOUS
 62
     7
  5
510
 10
-0.059055
 20
-1.346864
 30
0.0
 11
-0.106853
 21
-1.346512
 31
0.0
  0
LINE
  8
TRMODEL1
  6
CONTINUOUS
 62
     7
  5
511
 10
-0.106853
 20
-1.346512
 30
0.0
 11
-0.154648
 21
-1.345958
 31
0.0
  0
LINE
  8
TRMODEL1
  6
CONTINUOUS
 62
     7
  5
512
 10
-0.154648
 20
-1.345958
 30
0.0
 11
-0.202438
 21
-1.3452
 31
0.0
  0
LINE
  8
TRMODEL1
  6
CONTINUOUS
 62
     7
  5
513
 10
-0.202438
 20
-1.3452
 30
0.0
 11
-0.250221
 21
-1.34424
 31
0.0
  0
LINE
  8
TRMODEL1
  6
CONTINUOUS
 62
     7
  5
514
 10
-0.250221
 20
-1.34424
 30
0.0
 11
-0.297998
 21
-1.343077
 31
0.0
  0
LINE
  8
TRMODEL1
  6
CONTINUOUS
 62
     7
  5
515
 10
-0.297998
 20
-1.343077
 30
0.0
 11
-0.345764
 21
-1.341711
 31
0.0
  0
LINE
  8
TRMODEL1
  6
CONTINUOUS
 62
     7
  5
516
 10
-0.345764
 20
-1.341711
 30
0.0
 11
-0.393521
 21
-1.340143
 31
0.0
  0
LINE
  8
TRMODEL1
  6
CONTINUOUS
 62
     7
  5
517
 10
-0.393521
 20
-1.340143
 30
0.0
 11
-0.441265
 21
-1.338372
 31
0.0
  0
LINE
  8
TRMODEL1
  6
CONTINUOUS
 62
     7
  5
518
 10
-0.441265
 20
-1.338372
 30
0.0
 11
-0.488996
 21
-1.336398
 31
0.0
  0
LINE
  8
TRMODEL1
  6
CONTINUOUS
 62
     7
  5
519
 10
-0.488996
 20
-1.336398
 30
0.0
 11
-0.536711
 21
-1.334222
 31
0.0
  0
LINE
  8
TRMODEL1
  6
CONTINUOUS
 62
     7
  5
51A
 10
-0.536711
 20
-1.334222
 30
0.0
 11
-0.584411
 21
-1.331844
 31
0.0
  0
LINE
  8
TRMODEL1
  6
CONTINUOUS
 62
     7
  5
51B
 10
-0.584411
 20
-1.331844
 30
0.0
 11
-0.632092
 21
-1.329263
 31
0.0
  0
LINE
  8
TRMODEL1
  6
CONTINUOUS
 62
     7
  5
51C
 10
-0.632092
 20
-1.329263
 30
0.0
 11
-0.679754
 21
-1.32648
 31
0.0
  0
LINE
  8
TRMODEL1
  6
CONTINUOUS
 62
     7
  5
51D
 10
-0.679754
 20
-1.32648
 30
0.0
 11
-0.727395
 21
-1.323495
 31
0.0
  0
LINE
  8
TRMODEL1
  6
CONTINUOUS
 62
     7
  5
51E
 10
-0.727395
 20
-1.323495
 30
0.0
 11
-0.775014
 21
-1.320308
 31
0.0
  0
LINE
  8
TRMODEL1
  6
CONTINUOUS
 62
     7
  5
51F
 10
-0.775014
 20
-1.320308
 30
0.0
 11
-0.822609
 21
-1.316919
 31
0.0
  0
LINE
  8
TRMODEL1
  6
CONTINUOUS
 62
     7
  5
520
 10
-0.822609
 20
-1.316919
 30
0.0
 11
-0.870179
 21
-1.313328
 31
0.0
  0
LINE
  8
TRMODEL1
  6
CONTINUOUS
 62
     7
  5
521
 10
-0.870179
 20
-1.313328
 30
0.0
 11
-0.917722
 21
-1.309535
 31
0.0
  0
LINE
  8
TRMODEL1
  6
CONTINUOUS
 62
     7
  5
522
 10
-0.917722
 20
-1.309535
 30
0.0
 11
-0.965236
 21
-1.30554
 31
0.0
  0
LINE
  8
TRMODEL1
  6
CONTINUOUS
 62
     7
  5
523
 10
-0.965236
 20
-1.30554
 30
0.0
 11
-1.012722
 21
-1.301344
 31
0.0
  0
LINE
  8
TRMODEL1
  6
CONTINUOUS
 62
     7
  5
524
 10
-1.012722
 20
-1.301344
 30
0.0
 11
-1.060176
 21
-1.296946
 31
0.0
  0
LINE
  8
TRMODEL1
  6
CONTINUOUS
 62
     7
  5
525
 10
-1.060176
 20
-1.296946
 30
0.0
 11
-1.107598
 21
-1.292348
 31
0.0
  0
LINE
  8
TRMODEL1
  6
CONTINUOUS
 62
     7
  5
526
 10
-1.107598
 20
-1.292348
 30
0.0
 11
-1.154985
 21
-1.287548
 31
0.0
  0
LINE
  8
TRMODEL1
  6
CONTINUOUS
 62
     7
  5
527
 10
-1.154985
 20
-1.287548
 30
0.0
 11
-1.202338
 21
-1.282547
 31
0.0
  0
LINE
  8
TRMODEL1
  6
CONTINUOUS
 62
     7
  5
528
 10
-1.202338
 20
-1.282547
 30
0.0
 11
-1.249653
 21
-1.277345
 31
0.0
  0
LINE
  8
TRMODEL1
  6
CONTINUOUS
 62
     7
  5
529
 10
-1.249653
 20
-1.277345
 30
0.0
 11
-1.29693
 21
-1.271943
 31
0.0
  0
LINE
  8
TRMODEL1
  6
CONTINUOUS
 62
     7
  5
52A
 10
-1.29693
 20
-1.271943
 30
0.0
 11
-1.344168
 21
-1.26634
 31
0.0
  0
LINE
  8
TRMODEL1
  6
CONTINUOUS
 62
     7
  5
52B
 10
-1.344168
 20
-1.26634
 30
0.0
 11
-1.391364
 21
-1.260537
 31
0.0
  0
LINE
  8
TRMODEL1
  6
CONTINUOUS
 62
     7
  5
52C
 10
-1.391364
 20
-1.260537
 30
0.0
 11
-1.438517
 21
-1.254533
 31
0.0
  0
LINE
  8
TRMODEL1
  6
CONTINUOUS
 62
     7
  5
52D
 10
-1.438517
 20
-1.254533
 30
0.0
 11
-1.485626
 21
-1.24833
 31
0.0
  0
LINE
  8
TRMODEL1
  6
CONTINUOUS
 62
     7
  5
52E
 10
-1.485626
 20
-1.24833
 30
0.0
 11
-1.53269
 21
-1.241927
 31
0.0
  0
LINE
  8
TRMODEL1
  6
CONTINUOUS
 62
     7
  5
52F
 10
-1.53269
 20
-1.241927
 30
0.0
 11
-1.579707
 21
-1.235324
 31
0.0
  0
LINE
  8
TRMODEL1
  6
CONTINUOUS
 62
     7
  5
530
 10
-1.579707
 20
-1.235324
 30
0.0
 11
-1.626675
 21
-1.228522
 31
0.0
  0
LINE
  8
TRMODEL1
  6
CONTINUOUS
 62
     7
  5
531
 10
-1.626675
 20
-1.228522
 30
0.0
 11
-1.673593
 21
-1.221521
 31
0.0
  0
LINE
  8
TRMODEL1
  6
CONTINUOUS
 62
     7
  5
532
 10
-1.673593
 20
-1.221521
 30
0.0
 11
-1.72046
 21
-1.21432
 31
0.0
  0
LINE
  8
TRMODEL1
  6
CONTINUOUS
 62
     7
  5
533
 10
-0.059055
 20
-1.308904
 30
0.0
 11
-0.106853
 21
-1.308552
 31
0.0
  0
LINE
  8
TRMODEL1
  6
CONTINUOUS
 62
     7
  5
534
 10
-0.106853
 20
-1.308552
 30
0.0
 11
-0.154648
 21
-1.307998
 31
0.0
  0
LINE
  8
TRMODEL1
  6
CONTINUOUS
 62
     7
  5
535
 10
-0.154648
 20
-1.307998
 30
0.0
 11
-0.202438
 21
-1.30724
 31
0.0
  0
LINE
  8
TRMODEL1
  6
CONTINUOUS
 62
     7
  5
536
 10
-0.202438
 20
-1.30724
 30
0.0
 11
-0.250221
 21
-1.30628
 31
0.0
  0
LINE
  8
TRMODEL1
  6
CONTINUOUS
 62
     7
  5
537
 10
-0.250221
 20
-1.30628
 30
0.0
 11
-0.297998
 21
-1.305117
 31
0.0
  0
LINE
  8
TRMODEL1
  6
CONTINUOUS
 62
     7
  5
538
 10
-0.297998
 20
-1.305117
 30
0.0
 11
-0.345764
 21
-1.303751
 31
0.0
  0
LINE
  8
TRMODEL1
  6
CONTINUOUS
 62
     7
  5
539
 10
-0.345764
 20
-1.303751
 30
0.0
 11
-0.393521
 21
-1.302183
 31
0.0
  0
LINE
  8
TRMODEL1
  6
CONTINUOUS
 62
     7
  5
53A
 10
-0.393521
 20
-1.302183
 30
0.0
 11
-0.441265
 21
-1.300412
 31
0.0
  0
LINE
  8
TRMODEL1
  6
CONTINUOUS
 62
     7
  5
53B
 10
-0.441265
 20
-1.300412
 30
0.0
 11
-0.488996
 21
-1.298438
 31
0.0
  0
LINE
  8
TRMODEL1
  6
CONTINUOUS
 62
     7
  5
53C
 10
-0.488996
 20
-1.298438
 30
0.0
 11
-0.536711
 21
-1.296262
 31
0.0
  0
LINE
  8
TRMODEL1
  6
CONTINUOUS
 62
     7
  5
53D
 10
-0.536711
 20
-1.296262
 30
0.0
 11
-0.584411
 21
-1.293884
 31
0.0
  0
LINE
  8
TRMODEL1
  6
CONTINUOUS
 62
     7
  5
53E
 10
-0.584411
 20
-1.293884
 30
0.0
 11
-0.632092
 21
-1.291303
 31
0.0
  0
LINE
  8
TRMODEL1
  6
CONTINUOUS
 62
     7
  5
53F
 10
-0.632092
 20
-1.291303
 30
0.0
 11
-0.679754
 21
-1.28852
 31
0.0
  0
LINE
  8
TRMODEL1
  6
CONTINUOUS
 62
     7
  5
540
 10
-0.679754
 20
-1.28852
 30
0.0
 11
-0.727395
 21
-1.285535
 31
0.0
  0
LINE
  8
TRMODEL1
  6
CONTINUOUS
 62
     7
  5
541
 10
-0.727395
 20
-1.285535
 30
0.0
 11
-0.775014
 21
-1.282348
 31
0.0
  0
LINE
  8
TRMODEL1
  6
CONTINUOUS
 62
     7
  5
542
 10
-0.775014
 20
-1.282348
 30
0.0
 11
-0.822609
 21
-1.278959
 31
0.0
  0
LINE
  8
TRMODEL1
  6
CONTINUOUS
 62
     7
  5
543
 10
-0.822609
 20
-1.278959
 30
0.0
 11
-0.870179
 21
-1.275368
 31
0.0
  0
LINE
  8
TRMODEL1
  6
CONTINUOUS
 62
     7
  5
544
 10
-0.870179
 20
-1.275368
 30
0.0
 11
-0.917722
 21
-1.271575
 31
0.0
  0
LINE
  8
TRMODEL1
  6
CONTINUOUS
 62
     7
  5
545
 10
-0.917722
 20
-1.271575
 30
0.0
 11
-0.965237
 21
-1.26758
 31
0.0
  0
LINE
  8
TRMODEL1
  6
CONTINUOUS
 62
     7
  5
546
 10
-0.965237
 20
-1.26758
 30
0.0
 11
-1.012722
 21
-1.263384
 31
0.0
  0
LINE
  8
TRMODEL1
  6
CONTINUOUS
 62
     7
  5
547
 10
-1.012722
 20
-1.263384
 30
0.0
 11
-1.060176
 21
-1.258987
 31
0.0
  0
LINE
  8
TRMODEL1
  6
CONTINUOUS
 62
     7
  5
548
 10
-1.060176
 20
-1.258987
 30
0.0
 11
-1.107598
 21
-1.254388
 31
0.0
  0
LINE
  8
TRMODEL1
  6
CONTINUOUS
 62
     7
  5
549
 10
-1.107598
 20
-1.254388
 30
0.0
 11
-1.154985
 21
-1.249588
 31
0.0
  0
LINE
  8
TRMODEL1
  6
CONTINUOUS
 62
     7
  5
54A
 10
-1.154985
 20
-1.249588
 30
0.0
 11
-1.202338
 21
-1.244587
 31
0.0
  0
LINE
  8
TRMODEL1
  6
CONTINUOUS
 62
     7
  5
54B
 10
-1.202338
 20
-1.244587
 30
0.0
 11
-1.249653
 21
-1.239385
 31
0.0
  0
LINE
  8
TRMODEL1
  6
CONTINUOUS
 62
     7
  5
54C
 10
-1.249653
 20
-1.239385
 30
0.0
 11
-1.29693
 21
-1.233983
 31
0.0
  0
LINE
  8
TRMODEL1
  6
CONTINUOUS
 62
     7
  5
54D
 10
-1.29693
 20
-1.233983
 30
0.0
 11
-1.344168
 21
-1.22838
 31
0.0
  0
LINE
  8
TRMODEL1
  6
CONTINUOUS
 62
     7
  5
54E
 10
-1.344168
 20
-1.22838
 30
0.0
 11
-1.391364
 21
-1.222577
 31
0.0
  0
LINE
  8
TRMODEL1
  6
CONTINUOUS
 62
     7
  5
54F
 10
-1.391364
 20
-1.222577
 30
0.0
 11
-1.438517
 21
-1.216573
 31
0.0
  0
LINE
  8
TRMODEL1
  6
CONTINUOUS
 62
     7
  5
550
 10
-1.438517
 20
-1.216573
 30
0.0
 11
-1.485626
 21
-1.21037
 31
0.0
  0
LINE
  8
TRMODEL1
  6
CONTINUOUS
 62
     7
  5
551
 10
-1.485626
 20
-1.21037
 30
0.0
 11
-1.53269
 21
-1.203967
 31
0.0
  0
LINE
  8
TRMODEL1
  6
CONTINUOUS
 62
     7
  5
552
 10
-1.53269
 20
-1.203967
 30
0.0
 11
-1.579707
 21
-1.197364
 31
0.0
  0
LINE
  8
TRMODEL1
  6
CONTINUOUS
 62
     7
  5
553
 10
-1.579707
 20
-1.197364
 30
0.0
 11
-1.626675
 21
-1.190562
 31
0.0
  0
LINE
  8
TRMODEL1
  6
CONTINUOUS
 62
     7
  5
554
 10
-1.626675
 20
-1.190562
 30
0.0
 11
-1.673593
 21
-1.183561
 31
0.0
  0
LINE
  8
TRMODEL1
  6
CONTINUOUS
 62
     7
  5
555
 10
-1.673593
 20
-1.183561
 30
0.0
 11
-1.72046
 21
-1.176361
 31
0.0
  0
LINE
  8
TRMODEL1
  6
CONTINUOUS
 62
     7
  5
556
 10
1.720459
 20
-0.684797
 30
0.0
 11
1.673592
 21
-0.691997
 31
0.0
  0
LINE
  8
TRMODEL1
  6
CONTINUOUS
 62
     7
  5
557
 10
1.673592
 20
-0.691997
 30
0.0
 11
1.626674
 21
-0.698999
 31
0.0
  0
LINE
  8
TRMODEL1
  6
CONTINUOUS
 62
     7
  5
558
 10
1.626674
 20
-0.698999
 30
0.0
 11
1.579706
 21
-0.705801
 31
0.0
  0
LINE
  8
TRMODEL1
  6
CONTINUOUS
 62
     7
  5
559
 10
1.579706
 20
-0.705801
 30
0.0
 11
1.532689
 21
-0.712403
 31
0.0
  0
LINE
  8
TRMODEL1
  6
CONTINUOUS
 62
     7
  5
55A
 10
1.532689
 20
-0.712403
 30
0.0
 11
1.485625
 21
-0.718807
 31
0.0
  0
LINE
  8
TRMODEL1
  6
CONTINUOUS
 62
     7
  5
55B
 10
1.485625
 20
-0.718807
 30
0.0
 11
1.438516
 21
-0.72501
 31
0.0
  0
LINE
  8
TRMODEL1
  6
CONTINUOUS
 62
     7
  5
55C
 10
1.438516
 20
-0.72501
 30
0.0
 11
1.391363
 21
-0.731013
 31
0.0
  0
LINE
  8
TRMODEL1
  6
CONTINUOUS
 62
     7
  5
55D
 10
1.391363
 20
-0.731013
 30
0.0
 11
1.344167
 21
-0.736817
 31
0.0
  0
LINE
  8
TRMODEL1
  6
CONTINUOUS
 62
     7
  5
55E
 10
1.344167
 20
-0.736817
 30
0.0
 11
1.296929
 21
-0.742419
 31
0.0
  0
LINE
  8
TRMODEL1
  6
CONTINUOUS
 62
     7
  5
55F
 10
1.296929
 20
-0.742419
 30
0.0
 11
1.249652
 21
-0.747822
 31
0.0
  0
LINE
  8
TRMODEL1
  6
CONTINUOUS
 62
     7
  5
560
 10
1.249652
 20
-0.747822
 30
0.0
 11
1.202337
 21
-0.753024
 31
0.0
  0
LINE
  8
TRMODEL1
  6
CONTINUOUS
 62
     7
  5
561
 10
1.202337
 20
-0.753024
 30
0.0
 11
1.154985
 21
-0.758024
 31
0.0
  0
LINE
  8
TRMODEL1
  6
CONTINUOUS
 62
     7
  5
562
 10
1.154985
 20
-0.758024
 30
0.0
 11
1.107597
 21
-0.762824
 31
0.0
  0
LINE
  8
TRMODEL1
  6
CONTINUOUS
 62
     7
  5
563
 10
1.107597
 20
-0.762824
 30
0.0
 11
1.060175
 21
-0.767423
 31
0.0
  0
LINE
  8
TRMODEL1
  6
CONTINUOUS
 62
     7
  5
564
 10
1.060175
 20
-0.767423
 30
0.0
 11
1.012721
 21
-0.771821
 31
0.0
  0
LINE
  8
TRMODEL1
  6
CONTINUOUS
 62
     7
  5
565
 10
1.012721
 20
-0.771821
 30
0.0
 11
0.965236
 21
-0.776017
 31
0.0
  0
LINE
  8
TRMODEL1
  6
CONTINUOUS
 62
     7
  5
566
 10
0.965236
 20
-0.776017
 30
0.0
 11
0.917721
 21
-0.780011
 31
0.0
  0
LINE
  8
TRMODEL1
  6
CONTINUOUS
 62
     7
  5
567
 10
0.917721
 20
-0.780011
 30
0.0
 11
0.870178
 21
-0.783804
 31
0.0
  0
LINE
  8
TRMODEL1
  6
CONTINUOUS
 62
     7
  5
568
 10
0.870178
 20
-0.783804
 30
0.0
 11
0.822608
 21
-0.787395
 31
0.0
  0
LINE
  8
TRMODEL1
  6
CONTINUOUS
 62
     7
  5
569
 10
0.822608
 20
-0.787395
 30
0.0
 11
0.775013
 21
-0.790784
 31
0.0
  0
LINE
  8
TRMODEL1
  6
CONTINUOUS
 62
     7
  5
56A
 10
0.775013
 20
-0.790784
 30
0.0
 11
0.727395
 21
-0.793972
 31
0.0
  0
LINE
  8
TRMODEL1
  6
CONTINUOUS
 62
     7
  5
56B
 10
0.727395
 20
-0.793972
 30
0.0
 11
0.679754
 21
-0.796957
 31
0.0
  0
LINE
  8
TRMODEL1
  6
CONTINUOUS
 62
     7
  5
56C
 10
0.679754
 20
-0.796957
 30
0.0
 11
0.632092
 21
-0.79974
 31
0.0
  0
LINE
  8
TRMODEL1
  6
CONTINUOUS
 62
     7
  5
56D
 10
0.632092
 20
-0.79974
 30
0.0
 11
0.58441
 21
-0.802321
 31
0.0
  0
LINE
  8
TRMODEL1
  6
CONTINUOUS
 62
     7
  5
56E
 10
0.58441
 20
-0.802321
 30
0.0
 11
0.536711
 21
-0.804699
 31
0.0
  0
LINE
  8
TRMODEL1
  6
CONTINUOUS
 62
     7
  5
56F
 10
0.536711
 20
-0.804699
 30
0.0
 11
0.488995
 21
-0.806875
 31
0.0
  0
LINE
  8
TRMODEL1
  6
CONTINUOUS
 62
     7
  5
570
 10
0.488995
 20
-0.806875
 30
0.0
 11
0.441265
 21
-0.808848
 31
0.0
  0
LINE
  8
TRMODEL1
  6
CONTINUOUS
 62
     7
  5
571
 10
0.441265
 20
-0.808848
 30
0.0
 11
0.393521
 21
-0.810619
 31
0.0
  0
LINE
  8
TRMODEL1
  6
CONTINUOUS
 62
     7
  5
572
 10
0.393521
 20
-0.810619
 30
0.0
 11
0.345764
 21
-0.812188
 31
0.0
  0
LINE
  8
TRMODEL1
  6
CONTINUOUS
 62
     7
  5
573
 10
0.345764
 20
-0.812188
 30
0.0
 11
0.297997
 21
-0.813553
 31
0.0
  0
LINE
  8
TRMODEL1
  6
CONTINUOUS
 62
     7
  5
574
 10
0.297997
 20
-0.813553
 30
0.0
 11
0.250221
 21
-0.814716
 31
0.0
  0
LINE
  8
TRMODEL1
  6
CONTINUOUS
 62
     7
  5
575
 10
0.250221
 20
-0.814716
 30
0.0
 11
0.202438
 21
-0.815677
 31
0.0
  0
LINE
  8
TRMODEL1
  6
CONTINUOUS
 62
     7
  5
576
 10
0.202438
 20
-0.815677
 30
0.0
 11
0.154648
 21
-0.816434
 31
0.0
  0
LINE
  8
TRMODEL1
  6
CONTINUOUS
 62
     7
  5
577
 10
0.154648
 20
-0.816434
 30
0.0
 11
0.106853
 21
-0.816989
 31
0.0
  0
LINE
  8
TRMODEL1
  6
CONTINUOUS
 62
     7
  5
578
 10
0.106853
 20
-0.816989
 30
0.0
 11
0.059055
 21
-0.817341
 31
0.0
  0
LINE
  8
TRMODEL1
  6
CONTINUOUS
 62
     7
  5
579
 10
1.720458
 20
-0.722757
 30
0.0
 11
1.673591
 21
-0.729957
 31
0.0
  0
LINE
  8
TRMODEL1
  6
CONTINUOUS
 62
     7
  5
57A
 10
1.673591
 20
-0.729957
 30
0.0
 11
1.626673
 21
-0.736959
 31
0.0
  0
LINE
  8
TRMODEL1
  6
CONTINUOUS
 62
     7
  5
57B
 10
1.626673
 20
-0.736959
 30
0.0
 11
1.579705
 21
-0.743761
 31
0.0
  0
LINE
  8
TRMODEL1
  6
CONTINUOUS
 62
     7
  5
57C
 10
1.579705
 20
-0.743761
 30
0.0
 11
1.532688
 21
-0.750363
 31
0.0
  0
LINE
  8
TRMODEL1
  6
CONTINUOUS
 62
     7
  5
57D
 10
1.532688
 20
-0.750363
 30
0.0
 11
1.485625
 21
-0.756767
 31
0.0
  0
LINE
  8
TRMODEL1
  6
CONTINUOUS
 62
     7
  5
57E
 10
1.485625
 20
-0.756767
 30
0.0
 11
1.438516
 21
-0.76297
 31
0.0
  0
LINE
  8
TRMODEL1
  6
CONTINUOUS
 62
     7
  5
57F
 10
1.438516
 20
-0.76297
 30
0.0
 11
1.391362
 21
-0.768973
 31
0.0
  0
LINE
  8
TRMODEL1
  6
CONTINUOUS
 62
     7
  5
580
 10
1.391362
 20
-0.768973
 30
0.0
 11
1.344166
 21
-0.774776
 31
0.0
  0
LINE
  8
TRMODEL1
  6
CONTINUOUS
 62
     7
  5
581
 10
1.344166
 20
-0.774776
 30
0.0
 11
1.296929
 21
-0.780379
 31
0.0
  0
LINE
  8
TRMODEL1
  6
CONTINUOUS
 62
     7
  5
582
 10
1.296929
 20
-0.780379
 30
0.0
 11
1.249652
 21
-0.785782
 31
0.0
  0
LINE
  8
TRMODEL1
  6
CONTINUOUS
 62
     7
  5
583
 10
1.249652
 20
-0.785782
 30
0.0
 11
1.202337
 21
-0.790983
 31
0.0
  0
LINE
  8
TRMODEL1
  6
CONTINUOUS
 62
     7
  5
584
 10
1.202337
 20
-0.790983
 30
0.0
 11
1.154984
 21
-0.795984
 31
0.0
  0
LINE
  8
TRMODEL1
  6
CONTINUOUS
 62
     7
  5
585
 10
1.154984
 20
-0.795984
 30
0.0
 11
1.107597
 21
-0.800784
 31
0.0
  0
LINE
  8
TRMODEL1
  6
CONTINUOUS
 62
     7
  5
586
 10
1.107597
 20
-0.800784
 30
0.0
 11
1.060175
 21
-0.805383
 31
0.0
  0
LINE
  8
TRMODEL1
  6
CONTINUOUS
 62
     7
  5
587
 10
1.060175
 20
-0.805383
 30
0.0
 11
1.012721
 21
-0.809781
 31
0.0
  0
LINE
  8
TRMODEL1
  6
CONTINUOUS
 62
     7
  5
588
 10
1.012721
 20
-0.809781
 30
0.0
 11
0.965236
 21
-0.813977
 31
0.0
  0
LINE
  8
TRMODEL1
  6
CONTINUOUS
 62
     7
  5
589
 10
0.965236
 20
-0.813977
 30
0.0
 11
0.917721
 21
-0.817971
 31
0.0
  0
LINE
  8
TRMODEL1
  6
CONTINUOUS
 62
     7
  5
58A
 10
0.917721
 20
-0.817971
 30
0.0
 11
0.870178
 21
-0.821764
 31
0.0
  0
LINE
  8
TRMODEL1
  6
CONTINUOUS
 62
     7
  5
58B
 10
0.870178
 20
-0.821764
 30
0.0
 11
0.822608
 21
-0.825355
 31
0.0
  0
LINE
  8
TRMODEL1
  6
CONTINUOUS
 62
     7
  5
58C
 10
0.822608
 20
-0.825355
 30
0.0
 11
0.775013
 21
-0.828744
 31
0.0
  0
LINE
  8
TRMODEL1
  6
CONTINUOUS
 62
     7
  5
58D
 10
0.775013
 20
-0.828744
 30
0.0
 11
0.727394
 21
-0.831932
 31
0.0
  0
LINE
  8
TRMODEL1
  6
CONTINUOUS
 62
     7
  5
58E
 10
0.727394
 20
-0.831932
 30
0.0
 11
0.679753
 21
-0.834917
 31
0.0
  0
LINE
  8
TRMODEL1
  6
CONTINUOUS
 62
     7
  5
58F
 10
0.679753
 20
-0.834917
 30
0.0
 11
0.632091
 21
-0.8377
 31
0.0
  0
LINE
  8
TRMODEL1
  6
CONTINUOUS
 62
     7
  5
590
 10
0.632091
 20
-0.8377
 30
0.0
 11
0.58441
 21
-0.84028
 31
0.0
  0
LINE
  8
TRMODEL1
  6
CONTINUOUS
 62
     7
  5
591
 10
0.58441
 20
-0.84028
 30
0.0
 11
0.536711
 21
-0.842659
 31
0.0
  0
LINE
  8
TRMODEL1
  6
CONTINUOUS
 62
     7
  5
592
 10
0.536711
 20
-0.842659
 30
0.0
 11
0.488995
 21
-0.844835
 31
0.0
  0
LINE
  8
TRMODEL1
  6
CONTINUOUS
 62
     7
  5
593
 10
0.488995
 20
-0.844835
 30
0.0
 11
0.441265
 21
-0.846808
 31
0.0
  0
LINE
  8
TRMODEL1
  6
CONTINUOUS
 62
     7
  5
594
 10
0.441265
 20
-0.846808
 30
0.0
 11
0.39352
 21
-0.848579
 31
0.0
  0
LINE
  8
TRMODEL1
  6
CONTINUOUS
 62
     7
  5
595
 10
0.39352
 20
-0.848579
 30
0.0
 11
0.345764
 21
-0.850148
 31
0.0
  0
LINE
  8
TRMODEL1
  6
CONTINUOUS
 62
     7
  5
596
 10
0.345764
 20
-0.850148
 30
0.0
 11
0.297997
 21
-0.851513
 31
0.0
  0
LINE
  8
TRMODEL1
  6
CONTINUOUS
 62
     7
  5
597
 10
0.297997
 20
-0.851513
 30
0.0
 11
0.250221
 21
-0.852676
 31
0.0
  0
LINE
  8
TRMODEL1
  6
CONTINUOUS
 62
     7
  5
598
 10
0.250221
 20
-0.852676
 30
0.0
 11
0.202438
 21
-0.853637
 31
0.0
  0
LINE
  8
TRMODEL1
  6
CONTINUOUS
 62
     7
  5
599
 10
0.202438
 20
-0.853637
 30
0.0
 11
0.154648
 21
-0.854394
 31
0.0
  0
LINE
  8
TRMODEL1
  6
CONTINUOUS
 62
     7
  5
59A
 10
0.154648
 20
-0.854394
 30
0.0
 11
0.106853
 21
-0.854949
 31
0.0
  0
LINE
  8
TRMODEL1
  6
CONTINUOUS
 62
     7
  5
59B
 10
0.106853
 20
-0.854949
 30
0.0
 11
0.059055
 21
-0.855301
 31
0.0
  0
LINE
  8
TRMODEL1
  6
CONTINUOUS
 62
     7
  5
59C
 10
-0.059055
 20
-0.855301
 30
0.0
 11
-0.106853
 21
-0.854949
 31
0.0
  0
LINE
  8
TRMODEL1
  6
CONTINUOUS
 62
     7
  5
59D
 10
-0.106853
 20
-0.854949
 30
0.0
 11
-0.154648
 21
-0.854394
 31
0.0
  0
LINE
  8
TRMODEL1
  6
CONTINUOUS
 62
     7
  5
59E
 10
-0.154648
 20
-0.854394
 30
0.0
 11
-0.202438
 21
-0.853637
 31
0.0
  0
LINE
  8
TRMODEL1
  6
CONTINUOUS
 62
     7
  5
59F
 10
-0.202438
 20
-0.853637
 30
0.0
 11
-0.250221
 21
-0.852676
 31
0.0
  0
LINE
  8
TRMODEL1
  6
CONTINUOUS
 62
     7
  5
5A0
 10
-0.250221
 20
-0.852676
 30
0.0
 11
-0.297997
 21
-0.851513
 31
0.0
  0
LINE
  8
TRMODEL1
  6
CONTINUOUS
 62
     7
  5
5A1
 10
-0.297997
 20
-0.851513
 30
0.0
 11
-0.345764
 21
-0.850148
 31
0.0
  0
LINE
  8
TRMODEL1
  6
CONTINUOUS
 62
     7
  5
5A2
 10
-0.345764
 20
-0.850148
 30
0.0
 11
-0.39352
 21
-0.848579
 31
0.0
  0
LINE
  8
TRMODEL1
  6
CONTINUOUS
 62
     7
  5
5A3
 10
-0.39352
 20
-0.848579
 30
0.0
 11
-0.441265
 21
-0.846808
 31
0.0
  0
LINE
  8
TRMODEL1
  6
CONTINUOUS
 62
     7
  5
5A4
 10
-0.441265
 20
-0.846808
 30
0.0
 11
-0.488995
 21
-0.844835
 31
0.0
  0
LINE
  8
TRMODEL1
  6
CONTINUOUS
 62
     7
  5
5A5
 10
-0.488995
 20
-0.844835
 30
0.0
 11
-0.536711
 21
-0.842659
 31
0.0
  0
LINE
  8
TRMODEL1
  6
CONTINUOUS
 62
     7
  5
5A6
 10
-0.536711
 20
-0.842659
 30
0.0
 11
-0.58441
 21
-0.84028
 31
0.0
  0
LINE
  8
TRMODEL1
  6
CONTINUOUS
 62
     7
  5
5A7
 10
-0.58441
 20
-0.84028
 30
0.0
 11
-0.632091
 21
-0.8377
 31
0.0
  0
LINE
  8
TRMODEL1
  6
CONTINUOUS
 62
     7
  5
5A8
 10
-0.632091
 20
-0.8377
 30
0.0
 11
-0.679753
 21
-0.834917
 31
0.0
  0
LINE
  8
TRMODEL1
  6
CONTINUOUS
 62
     7
  5
5A9
 10
-0.679753
 20
-0.834917
 30
0.0
 11
-0.727394
 21
-0.831932
 31
0.0
  0
LINE
  8
TRMODEL1
  6
CONTINUOUS
 62
     7
  5
5AA
 10
-0.727394
 20
-0.831932
 30
0.0
 11
-0.775013
 21
-0.828744
 31
0.0
  0
LINE
  8
TRMODEL1
  6
CONTINUOUS
 62
     7
  5
5AB
 10
-0.775013
 20
-0.828744
 30
0.0
 11
-0.822608
 21
-0.825355
 31
0.0
  0
LINE
  8
TRMODEL1
  6
CONTINUOUS
 62
     7
  5
5AC
 10
-0.822608
 20
-0.825355
 30
0.0
 11
-0.870178
 21
-0.821764
 31
0.0
  0
LINE
  8
TRMODEL1
  6
CONTINUOUS
 62
     7
  5
5AD
 10
-0.870178
 20
-0.821764
 30
0.0
 11
-0.917721
 21
-0.817971
 31
0.0
  0
LINE
  8
TRMODEL1
  6
CONTINUOUS
 62
     7
  5
5AE
 10
-0.917721
 20
-0.817971
 30
0.0
 11
-0.965236
 21
-0.813977
 31
0.0
  0
LINE
  8
TRMODEL1
  6
CONTINUOUS
 62
     7
  5
5AF
 10
-0.965236
 20
-0.813977
 30
0.0
 11
-1.012721
 21
-0.809781
 31
0.0
  0
LINE
  8
TRMODEL1
  6
CONTINUOUS
 62
     7
  5
5B0
 10
-1.012721
 20
-0.809781
 30
0.0
 11
-1.060175
 21
-0.805383
 31
0.0
  0
LINE
  8
TRMODEL1
  6
CONTINUOUS
 62
     7
  5
5B1
 10
-1.060175
 20
-0.805383
 30
0.0
 11
-1.107597
 21
-0.800784
 31
0.0
  0
LINE
  8
TRMODEL1
  6
CONTINUOUS
 62
     7
  5
5B2
 10
-1.107597
 20
-0.800784
 30
0.0
 11
-1.154984
 21
-0.795984
 31
0.0
  0
LINE
  8
TRMODEL1
  6
CONTINUOUS
 62
     7
  5
5B3
 10
-1.154984
 20
-0.795984
 30
0.0
 11
-1.202337
 21
-0.790983
 31
0.0
  0
LINE
  8
TRMODEL1
  6
CONTINUOUS
 62
     7
  5
5B4
 10
-1.202337
 20
-0.790983
 30
0.0
 11
-1.249652
 21
-0.785782
 31
0.0
  0
LINE
  8
TRMODEL1
  6
CONTINUOUS
 62
     7
  5
5B5
 10
-1.249652
 20
-0.785782
 30
0.0
 11
-1.296929
 21
-0.780379
 31
0.0
  0
LINE
  8
TRMODEL1
  6
CONTINUOUS
 62
     7
  5
5B6
 10
-1.296929
 20
-0.780379
 30
0.0
 11
-1.344166
 21
-0.774776
 31
0.0
  0
LINE
  8
TRMODEL1
  6
CONTINUOUS
 62
     7
  5
5B7
 10
-1.344166
 20
-0.774776
 30
0.0
 11
-1.391362
 21
-0.768973
 31
0.0
  0
LINE
  8
TRMODEL1
  6
CONTINUOUS
 62
     7
  5
5B8
 10
-1.391362
 20
-0.768973
 30
0.0
 11
-1.438516
 21
-0.76297
 31
0.0
  0
LINE
  8
TRMODEL1
  6
CONTINUOUS
 62
     7
  5
5B9
 10
-1.438516
 20
-0.76297
 30
0.0
 11
-1.485625
 21
-0.756767
 31
0.0
  0
LINE
  8
TRMODEL1
  6
CONTINUOUS
 62
     7
  5
5BA
 10
-1.485625
 20
-0.756767
 30
0.0
 11
-1.532688
 21
-0.750363
 31
0.0
  0
LINE
  8
TRMODEL1
  6
CONTINUOUS
 62
     7
  5
5BB
 10
-1.532688
 20
-0.750363
 30
0.0
 11
-1.579705
 21
-0.743761
 31
0.0
  0
LINE
  8
TRMODEL1
  6
CONTINUOUS
 62
     7
  5
5BC
 10
-1.579705
 20
-0.743761
 30
0.0
 11
-1.626673
 21
-0.736959
 31
0.0
  0
LINE
  8
TRMODEL1
  6
CONTINUOUS
 62
     7
  5
5BD
 10
-1.626673
 20
-0.736959
 30
0.0
 11
-1.673591
 21
-0.729957
 31
0.0
  0
LINE
  8
TRMODEL1
  6
CONTINUOUS
 62
     7
  5
5BE
 10
-1.673591
 20
-0.729957
 30
0.0
 11
-1.720458
 21
-0.722757
 31
0.0
  0
LINE
  8
TRMODEL1
  6
CONTINUOUS
 62
     7
  5
5BF
 10
-0.059055
 20
-0.817341
 30
0.0
 11
-0.106853
 21
-0.816989
 31
0.0
  0
LINE
  8
TRMODEL1
  6
CONTINUOUS
 62
     7
  5
5C0
 10
-0.106853
 20
-0.816989
 30
0.0
 11
-0.154648
 21
-0.816434
 31
0.0
  0
LINE
  8
TRMODEL1
  6
CONTINUOUS
 62
     7
  5
5C1
 10
-0.154648
 20
-0.816434
 30
0.0
 11
-0.202438
 21
-0.815677
 31
0.0
  0
LINE
  8
TRMODEL1
  6
CONTINUOUS
 62
     7
  5
5C2
 10
-0.202438
 20
-0.815677
 30
0.0
 11
-0.250221
 21
-0.814716
 31
0.0
  0
LINE
  8
TRMODEL1
  6
CONTINUOUS
 62
     7
  5
5C3
 10
-0.250221
 20
-0.814716
 30
0.0
 11
-0.297997
 21
-0.813553
 31
0.0
  0
LINE
  8
TRMODEL1
  6
CONTINUOUS
 62
     7
  5
5C4
 10
-0.297997
 20
-0.813553
 30
0.0
 11
-0.345764
 21
-0.812188
 31
0.0
  0
LINE
  8
TRMODEL1
  6
CONTINUOUS
 62
     7
  5
5C5
 10
-0.345764
 20
-0.812188
 30
0.0
 11
-0.393521
 21
-0.810619
 31
0.0
  0
LINE
  8
TRMODEL1
  6
CONTINUOUS
 62
     7
  5
5C6
 10
-0.393521
 20
-0.810619
 30
0.0
 11
-0.441265
 21
-0.808848
 31
0.0
  0
LINE
  8
TRMODEL1
  6
CONTINUOUS
 62
     7
  5
5C7
 10
-0.441265
 20
-0.808848
 30
0.0
 11
-0.488995
 21
-0.806875
 31
0.0
  0
LINE
  8
TRMODEL1
  6
CONTINUOUS
 62
     7
  5
5C8
 10
-0.488995
 20
-0.806875
 30
0.0
 11
-0.536711
 21
-0.804699
 31
0.0
  0
LINE
  8
TRMODEL1
  6
CONTINUOUS
 62
     7
  5
5C9
 10
-0.536711
 20
-0.804699
 30
0.0
 11
-0.58441
 21
-0.802321
 31
0.0
  0
LINE
  8
TRMODEL1
  6
CONTINUOUS
 62
     7
  5
5CA
 10
-0.58441
 20
-0.802321
 30
0.0
 11
-0.632092
 21
-0.79974
 31
0.0
  0
LINE
  8
TRMODEL1
  6
CONTINUOUS
 62
     7
  5
5CB
 10
-0.632092
 20
-0.79974
 30
0.0
 11
-0.679754
 21
-0.796957
 31
0.0
  0
LINE
  8
TRMODEL1
  6
CONTINUOUS
 62
     7
  5
5CC
 10
-0.679754
 20
-0.796957
 30
0.0
 11
-0.727395
 21
-0.793972
 31
0.0
  0
LINE
  8
TRMODEL1
  6
CONTINUOUS
 62
     7
  5
5CD
 10
-0.727395
 20
-0.793972
 30
0.0
 11
-0.775013
 21
-0.790784
 31
0.0
  0
LINE
  8
TRMODEL1
  6
CONTINUOUS
 62
     7
  5
5CE
 10
-0.775013
 20
-0.790784
 30
0.0
 11
-0.822608
 21
-0.787395
 31
0.0
  0
LINE
  8
TRMODEL1
  6
CONTINUOUS
 62
     7
  5
5CF
 10
-0.822608
 20
-0.787395
 30
0.0
 11
-0.870178
 21
-0.783804
 31
0.0
  0
LINE
  8
TRMODEL1
  6
CONTINUOUS
 62
     7
  5
5D0
 10
-0.870178
 20
-0.783804
 30
0.0
 11
-0.917721
 21
-0.780011
 31
0.0
  0
LINE
  8
TRMODEL1
  6
CONTINUOUS
 62
     7
  5
5D1
 10
-0.917721
 20
-0.780011
 30
0.0
 11
-0.965236
 21
-0.776017
 31
0.0
  0
LINE
  8
TRMODEL1
  6
CONTINUOUS
 62
     7
  5
5D2
 10
-0.965236
 20
-0.776017
 30
0.0
 11
-1.012721
 21
-0.771821
 31
0.0
  0
LINE
  8
TRMODEL1
  6
CONTINUOUS
 62
     7
  5
5D3
 10
-1.012721
 20
-0.771821
 30
0.0
 11
-1.060175
 21
-0.767423
 31
0.0
  0
LINE
  8
TRMODEL1
  6
CONTINUOUS
 62
     7
  5
5D4
 10
-1.060175
 20
-0.767423
 30
0.0
 11
-1.107597
 21
-0.762824
 31
0.0
  0
LINE
  8
TRMODEL1
  6
CONTINUOUS
 62
     7
  5
5D5
 10
-1.107597
 20
-0.762824
 30
0.0
 11
-1.154985
 21
-0.758024
 31
0.0
  0
LINE
  8
TRMODEL1
  6
CONTINUOUS
 62
     7
  5
5D6
 10
-1.154985
 20
-0.758024
 30
0.0
 11
-1.202337
 21
-0.753024
 31
0.0
  0
LINE
  8
TRMODEL1
  6
CONTINUOUS
 62
     7
  5
5D7
 10
-1.202337
 20
-0.753024
 30
0.0
 11
-1.249652
 21
-0.747822
 31
0.0
  0
LINE
  8
TRMODEL1
  6
CONTINUOUS
 62
     7
  5
5D8
 10
-1.249652
 20
-0.747822
 30
0.0
 11
-1.296929
 21
-0.742419
 31
0.0
  0
LINE
  8
TRMODEL1
  6
CONTINUOUS
 62
     7
  5
5D9
 10
-1.296929
 20
-0.742419
 30
0.0
 11
-1.344167
 21
-0.736817
 31
0.0
  0
LINE
  8
TRMODEL1
  6
CONTINUOUS
 62
     7
  5
5DA
 10
-1.344167
 20
-0.736817
 30
0.0
 11
-1.391363
 21
-0.731013
 31
0.0
  0
LINE
  8
TRMODEL1
  6
CONTINUOUS
 62
     7
  5
5DB
 10
-1.391363
 20
-0.731013
 30
0.0
 11
-1.438516
 21
-0.72501
 31
0.0
  0
LINE
  8
TRMODEL1
  6
CONTINUOUS
 62
     7
  5
5DC
 10
-1.438516
 20
-0.72501
 30
0.0
 11
-1.485625
 21
-0.718807
 31
0.0
  0
LINE
  8
TRMODEL1
  6
CONTINUOUS
 62
     7
  5
5DD
 10
-1.485625
 20
-0.718807
 30
0.0
 11
-1.532689
 21
-0.712403
 31
0.0
  0
LINE
  8
TRMODEL1
  6
CONTINUOUS
 62
     7
  5
5DE
 10
-1.532689
 20
-0.712403
 30
0.0
 11
-1.579706
 21
-0.705801
 31
0.0
  0
LINE
  8
TRMODEL1
  6
CONTINUOUS
 62
     7
  5
5DF
 10
-1.579706
 20
-0.705801
 30
0.0
 11
-1.626674
 21
-0.698999
 31
0.0
  0
LINE
  8
TRMODEL1
  6
CONTINUOUS
 62
     7
  5
5E0
 10
-1.626674
 20
-0.698999
 30
0.0
 11
-1.673592
 21
-0.691997
 31
0.0
  0
LINE
  8
TRMODEL1
  6
CONTINUOUS
 62
     7
  5
5E1
 10
-1.673592
 20
-0.691997
 30
0.0
 11
-1.720459
 21
-0.684797
 31
0.0
  0
LINE
  8
TRMODEL1
  6
CONTINUOUS
 62
     7
  5
5E2
 10
1.720472
 20
-0.193232
 30
0.0
 11
1.673605
 21
-0.200432
 31
0.0
  0
LINE
  8
TRMODEL1
  6
CONTINUOUS
 62
     7
  5
5E3
 10
1.673605
 20
-0.200432
 30
0.0
 11
1.626687
 21
-0.207433
 31
0.0
  0
LINE
  8
TRMODEL1
  6
CONTINUOUS
 62
     7
  5
5E4
 10
1.626687
 20
-0.207433
 30
0.0
 11
1.579718
 21
-0.214235
 31
0.0
  0
LINE
  8
TRMODEL1
  6
CONTINUOUS
 62
     7
  5
5E5
 10
1.579718
 20
-0.214235
 30
0.0
 11
1.532701
 21
-0.220838
 31
0.0
  0
LINE
  8
TRMODEL1
  6
CONTINUOUS
 62
     7
  5
5E6
 10
1.532701
 20
-0.220838
 30
0.0
 11
1.485637
 21
-0.227241
 31
0.0
  0
LINE
  8
TRMODEL1
  6
CONTINUOUS
 62
     7
  5
5E7
 10
1.485637
 20
-0.227241
 30
0.0
 11
1.438527
 21
-0.233445
 31
0.0
  0
LINE
  8
TRMODEL1
  6
CONTINUOUS
 62
     7
  5
5E8
 10
1.438527
 20
-0.233445
 30
0.0
 11
1.391374
 21
-0.239448
 31
0.0
  0
LINE
  8
TRMODEL1
  6
CONTINUOUS
 62
     7
  5
5E9
 10
1.391374
 20
-0.239448
 30
0.0
 11
1.344177
 21
-0.245252
 31
0.0
  0
LINE
  8
TRMODEL1
  6
CONTINUOUS
 62
     7
  5
5EA
 10
1.344177
 20
-0.245252
 30
0.0
 11
1.29694
 21
-0.250855
 31
0.0
  0
LINE
  8
TRMODEL1
  6
CONTINUOUS
 62
     7
  5
5EB
 10
1.29694
 20
-0.250855
 30
0.0
 11
1.249662
 21
-0.256257
 31
0.0
  0
LINE
  8
TRMODEL1
  6
CONTINUOUS
 62
     7
  5
5EC
 10
1.249662
 20
-0.256257
 30
0.0
 11
1.202346
 21
-0.261459
 31
0.0
  0
LINE
  8
TRMODEL1
  6
CONTINUOUS
 62
     7
  5
5ED
 10
1.202346
 20
-0.261459
 30
0.0
 11
1.154994
 21
-0.26646
 31
0.0
  0
LINE
  8
TRMODEL1
  6
CONTINUOUS
 62
     7
  5
5EE
 10
1.154994
 20
-0.26646
 30
0.0
 11
1.107606
 21
-0.27126
 31
0.0
  0
LINE
  8
TRMODEL1
  6
CONTINUOUS
 62
     7
  5
5EF
 10
1.107606
 20
-0.27126
 30
0.0
 11
1.060184
 21
-0.275859
 31
0.0
  0
LINE
  8
TRMODEL1
  6
CONTINUOUS
 62
     7
  5
5F0
 10
1.060184
 20
-0.275859
 30
0.0
 11
1.012729
 21
-0.280256
 31
0.0
  0
LINE
  8
TRMODEL1
  6
CONTINUOUS
 62
     7
  5
5F1
 10
1.012729
 20
-0.280256
 30
0.0
 11
0.965243
 21
-0.284452
 31
0.0
  0
LINE
  8
TRMODEL1
  6
CONTINUOUS
 62
     7
  5
5F2
 10
0.965243
 20
-0.284452
 30
0.0
 11
0.917728
 21
-0.288447
 31
0.0
  0
LINE
  8
TRMODEL1
  6
CONTINUOUS
 62
     7
  5
5F3
 10
0.917728
 20
-0.288447
 30
0.0
 11
0.870185
 21
-0.29224
 31
0.0
  0
LINE
  8
TRMODEL1
  6
CONTINUOUS
 62
     7
  5
5F4
 10
0.870185
 20
-0.29224
 30
0.0
 11
0.822615
 21
-0.295831
 31
0.0
  0
LINE
  8
TRMODEL1
  6
CONTINUOUS
 62
     7
  5
5F5
 10
0.822615
 20
-0.295831
 30
0.0
 11
0.775019
 21
-0.299221
 31
0.0
  0
LINE
  8
TRMODEL1
  6
CONTINUOUS
 62
     7
  5
5F6
 10
0.775019
 20
-0.299221
 30
0.0
 11
0.7274
 21
-0.302408
 31
0.0
  0
LINE
  8
TRMODEL1
  6
CONTINUOUS
 62
     7
  5
5F7
 10
0.7274
 20
-0.302408
 30
0.0
 11
0.679759
 21
-0.305393
 31
0.0
  0
LINE
  8
TRMODEL1
  6
CONTINUOUS
 62
     7
  5
5F8
 10
0.679759
 20
-0.305393
 30
0.0
 11
0.632096
 21
-0.308176
 31
0.0
  0
LINE
  8
TRMODEL1
  6
CONTINUOUS
 62
     7
  5
5F9
 10
0.632096
 20
-0.308176
 30
0.0
 11
0.584415
 21
-0.310757
 31
0.0
  0
LINE
  8
TRMODEL1
  6
CONTINUOUS
 62
     7
  5
5FA
 10
0.584415
 20
-0.310757
 30
0.0
 11
0.536715
 21
-0.313135
 31
0.0
  0
LINE
  8
TRMODEL1
  6
CONTINUOUS
 62
     7
  5
5FB
 10
0.536715
 20
-0.313135
 30
0.0
 11
0.488999
 21
-0.315311
 31
0.0
  0
LINE
  8
TRMODEL1
  6
CONTINUOUS
 62
     7
  5
5FC
 10
0.488999
 20
-0.315311
 30
0.0
 11
0.441268
 21
-0.317285
 31
0.0
  0
LINE
  8
TRMODEL1
  6
CONTINUOUS
 62
     7
  5
5FD
 10
0.441268
 20
-0.317285
 30
0.0
 11
0.393523
 21
-0.319056
 31
0.0
  0
LINE
  8
TRMODEL1
  6
CONTINUOUS
 62
     7
  5
5FE
 10
0.393523
 20
-0.319056
 30
0.0
 11
0.345767
 21
-0.320624
 31
0.0
  0
LINE
  8
TRMODEL1
  6
CONTINUOUS
 62
     7
  5
5FF
 10
0.345767
 20
-0.320624
 30
0.0
 11
0.297999
 21
-0.32199
 31
0.0
  0
LINE
  8
TRMODEL1
  6
CONTINUOUS
 62
     7
  5
600
 10
0.297999
 20
-0.32199
 30
0.0
 11
0.250223
 21
-0.323153
 31
0.0
  0
LINE
  8
TRMODEL1
  6
CONTINUOUS
 62
     7
  5
601
 10
0.250223
 20
-0.323153
 30
0.0
 11
0.202439
 21
-0.324113
 31
0.0
  0
LINE
  8
TRMODEL1
  6
CONTINUOUS
 62
     7
  5
602
 10
0.202439
 20
-0.324113
 30
0.0
 11
0.154649
 21
-0.324871
 31
0.0
  0
LINE
  8
TRMODEL1
  6
CONTINUOUS
 62
     7
  5
603
 10
0.154649
 20
-0.324871
 30
0.0
 11
0.106853
 21
-0.325425
 31
0.0
  0
LINE
  8
TRMODEL1
  6
CONTINUOUS
 62
     7
  5
604
 10
0.106853
 20
-0.325425
 30
0.0
 11
0.059055
 21
-0.325777
 31
0.0
  0
LINE
  8
TRMODEL1
  6
CONTINUOUS
 62
     7
  5
605
 10
1.720472
 20
-0.231191
 30
0.0
 11
1.673605
 21
-0.238392
 31
0.0
  0
LINE
  8
TRMODEL1
  6
CONTINUOUS
 62
     7
  5
606
 10
1.673605
 20
-0.238392
 30
0.0
 11
1.626687
 21
-0.245393
 31
0.0
  0
LINE
  8
TRMODEL1
  6
CONTINUOUS
 62
     7
  5
607
 10
1.626687
 20
-0.245393
 30
0.0
 11
1.579718
 21
-0.252195
 31
0.0
  0
LINE
  8
TRMODEL1
  6
CONTINUOUS
 62
     7
  5
608
 10
1.579718
 20
-0.252195
 30
0.0
 11
1.532701
 21
-0.258798
 31
0.0
  0
LINE
  8
TRMODEL1
  6
CONTINUOUS
 62
     7
  5
609
 10
1.532701
 20
-0.258798
 30
0.0
 11
1.485637
 21
-0.265201
 31
0.0
  0
LINE
  8
TRMODEL1
  6
CONTINUOUS
 62
     7
  5
60A
 10
1.485637
 20
-0.265201
 30
0.0
 11
1.438527
 21
-0.271405
 31
0.0
  0
LINE
  8
TRMODEL1
  6
CONTINUOUS
 62
     7
  5
60B
 10
1.438527
 20
-0.271405
 30
0.0
 11
1.391374
 21
-0.277408
 31
0.0
  0
LINE
  8
TRMODEL1
  6
CONTINUOUS
 62
     7
  5
60C
 10
1.391374
 20
-0.277408
 30
0.0
 11
1.344177
 21
-0.283212
 31
0.0
  0
LINE
  8
TRMODEL1
  6
CONTINUOUS
 62
     7
  5
60D
 10
1.344177
 20
-0.283212
 30
0.0
 11
1.29694
 21
-0.288815
 31
0.0
  0
LINE
  8
TRMODEL1
  6
CONTINUOUS
 62
     7
  5
60E
 10
1.29694
 20
-0.288815
 30
0.0
 11
1.249662
 21
-0.294217
 31
0.0
  0
LINE
  8
TRMODEL1
  6
CONTINUOUS
 62
     7
  5
60F
 10
1.249662
 20
-0.294217
 30
0.0
 11
1.202346
 21
-0.299419
 31
0.0
  0
LINE
  8
TRMODEL1
  6
CONTINUOUS
 62
     7
  5
610
 10
1.202346
 20
-0.299419
 30
0.0
 11
1.154994
 21
-0.30442
 31
0.0
  0
LINE
  8
TRMODEL1
  6
CONTINUOUS
 62
     7
  5
611
 10
1.154994
 20
-0.30442
 30
0.0
 11
1.107606
 21
-0.30922
 31
0.0
  0
LINE
  8
TRMODEL1
  6
CONTINUOUS
 62
     7
  5
612
 10
1.107606
 20
-0.30922
 30
0.0
 11
1.060184
 21
-0.313819
 31
0.0
  0
LINE
  8
TRMODEL1
  6
CONTINUOUS
 62
     7
  5
613
 10
1.060184
 20
-0.313819
 30
0.0
 11
1.012729
 21
-0.318216
 31
0.0
  0
LINE
  8
TRMODEL1
  6
CONTINUOUS
 62
     7
  5
614
 10
1.012729
 20
-0.318216
 30
0.0
 11
0.965243
 21
-0.322412
 31
0.0
  0
LINE
  8
TRMODEL1
  6
CONTINUOUS
 62
     7
  5
615
 10
0.965243
 20
-0.322412
 30
0.0
 11
0.917728
 21
-0.326407
 31
0.0
  0
LINE
  8
TRMODEL1
  6
CONTINUOUS
 62
     7
  5
616
 10
0.917728
 20
-0.326407
 30
0.0
 11
0.870185
 21
-0.3302
 31
0.0
  0
LINE
  8
TRMODEL1
  6
CONTINUOUS
 62
     7
  5
617
 10
0.870185
 20
-0.3302
 30
0.0
 11
0.822615
 21
-0.333791
 31
0.0
  0
LINE
  8
TRMODEL1
  6
CONTINUOUS
 62
     7
  5
618
 10
0.822615
 20
-0.333791
 30
0.0
 11
0.775019
 21
-0.33718
 31
0.0
  0
LINE
  8
TRMODEL1
  6
CONTINUOUS
 62
     7
  5
619
 10
0.775019
 20
-0.33718
 30
0.0
 11
0.7274
 21
-0.340368
 31
0.0
  0
LINE
  8
TRMODEL1
  6
CONTINUOUS
 62
     7
  5
61A
 10
0.7274
 20
-0.340368
 30
0.0
 11
0.679759
 21
-0.343353
 31
0.0
  0
LINE
  8
TRMODEL1
  6
CONTINUOUS
 62
     7
  5
61B
 10
0.679759
 20
-0.343353
 30
0.0
 11
0.632096
 21
-0.346136
 31
0.0
  0
LINE
  8
TRMODEL1
  6
CONTINUOUS
 62
     7
  5
61C
 10
0.632096
 20
-0.346136
 30
0.0
 11
0.584415
 21
-0.348717
 31
0.0
  0
LINE
  8
TRMODEL1
  6
CONTINUOUS
 62
     7
  5
61D
 10
0.584415
 20
-0.348717
 30
0.0
 11
0.536715
 21
-0.351095
 31
0.0
  0
LINE
  8
TRMODEL1
  6
CONTINUOUS
 62
     7
  5
61E
 10
0.536715
 20
-0.351095
 30
0.0
 11
0.488999
 21
-0.353271
 31
0.0
  0
LINE
  8
TRMODEL1
  6
CONTINUOUS
 62
     7
  5
61F
 10
0.488999
 20
-0.353271
 30
0.0
 11
0.441268
 21
-0.355245
 31
0.0
  0
LINE
  8
TRMODEL1
  6
CONTINUOUS
 62
     7
  5
620
 10
0.441268
 20
-0.355245
 30
0.0
 11
0.393523
 21
-0.357016
 31
0.0
  0
LINE
  8
TRMODEL1
  6
CONTINUOUS
 62
     7
  5
621
 10
0.393523
 20
-0.357016
 30
0.0
 11
0.345767
 21
-0.358584
 31
0.0
  0
LINE
  8
TRMODEL1
  6
CONTINUOUS
 62
     7
  5
622
 10
0.345767
 20
-0.358584
 30
0.0
 11
0.297999
 21
-0.35995
 31
0.0
  0
LINE
  8
TRMODEL1
  6
CONTINUOUS
 62
     7
  5
623
 10
0.297999
 20
-0.35995
 30
0.0
 11
0.250223
 21
-0.361113
 31
0.0
  0
LINE
  8
TRMODEL1
  6
CONTINUOUS
 62
     7
  5
624
 10
0.250223
 20
-0.361113
 30
0.0
 11
0.202439
 21
-0.362073
 31
0.0
  0
LINE
  8
TRMODEL1
  6
CONTINUOUS
 62
     7
  5
625
 10
0.202439
 20
-0.362073
 30
0.0
 11
0.154649
 21
-0.362831
 31
0.0
  0
LINE
  8
TRMODEL1
  6
CONTINUOUS
 62
     7
  5
626
 10
0.154649
 20
-0.362831
 30
0.0
 11
0.106853
 21
-0.363385
 31
0.0
  0
LINE
  8
TRMODEL1
  6
CONTINUOUS
 62
     7
  5
627
 10
0.106853
 20
-0.363385
 30
0.0
 11
0.059055
 21
-0.363737
 31
0.0
  0
LINE
  8
TRMODEL1
  6
CONTINUOUS
 62
     7
  5
628
 10
-0.059055
 20
-0.363737
 30
0.0
 11
-0.106853
 21
-0.363385
 31
0.0
  0
LINE
  8
TRMODEL1
  6
CONTINUOUS
 62
     7
  5
629
 10
-0.106853
 20
-0.363385
 30
0.0
 11
-0.154648
 21
-0.362831
 31
0.0
  0
LINE
  8
TRMODEL1
  6
CONTINUOUS
 62
     7
  5
62A
 10
-0.154648
 20
-0.362831
 30
0.0
 11
-0.202438
 21
-0.362073
 31
0.0
  0
LINE
  8
TRMODEL1
  6
CONTINUOUS
 62
     7
  5
62B
 10
-0.202438
 20
-0.362073
 30
0.0
 11
-0.250222
 21
-0.361113
 31
0.0
  0
LINE
  8
TRMODEL1
  6
CONTINUOUS
 62
     7
  5
62C
 10
-0.250222
 20
-0.361113
 30
0.0
 11
-0.297998
 21
-0.35995
 31
0.0
  0
LINE
  8
TRMODEL1
  6
CONTINUOUS
 62
     7
  5
62D
 10
-0.297998
 20
-0.35995
 30
0.0
 11
-0.345766
 21
-0.358584
 31
0.0
  0
LINE
  8
TRMODEL1
  6
CONTINUOUS
 62
     7
  5
62E
 10
-0.345766
 20
-0.358584
 30
0.0
 11
-0.393522
 21
-0.357016
 31
0.0
  0
LINE
  8
TRMODEL1
  6
CONTINUOUS
 62
     7
  5
62F
 10
-0.393522
 20
-0.357016
 30
0.0
 11
-0.441266
 21
-0.355245
 31
0.0
  0
LINE
  8
TRMODEL1
  6
CONTINUOUS
 62
     7
  5
630
 10
-0.441266
 20
-0.355245
 30
0.0
 11
-0.488997
 21
-0.353271
 31
0.0
  0
LINE
  8
TRMODEL1
  6
CONTINUOUS
 62
     7
  5
631
 10
-0.488997
 20
-0.353271
 30
0.0
 11
-0.536713
 21
-0.351095
 31
0.0
  0
LINE
  8
TRMODEL1
  6
CONTINUOUS
 62
     7
  5
632
 10
-0.536713
 20
-0.351095
 30
0.0
 11
-0.584413
 21
-0.348717
 31
0.0
  0
LINE
  8
TRMODEL1
  6
CONTINUOUS
 62
     7
  5
633
 10
-0.584413
 20
-0.348717
 30
0.0
 11
-0.632094
 21
-0.346136
 31
0.0
  0
LINE
  8
TRMODEL1
  6
CONTINUOUS
 62
     7
  5
634
 10
-0.632094
 20
-0.346136
 30
0.0
 11
-0.679756
 21
-0.343353
 31
0.0
  0
LINE
  8
TRMODEL1
  6
CONTINUOUS
 62
     7
  5
635
 10
-0.679756
 20
-0.343353
 30
0.0
 11
-0.727398
 21
-0.340368
 31
0.0
  0
LINE
  8
TRMODEL1
  6
CONTINUOUS
 62
     7
  5
636
 10
-0.727398
 20
-0.340368
 30
0.0
 11
-0.775016
 21
-0.337181
 31
0.0
  0
LINE
  8
TRMODEL1
  6
CONTINUOUS
 62
     7
  5
637
 10
-0.775016
 20
-0.337181
 30
0.0
 11
-0.822612
 21
-0.333791
 31
0.0
  0
LINE
  8
TRMODEL1
  6
CONTINUOUS
 62
     7
  5
638
 10
-0.822612
 20
-0.333791
 30
0.0
 11
-0.870182
 21
-0.3302
 31
0.0
  0
LINE
  8
TRMODEL1
  6
CONTINUOUS
 62
     7
  5
639
 10
-0.870182
 20
-0.3302
 30
0.0
 11
-0.917725
 21
-0.326407
 31
0.0
  0
LINE
  8
TRMODEL1
  6
CONTINUOUS
 62
     7
  5
63A
 10
-0.917725
 20
-0.326407
 30
0.0
 11
-0.96524
 21
-0.322413
 31
0.0
  0
LINE
  8
TRMODEL1
  6
CONTINUOUS
 62
     7
  5
63B
 10
-0.96524
 20
-0.322413
 30
0.0
 11
-1.012725
 21
-0.318217
 31
0.0
  0
LINE
  8
TRMODEL1
  6
CONTINUOUS
 62
     7
  5
63C
 10
-1.012725
 20
-0.318217
 30
0.0
 11
-1.06018
 21
-0.313819
 31
0.0
  0
LINE
  8
TRMODEL1
  6
CONTINUOUS
 62
     7
  5
63D
 10
-1.06018
 20
-0.313819
 30
0.0
 11
-1.107602
 21
-0.30922
 31
0.0
  0
LINE
  8
TRMODEL1
  6
CONTINUOUS
 62
     7
  5
63E
 10
-1.107602
 20
-0.30922
 30
0.0
 11
-1.15499
 21
-0.30442
 31
0.0
  0
LINE
  8
TRMODEL1
  6
CONTINUOUS
 62
     7
  5
63F
 10
-1.15499
 20
-0.30442
 30
0.0
 11
-1.202342
 21
-0.299419
 31
0.0
  0
LINE
  8
TRMODEL1
  6
CONTINUOUS
 62
     7
  5
640
 10
-1.202342
 20
-0.299419
 30
0.0
 11
-1.249658
 21
-0.294218
 31
0.0
  0
LINE
  8
TRMODEL1
  6
CONTINUOUS
 62
     7
  5
641
 10
-1.249658
 20
-0.294218
 30
0.0
 11
-1.296935
 21
-0.288815
 31
0.0
  0
LINE
  8
TRMODEL1
  6
CONTINUOUS
 62
     7
  5
642
 10
-1.296935
 20
-0.288815
 30
0.0
 11
-1.344172
 21
-0.283212
 31
0.0
  0
LINE
  8
TRMODEL1
  6
CONTINUOUS
 62
     7
  5
643
 10
-1.344172
 20
-0.283212
 30
0.0
 11
-1.391369
 21
-0.277409
 31
0.0
  0
LINE
  8
TRMODEL1
  6
CONTINUOUS
 62
     7
  5
644
 10
-1.391369
 20
-0.277409
 30
0.0
 11
-1.438522
 21
-0.271406
 31
0.0
  0
LINE
  8
TRMODEL1
  6
CONTINUOUS
 62
     7
  5
645
 10
-1.438522
 20
-0.271406
 30
0.0
 11
-1.485631
 21
-0.265202
 31
0.0
  0
LINE
  8
TRMODEL1
  6
CONTINUOUS
 62
     7
  5
646
 10
-1.485631
 20
-0.265202
 30
0.0
 11
-1.532695
 21
-0.258799
 31
0.0
  0
LINE
  8
TRMODEL1
  6
CONTINUOUS
 62
     7
  5
647
 10
-1.532695
 20
-0.258799
 30
0.0
 11
-1.579712
 21
-0.252196
 31
0.0
  0
LINE
  8
TRMODEL1
  6
CONTINUOUS
 62
     7
  5
648
 10
-1.579712
 20
-0.252196
 30
0.0
 11
-1.626681
 21
-0.245394
 31
0.0
  0
LINE
  8
TRMODEL1
  6
CONTINUOUS
 62
     7
  5
649
 10
-1.626681
 20
-0.245394
 30
0.0
 11
-1.673599
 21
-0.238393
 31
0.0
  0
LINE
  8
TRMODEL1
  6
CONTINUOUS
 62
     7
  5
64A
 10
-1.673599
 20
-0.238393
 30
0.0
 11
-1.720466
 21
-0.231192
 31
0.0
  0
LINE
  8
TRMODEL1
  6
CONTINUOUS
 62
     7
  5
64B
 10
-0.059055
 20
-0.325777
 30
0.0
 11
-0.106853
 21
-0.325425
 31
0.0
  0
LINE
  8
TRMODEL1
  6
CONTINUOUS
 62
     7
  5
64C
 10
-0.106853
 20
-0.325425
 30
0.0
 11
-0.154648
 21
-0.324871
 31
0.0
  0
LINE
  8
TRMODEL1
  6
CONTINUOUS
 62
     7
  5
64D
 10
-0.154648
 20
-0.324871
 30
0.0
 11
-0.202438
 21
-0.324113
 31
0.0
  0
LINE
  8
TRMODEL1
  6
CONTINUOUS
 62
     7
  5
64E
 10
-0.202438
 20
-0.324113
 30
0.0
 11
-0.250222
 21
-0.323153
 31
0.0
  0
LINE
  8
TRMODEL1
  6
CONTINUOUS
 62
     7
  5
64F
 10
-0.250222
 20
-0.323153
 30
0.0
 11
-0.297999
 21
-0.32199
 31
0.0
  0
LINE
  8
TRMODEL1
  6
CONTINUOUS
 62
     7
  5
650
 10
-0.297999
 20
-0.32199
 30
0.0
 11
-0.345766
 21
-0.320624
 31
0.0
  0
LINE
  8
TRMODEL1
  6
CONTINUOUS
 62
     7
  5
651
 10
-0.345766
 20
-0.320624
 30
0.0
 11
-0.393522
 21
-0.319056
 31
0.0
  0
LINE
  8
TRMODEL1
  6
CONTINUOUS
 62
     7
  5
652
 10
-0.393522
 20
-0.319056
 30
0.0
 11
-0.441267
 21
-0.317285
 31
0.0
  0
LINE
  8
TRMODEL1
  6
CONTINUOUS
 62
     7
  5
653
 10
-0.441267
 20
-0.317285
 30
0.0
 11
-0.488998
 21
-0.315311
 31
0.0
  0
LINE
  8
TRMODEL1
  6
CONTINUOUS
 62
     7
  5
654
 10
-0.488998
 20
-0.315311
 30
0.0
 11
-0.536713
 21
-0.313135
 31
0.0
  0
LINE
  8
TRMODEL1
  6
CONTINUOUS
 62
     7
  5
655
 10
-0.536713
 20
-0.313135
 30
0.0
 11
-0.584413
 21
-0.310757
 31
0.0
  0
LINE
  8
TRMODEL1
  6
CONTINUOUS
 62
     7
  5
656
 10
-0.584413
 20
-0.310757
 30
0.0
 11
-0.632094
 21
-0.308176
 31
0.0
  0
LINE
  8
TRMODEL1
  6
CONTINUOUS
 62
     7
  5
657
 10
-0.632094
 20
-0.308176
 30
0.0
 11
-0.679757
 21
-0.305393
 31
0.0
  0
LINE
  8
TRMODEL1
  6
CONTINUOUS
 62
     7
  5
658
 10
-0.679757
 20
-0.305393
 30
0.0
 11
-0.727398
 21
-0.302408
 31
0.0
  0
LINE
  8
TRMODEL1
  6
CONTINUOUS
 62
     7
  5
659
 10
-0.727398
 20
-0.302408
 30
0.0
 11
-0.775017
 21
-0.299221
 31
0.0
  0
LINE
  8
TRMODEL1
  6
CONTINUOUS
 62
     7
  5
65A
 10
-0.775017
 20
-0.299221
 30
0.0
 11
-0.822612
 21
-0.295831
 31
0.0
  0
LINE
  8
TRMODEL1
  6
CONTINUOUS
 62
     7
  5
65B
 10
-0.822612
 20
-0.295831
 30
0.0
 11
-0.870182
 21
-0.29224
 31
0.0
  0
LINE
  8
TRMODEL1
  6
CONTINUOUS
 62
     7
  5
65C
 10
-0.870182
 20
-0.29224
 30
0.0
 11
-0.917725
 21
-0.288447
 31
0.0
  0
LINE
  8
TRMODEL1
  6
CONTINUOUS
 62
     7
  5
65D
 10
-0.917725
 20
-0.288447
 30
0.0
 11
-0.96524
 21
-0.284453
 31
0.0
  0
LINE
  8
TRMODEL1
  6
CONTINUOUS
 62
     7
  5
65E
 10
-0.96524
 20
-0.284453
 30
0.0
 11
-1.012726
 21
-0.280257
 31
0.0
  0
LINE
  8
TRMODEL1
  6
CONTINUOUS
 62
     7
  5
65F
 10
-1.012726
 20
-0.280257
 30
0.0
 11
-1.06018
 21
-0.275859
 31
0.0
  0
LINE
  8
TRMODEL1
  6
CONTINUOUS
 62
     7
  5
660
 10
-1.06018
 20
-0.275859
 30
0.0
 11
-1.107602
 21
-0.27126
 31
0.0
  0
LINE
  8
TRMODEL1
  6
CONTINUOUS
 62
     7
  5
661
 10
-1.107602
 20
-0.27126
 30
0.0
 11
-1.15499
 21
-0.26646
 31
0.0
  0
LINE
  8
TRMODEL1
  6
CONTINUOUS
 62
     7
  5
662
 10
-1.15499
 20
-0.26646
 30
0.0
 11
-1.202343
 21
-0.261459
 31
0.0
  0
LINE
  8
TRMODEL1
  6
CONTINUOUS
 62
     7
  5
663
 10
-1.202343
 20
-0.261459
 30
0.0
 11
-1.249658
 21
-0.256258
 31
0.0
  0
LINE
  8
TRMODEL1
  6
CONTINUOUS
 62
     7
  5
664
 10
-1.249658
 20
-0.256258
 30
0.0
 11
-1.296935
 21
-0.250855
 31
0.0
  0
LINE
  8
TRMODEL1
  6
CONTINUOUS
 62
     7
  5
665
 10
-1.296935
 20
-0.250855
 30
0.0
 11
-1.344173
 21
-0.245252
 31
0.0
  0
LINE
  8
TRMODEL1
  6
CONTINUOUS
 62
     7
  5
666
 10
-1.344173
 20
-0.245252
 30
0.0
 11
-1.391369
 21
-0.239449
 31
0.0
  0
LINE
  8
TRMODEL1
  6
CONTINUOUS
 62
     7
  5
667
 10
-1.391369
 20
-0.239449
 30
0.0
 11
-1.438523
 21
-0.233446
 31
0.0
  0
LINE
  8
TRMODEL1
  6
CONTINUOUS
 62
     7
  5
668
 10
-1.438523
 20
-0.233446
 30
0.0
 11
-1.485632
 21
-0.227242
 31
0.0
  0
LINE
  8
TRMODEL1
  6
CONTINUOUS
 62
     7
  5
669
 10
-1.485632
 20
-0.227242
 30
0.0
 11
-1.532696
 21
-0.220839
 31
0.0
  0
LINE
  8
TRMODEL1
  6
CONTINUOUS
 62
     7
  5
66A
 10
-1.532696
 20
-0.220839
 30
0.0
 11
-1.579713
 21
-0.214236
 31
0.0
  0
LINE
  8
TRMODEL1
  6
CONTINUOUS
 62
     7
  5
66B
 10
-1.579713
 20
-0.214236
 30
0.0
 11
-1.626681
 21
-0.207434
 31
0.0
  0
LINE
  8
TRMODEL1
  6
CONTINUOUS
 62
     7
  5
66C
 10
-1.626681
 20
-0.207434
 30
0.0
 11
-1.6736
 21
-0.200433
 31
0.0
  0
LINE
  8
TRMODEL1
  6
CONTINUOUS
 62
     7
  5
66D
 10
-1.6736
 20
-0.200433
 30
0.0
 11
-1.720467
 21
-0.193232
 31
0.0
  0
LINE
  8
TRMODEL1
  6
CONTINUOUS
 62
     7
  5
66E
 10
1.720472
 20
0.298332
 30
0.0
 11
1.673605
 21
0.291132
 31
0.0
  0
LINE
  8
TRMODEL1
  6
CONTINUOUS
 62
     7
  5
66F
 10
1.673605
 20
0.291132
 30
0.0
 11
1.626687
 21
0.28413
 31
0.0
  0
LINE
  8
TRMODEL1
  6
CONTINUOUS
 62
     7
  5
670
 10
1.626687
 20
0.28413
 30
0.0
 11
1.579718
 21
0.277328
 31
0.0
  0
LINE
  8
TRMODEL1
  6
CONTINUOUS
 62
     7
  5
671
 10
1.579718
 20
0.277328
 30
0.0
 11
1.532701
 21
0.270725
 31
0.0
  0
LINE
  8
TRMODEL1
  6
CONTINUOUS
 62
     7
  5
672
 10
1.532701
 20
0.270725
 30
0.0
 11
1.485637
 21
0.264322
 31
0.0
  0
LINE
  8
TRMODEL1
  6
CONTINUOUS
 62
     7
  5
673
 10
1.485637
 20
0.264322
 30
0.0
 11
1.438527
 21
0.258119
 31
0.0
  0
LINE
  8
TRMODEL1
  6
CONTINUOUS
 62
     7
  5
674
 10
1.438527
 20
0.258119
 30
0.0
 11
1.391374
 21
0.252115
 31
0.0
  0
LINE
  8
TRMODEL1
  6
CONTINUOUS
 62
     7
  5
675
 10
1.391374
 20
0.252115
 30
0.0
 11
1.344177
 21
0.246312
 31
0.0
  0
LINE
  8
TRMODEL1
  6
CONTINUOUS
 62
     7
  5
676
 10
1.344177
 20
0.246312
 30
0.0
 11
1.29694
 21
0.240709
 31
0.0
  0
LINE
  8
TRMODEL1
  6
CONTINUOUS
 62
     7
  5
677
 10
1.29694
 20
0.240709
 30
0.0
 11
1.249662
 21
0.235306
 31
0.0
  0
LINE
  8
TRMODEL1
  6
CONTINUOUS
 62
     7
  5
678
 10
1.249662
 20
0.235306
 30
0.0
 11
1.202346
 21
0.230105
 31
0.0
  0
LINE
  8
TRMODEL1
  6
CONTINUOUS
 62
     7
  5
679
 10
1.202346
 20
0.230105
 30
0.0
 11
1.154994
 21
0.225104
 31
0.0
  0
LINE
  8
TRMODEL1
  6
CONTINUOUS
 62
     7
  5
67A
 10
1.154994
 20
0.225104
 30
0.0
 11
1.107606
 21
0.220304
 31
0.0
  0
LINE
  8
TRMODEL1
  6
CONTINUOUS
 62
     7
  5
67B
 10
1.107606
 20
0.220304
 30
0.0
 11
1.060184
 21
0.215705
 31
0.0
  0
LINE
  8
TRMODEL1
  6
CONTINUOUS
 62
     7
  5
67C
 10
1.060184
 20
0.215705
 30
0.0
 11
1.012729
 21
0.211307
 31
0.0
  0
LINE
  8
TRMODEL1
  6
CONTINUOUS
 62
     7
  5
67D
 10
1.012729
 20
0.211307
 30
0.0
 11
0.965243
 21
0.207111
 31
0.0
  0
LINE
  8
TRMODEL1
  6
CONTINUOUS
 62
     7
  5
67E
 10
0.965243
 20
0.207111
 30
0.0
 11
0.917728
 21
0.203116
 31
0.0
  0
LINE
  8
TRMODEL1
  6
CONTINUOUS
 62
     7
  5
67F
 10
0.917728
 20
0.203116
 30
0.0
 11
0.870185
 21
0.199324
 31
0.0
  0
LINE
  8
TRMODEL1
  6
CONTINUOUS
 62
     7
  5
680
 10
0.870185
 20
0.199324
 30
0.0
 11
0.822615
 21
0.195732
 31
0.0
  0
LINE
  8
TRMODEL1
  6
CONTINUOUS
 62
     7
  5
681
 10
0.822615
 20
0.195732
 30
0.0
 11
0.775019
 21
0.192343
 31
0.0
  0
LINE
  8
TRMODEL1
  6
CONTINUOUS
 62
     7
  5
682
 10
0.775019
 20
0.192343
 30
0.0
 11
0.7274
 21
0.189156
 31
0.0
  0
LINE
  8
TRMODEL1
  6
CONTINUOUS
 62
     7
  5
683
 10
0.7274
 20
0.189156
 30
0.0
 11
0.679759
 21
0.186171
 31
0.0
  0
LINE
  8
TRMODEL1
  6
CONTINUOUS
 62
     7
  5
684
 10
0.679759
 20
0.186171
 30
0.0
 11
0.632096
 21
0.183388
 31
0.0
  0
LINE
  8
TRMODEL1
  6
CONTINUOUS
 62
     7
  5
685
 10
0.632096
 20
0.183388
 30
0.0
 11
0.584415
 21
0.180807
 31
0.0
  0
LINE
  8
TRMODEL1
  6
CONTINUOUS
 62
     7
  5
686
 10
0.584415
 20
0.180807
 30
0.0
 11
0.536715
 21
0.178428
 31
0.0
  0
LINE
  8
TRMODEL1
  6
CONTINUOUS
 62
     7
  5
687
 10
0.536715
 20
0.178428
 30
0.0
 11
0.488999
 21
0.176252
 31
0.0
  0
LINE
  8
TRMODEL1
  6
CONTINUOUS
 62
     7
  5
688
 10
0.488999
 20
0.176252
 30
0.0
 11
0.441268
 21
0.174279
 31
0.0
  0
LINE
  8
TRMODEL1
  6
CONTINUOUS
 62
     7
  5
689
 10
0.441268
 20
0.174279
 30
0.0
 11
0.393523
 21
0.172508
 31
0.0
  0
LINE
  8
TRMODEL1
  6
CONTINUOUS
 62
     7
  5
68A
 10
0.393523
 20
0.172508
 30
0.0
 11
0.345767
 21
0.17094
 31
0.0
  0
LINE
  8
TRMODEL1
  6
CONTINUOUS
 62
     7
  5
68B
 10
0.345767
 20
0.17094
 30
0.0
 11
0.297999
 21
0.169574
 31
0.0
  0
LINE
  8
TRMODEL1
  6
CONTINUOUS
 62
     7
  5
68C
 10
0.297999
 20
0.169574
 30
0.0
 11
0.250223
 21
0.168411
 31
0.0
  0
LINE
  8
TRMODEL1
  6
CONTINUOUS
 62
     7
  5
68D
 10
0.250223
 20
0.168411
 30
0.0
 11
0.202439
 21
0.16745
 31
0.0
  0
LINE
  8
TRMODEL1
  6
CONTINUOUS
 62
     7
  5
68E
 10
0.202439
 20
0.16745
 30
0.0
 11
0.154649
 21
0.166693
 31
0.0
  0
LINE
  8
TRMODEL1
  6
CONTINUOUS
 62
     7
  5
68F
 10
0.154649
 20
0.166693
 30
0.0
 11
0.106853
 21
0.166138
 31
0.0
  0
LINE
  8
TRMODEL1
  6
CONTINUOUS
 62
     7
  5
690
 10
0.106853
 20
0.166138
 30
0.0
 11
0.059055
 21
0.165786
 31
0.0
  0
LINE
  8
TRMODEL1
  6
CONTINUOUS
 62
     7
  5
691
 10
1.720472
 20
0.260372
 30
0.0
 11
1.673605
 21
0.253172
 31
0.0
  0
LINE
  8
TRMODEL1
  6
CONTINUOUS
 62
     7
  5
692
 10
1.673605
 20
0.253172
 30
0.0
 11
1.626687
 21
0.24617
 31
0.0
  0
LINE
  8
TRMODEL1
  6
CONTINUOUS
 62
     7
  5
693
 10
1.626687
 20
0.24617
 30
0.0
 11
1.579718
 21
0.239368
 31
0.0
  0
LINE
  8
TRMODEL1
  6
CONTINUOUS
 62
     7
  5
694
 10
1.579718
 20
0.239368
 30
0.0
 11
1.532701
 21
0.232765
 31
0.0
  0
LINE
  8
TRMODEL1
  6
CONTINUOUS
 62
     7
  5
695
 10
1.532701
 20
0.232765
 30
0.0
 11
1.485637
 21
0.226362
 31
0.0
  0
LINE
  8
TRMODEL1
  6
CONTINUOUS
 62
     7
  5
696
 10
1.485637
 20
0.226362
 30
0.0
 11
1.438527
 21
0.220159
 31
0.0
  0
LINE
  8
TRMODEL1
  6
CONTINUOUS
 62
     7
  5
697
 10
1.438527
 20
0.220159
 30
0.0
 11
1.391374
 21
0.214155
 31
0.0
  0
LINE
  8
TRMODEL1
  6
CONTINUOUS
 62
     7
  5
698
 10
1.391374
 20
0.214155
 30
0.0
 11
1.344177
 21
0.208352
 31
0.0
  0
LINE
  8
TRMODEL1
  6
CONTINUOUS
 62
     7
  5
699
 10
1.344177
 20
0.208352
 30
0.0
 11
1.29694
 21
0.202749
 31
0.0
  0
LINE
  8
TRMODEL1
  6
CONTINUOUS
 62
     7
  5
69A
 10
1.29694
 20
0.202749
 30
0.0
 11
1.249662
 21
0.197346
 31
0.0
  0
LINE
  8
TRMODEL1
  6
CONTINUOUS
 62
     7
  5
69B
 10
1.249662
 20
0.197346
 30
0.0
 11
1.202346
 21
0.192145
 31
0.0
  0
LINE
  8
TRMODEL1
  6
CONTINUOUS
 62
     7
  5
69C
 10
1.202346
 20
0.192145
 30
0.0
 11
1.154994
 21
0.187144
 31
0.0
  0
LINE
  8
TRMODEL1
  6
CONTINUOUS
 62
     7
  5
69D
 10
1.154994
 20
0.187144
 30
0.0
 11
1.107606
 21
0.182344
 31
0.0
  0
LINE
  8
TRMODEL1
  6
CONTINUOUS
 62
     7
  5
69E
 10
1.107606
 20
0.182344
 30
0.0
 11
1.060184
 21
0.177745
 31
0.0
  0
LINE
  8
TRMODEL1
  6
CONTINUOUS
 62
     7
  5
69F
 10
1.060184
 20
0.177745
 30
0.0
 11
1.012729
 21
0.173347
 31
0.0
  0
LINE
  8
TRMODEL1
  6
CONTINUOUS
 62
     7
  5
6A0
 10
1.012729
 20
0.173347
 30
0.0
 11
0.965243
 21
0.169151
 31
0.0
  0
LINE
  8
TRMODEL1
  6
CONTINUOUS
 62
     7
  5
6A1
 10
0.965243
 20
0.169151
 30
0.0
 11
0.917728
 21
0.165157
 31
0.0
  0
LINE
  8
TRMODEL1
  6
CONTINUOUS
 62
     7
  5
6A2
 10
0.917728
 20
0.165157
 30
0.0
 11
0.870185
 21
0.161364
 31
0.0
  0
LINE
  8
TRMODEL1
  6
CONTINUOUS
 62
     7
  5
6A3
 10
0.870185
 20
0.161364
 30
0.0
 11
0.822615
 21
0.157772
 31
0.0
  0
LINE
  8
TRMODEL1
  6
CONTINUOUS
 62
     7
  5
6A4
 10
0.822615
 20
0.157772
 30
0.0
 11
0.775019
 21
0.154383
 31
0.0
  0
LINE
  8
TRMODEL1
  6
CONTINUOUS
 62
     7
  5
6A5
 10
0.775019
 20
0.154383
 30
0.0
 11
0.7274
 21
0.151196
 31
0.0
  0
LINE
  8
TRMODEL1
  6
CONTINUOUS
 62
     7
  5
6A6
 10
0.7274
 20
0.151196
 30
0.0
 11
0.679759
 21
0.148211
 31
0.0
  0
LINE
  8
TRMODEL1
  6
CONTINUOUS
 62
     7
  5
6A7
 10
0.679759
 20
0.148211
 30
0.0
 11
0.632096
 21
0.145428
 31
0.0
  0
LINE
  8
TRMODEL1
  6
CONTINUOUS
 62
     7
  5
6A8
 10
0.632096
 20
0.145428
 30
0.0
 11
0.584415
 21
0.142847
 31
0.0
  0
LINE
  8
TRMODEL1
  6
CONTINUOUS
 62
     7
  5
6A9
 10
0.584415
 20
0.142847
 30
0.0
 11
0.536715
 21
0.140468
 31
0.0
  0
LINE
  8
TRMODEL1
  6
CONTINUOUS
 62
     7
  5
6AA
 10
0.536715
 20
0.140468
 30
0.0
 11
0.488999
 21
0.138292
 31
0.0
  0
LINE
  8
TRMODEL1
  6
CONTINUOUS
 62
     7
  5
6AB
 10
0.488999
 20
0.138292
 30
0.0
 11
0.441268
 21
0.136319
 31
0.0
  0
LINE
  8
TRMODEL1
  6
CONTINUOUS
 62
     7
  5
6AC
 10
0.441268
 20
0.136319
 30
0.0
 11
0.393523
 21
0.134548
 31
0.0
  0
LINE
  8
TRMODEL1
  6
CONTINUOUS
 62
     7
  5
6AD
 10
0.393523
 20
0.134548
 30
0.0
 11
0.345767
 21
0.13298
 31
0.0
  0
LINE
  8
TRMODEL1
  6
CONTINUOUS
 62
     7
  5
6AE
 10
0.345767
 20
0.13298
 30
0.0
 11
0.297999
 21
0.131614
 31
0.0
  0
LINE
  8
TRMODEL1
  6
CONTINUOUS
 62
     7
  5
6AF
 10
0.297999
 20
0.131614
 30
0.0
 11
0.250223
 21
0.130451
 31
0.0
  0
LINE
  8
TRMODEL1
  6
CONTINUOUS
 62
     7
  5
6B0
 10
0.250223
 20
0.130451
 30
0.0
 11
0.202439
 21
0.129491
 31
0.0
  0
LINE
  8
TRMODEL1
  6
CONTINUOUS
 62
     7
  5
6B1
 10
0.202439
 20
0.129491
 30
0.0
 11
0.154649
 21
0.128733
 31
0.0
  0
LINE
  8
TRMODEL1
  6
CONTINUOUS
 62
     7
  5
6B2
 10
0.154649
 20
0.128733
 30
0.0
 11
0.106853
 21
0.128178
 31
0.0
  0
LINE
  8
TRMODEL1
  6
CONTINUOUS
 62
     7
  5
6B3
 10
0.106853
 20
0.128178
 30
0.0
 11
0.059055
 21
0.127826
 31
0.0
  0
LINE
  8
TRMODEL1
  6
CONTINUOUS
 62
     7
  5
6B4
 10
-0.059055
 20
0.127826
 30
0.0
 11
-0.106853
 21
0.128178
 31
0.0
  0
LINE
  8
TRMODEL1
  6
CONTINUOUS
 62
     7
  5
6B5
 10
-0.106853
 20
0.128178
 30
0.0
 11
-0.154649
 21
0.128733
 31
0.0
  0
LINE
  8
TRMODEL1
  6
CONTINUOUS
 62
     7
  5
6B6
 10
-0.154649
 20
0.128733
 30
0.0
 11
-0.202439
 21
0.129491
 31
0.0
  0
LINE
  8
TRMODEL1
  6
CONTINUOUS
 62
     7
  5
6B7
 10
-0.202439
 20
0.129491
 30
0.0
 11
-0.250223
 21
0.130451
 31
0.0
  0
LINE
  8
TRMODEL1
  6
CONTINUOUS
 62
     7
  5
6B8
 10
-0.250223
 20
0.130451
 30
0.0
 11
-0.297999
 21
0.131614
 31
0.0
  0
LINE
  8
TRMODEL1
  6
CONTINUOUS
 62
     7
  5
6B9
 10
-0.297999
 20
0.131614
 30
0.0
 11
-0.345767
 21
0.13298
 31
0.0
  0
LINE
  8
TRMODEL1
  6
CONTINUOUS
 62
     7
  5
6BA
 10
-0.345767
 20
0.13298
 30
0.0
 11
-0.393523
 21
0.134548
 31
0.0
  0
LINE
  8
TRMODEL1
  6
CONTINUOUS
 62
     7
  5
6BB
 10
-0.393523
 20
0.134548
 30
0.0
 11
-0.441268
 21
0.136319
 31
0.0
  0
LINE
  8
TRMODEL1
  6
CONTINUOUS
 62
     7
  5
6BC
 10
-0.441268
 20
0.136319
 30
0.0
 11
-0.488999
 21
0.138292
 31
0.0
  0
LINE
  8
TRMODEL1
  6
CONTINUOUS
 62
     7
  5
6BD
 10
-0.488999
 20
0.138292
 30
0.0
 11
-0.536715
 21
0.140468
 31
0.0
  0
LINE
  8
TRMODEL1
  6
CONTINUOUS
 62
     7
  5
6BE
 10
-0.536715
 20
0.140468
 30
0.0
 11
-0.584415
 21
0.142847
 31
0.0
  0
LINE
  8
TRMODEL1
  6
CONTINUOUS
 62
     7
  5
6BF
 10
-0.584415
 20
0.142847
 30
0.0
 11
-0.632096
 21
0.145428
 31
0.0
  0
LINE
  8
TRMODEL1
  6
CONTINUOUS
 62
     7
  5
6C0
 10
-0.632096
 20
0.145428
 30
0.0
 11
-0.679759
 21
0.148211
 31
0.0
  0
LINE
  8
TRMODEL1
  6
CONTINUOUS
 62
     7
  5
6C1
 10
-0.679759
 20
0.148211
 30
0.0
 11
-0.7274
 21
0.151196
 31
0.0
  0
LINE
  8
TRMODEL1
  6
CONTINUOUS
 62
     7
  5
6C2
 10
-0.7274
 20
0.151196
 30
0.0
 11
-0.775019
 21
0.154383
 31
0.0
  0
LINE
  8
TRMODEL1
  6
CONTINUOUS
 62
     7
  5
6C3
 10
-0.775019
 20
0.154383
 30
0.0
 11
-0.822615
 21
0.157772
 31
0.0
  0
LINE
  8
TRMODEL1
  6
CONTINUOUS
 62
     7
  5
6C4
 10
-0.822615
 20
0.157772
 30
0.0
 11
-0.870185
 21
0.161364
 31
0.0
  0
LINE
  8
TRMODEL1
  6
CONTINUOUS
 62
     7
  5
6C5
 10
-0.870185
 20
0.161364
 30
0.0
 11
-0.917728
 21
0.165157
 31
0.0
  0
LINE
  8
TRMODEL1
  6
CONTINUOUS
 62
     7
  5
6C6
 10
-0.917728
 20
0.165157
 30
0.0
 11
-0.965243
 21
0.169151
 31
0.0
  0
LINE
  8
TRMODEL1
  6
CONTINUOUS
 62
     7
  5
6C7
 10
-0.965243
 20
0.169151
 30
0.0
 11
-1.012729
 21
0.173347
 31
0.0
  0
LINE
  8
TRMODEL1
  6
CONTINUOUS
 62
     7
  5
6C8
 10
-1.012729
 20
0.173347
 30
0.0
 11
-1.060184
 21
0.177745
 31
0.0
  0
LINE
  8
TRMODEL1
  6
CONTINUOUS
 62
     7
  5
6C9
 10
-1.060184
 20
0.177745
 30
0.0
 11
-1.107606
 21
0.182344
 31
0.0
  0
LINE
  8
TRMODEL1
  6
CONTINUOUS
 62
     7
  5
6CA
 10
-1.107606
 20
0.182344
 30
0.0
 11
-1.154994
 21
0.187144
 31
0.0
  0
LINE
  8
TRMODEL1
  6
CONTINUOUS
 62
     7
  5
6CB
 10
-1.154994
 20
0.187144
 30
0.0
 11
-1.202346
 21
0.192145
 31
0.0
  0
LINE
  8
TRMODEL1
  6
CONTINUOUS
 62
     7
  5
6CC
 10
-1.202346
 20
0.192145
 30
0.0
 11
-1.249662
 21
0.197346
 31
0.0
  0
LINE
  8
TRMODEL1
  6
CONTINUOUS
 62
     7
  5
6CD
 10
-1.249662
 20
0.197346
 30
0.0
 11
-1.29694
 21
0.202749
 31
0.0
  0
LINE
  8
TRMODEL1
  6
CONTINUOUS
 62
     7
  5
6CE
 10
-1.29694
 20
0.202749
 30
0.0
 11
-1.344177
 21
0.208352
 31
0.0
  0
LINE
  8
TRMODEL1
  6
CONTINUOUS
 62
     7
  5
6CF
 10
-1.344177
 20
0.208352
 30
0.0
 11
-1.391374
 21
0.214155
 31
0.0
  0
LINE
  8
TRMODEL1
  6
CONTINUOUS
 62
     7
  5
6D0
 10
-1.391374
 20
0.214155
 30
0.0
 11
-1.438527
 21
0.220159
 31
0.0
  0
LINE
  8
TRMODEL1
  6
CONTINUOUS
 62
     7
  5
6D1
 10
-1.438527
 20
0.220159
 30
0.0
 11
-1.485637
 21
0.226362
 31
0.0
  0
LINE
  8
TRMODEL1
  6
CONTINUOUS
 62
     7
  5
6D2
 10
-1.485637
 20
0.226362
 30
0.0
 11
-1.532701
 21
0.232765
 31
0.0
  0
LINE
  8
TRMODEL1
  6
CONTINUOUS
 62
     7
  5
6D3
 10
-1.532701
 20
0.232765
 30
0.0
 11
-1.579718
 21
0.239368
 31
0.0
  0
LINE
  8
TRMODEL1
  6
CONTINUOUS
 62
     7
  5
6D4
 10
-1.579718
 20
0.239368
 30
0.0
 11
-1.626687
 21
0.24617
 31
0.0
  0
LINE
  8
TRMODEL1
  6
CONTINUOUS
 62
     7
  5
6D5
 10
-1.626687
 20
0.24617
 30
0.0
 11
-1.673605
 21
0.253172
 31
0.0
  0
LINE
  8
TRMODEL1
  6
CONTINUOUS
 62
     7
  5
6D6
 10
-1.673605
 20
0.253172
 30
0.0
 11
-1.720472
 21
0.260372
 31
0.0
  0
LINE
  8
TRMODEL1
  6
CONTINUOUS
 62
     7
  5
6D7
 10
-0.059055
 20
0.165786
 30
0.0
 11
-0.106853
 21
0.166138
 31
0.0
  0
LINE
  8
TRMODEL1
  6
CONTINUOUS
 62
     7
  5
6D8
 10
-0.106853
 20
0.166138
 30
0.0
 11
-0.154649
 21
0.166693
 31
0.0
  0
LINE
  8
TRMODEL1
  6
CONTINUOUS
 62
     7
  5
6D9
 10
-0.154649
 20
0.166693
 30
0.0
 11
-0.202439
 21
0.16745
 31
0.0
  0
LINE
  8
TRMODEL1
  6
CONTINUOUS
 62
     7
  5
6DA
 10
-0.202439
 20
0.16745
 30
0.0
 11
-0.250223
 21
0.168411
 31
0.0
  0
LINE
  8
TRMODEL1
  6
CONTINUOUS
 62
     7
  5
6DB
 10
-0.250223
 20
0.168411
 30
0.0
 11
-0.297999
 21
0.169574
 31
0.0
  0
LINE
  8
TRMODEL1
  6
CONTINUOUS
 62
     7
  5
6DC
 10
-0.297999
 20
0.169574
 30
0.0
 11
-0.345767
 21
0.17094
 31
0.0
  0
LINE
  8
TRMODEL1
  6
CONTINUOUS
 62
     7
  5
6DD
 10
-0.345767
 20
0.17094
 30
0.0
 11
-0.393523
 21
0.172508
 31
0.0
  0
LINE
  8
TRMODEL1
  6
CONTINUOUS
 62
     7
  5
6DE
 10
-0.393523
 20
0.172508
 30
0.0
 11
-0.441268
 21
0.174279
 31
0.0
  0
LINE
  8
TRMODEL1
  6
CONTINUOUS
 62
     7
  5
6DF
 10
-0.441268
 20
0.174279
 30
0.0
 11
-0.488999
 21
0.176252
 31
0.0
  0
LINE
  8
TRMODEL1
  6
CONTINUOUS
 62
     7
  5
6E0
 10
-0.488999
 20
0.176252
 30
0.0
 11
-0.536715
 21
0.178428
 31
0.0
  0
LINE
  8
TRMODEL1
  6
CONTINUOUS
 62
     7
  5
6E1
 10
-0.536715
 20
0.178428
 30
0.0
 11
-0.584415
 21
0.180807
 31
0.0
  0
LINE
  8
TRMODEL1
  6
CONTINUOUS
 62
     7
  5
6E2
 10
-0.584415
 20
0.180807
 30
0.0
 11
-0.632096
 21
0.183388
 31
0.0
  0
LINE
  8
TRMODEL1
  6
CONTINUOUS
 62
     7
  5
6E3
 10
-0.632096
 20
0.183388
 30
0.0
 11
-0.679759
 21
0.186171
 31
0.0
  0
LINE
  8
TRMODEL1
  6
CONTINUOUS
 62
     7
  5
6E4
 10
-0.679759
 20
0.186171
 30
0.0
 11
-0.7274
 21
0.189156
 31
0.0
  0
LINE
  8
TRMODEL1
  6
CONTINUOUS
 62
     7
  5
6E5
 10
-0.7274
 20
0.189156
 30
0.0
 11
-0.775019
 21
0.192343
 31
0.0
  0
LINE
  8
TRMODEL1
  6
CONTINUOUS
 62
     7
  5
6E6
 10
-0.775019
 20
0.192343
 30
0.0
 11
-0.822615
 21
0.195732
 31
0.0
  0
LINE
  8
TRMODEL1
  6
CONTINUOUS
 62
     7
  5
6E7
 10
-0.822615
 20
0.195732
 30
0.0
 11
-0.870185
 21
0.199324
 31
0.0
  0
LINE
  8
TRMODEL1
  6
CONTINUOUS
 62
     7
  5
6E8
 10
-0.870185
 20
0.199324
 30
0.0
 11
-0.917728
 21
0.203116
 31
0.0
  0
LINE
  8
TRMODEL1
  6
CONTINUOUS
 62
     7
  5
6E9
 10
-0.917728
 20
0.203116
 30
0.0
 11
-0.965243
 21
0.207111
 31
0.0
  0
LINE
  8
TRMODEL1
  6
CONTINUOUS
 62
     7
  5
6EA
 10
-0.965243
 20
0.207111
 30
0.0
 11
-1.012729
 21
0.211307
 31
0.0
  0
LINE
  8
TRMODEL1
  6
CONTINUOUS
 62
     7
  5
6EB
 10
-1.012729
 20
0.211307
 30
0.0
 11
-1.060184
 21
0.215705
 31
0.0
  0
LINE
  8
TRMODEL1
  6
CONTINUOUS
 62
     7
  5
6EC
 10
-1.060184
 20
0.215705
 30
0.0
 11
-1.107606
 21
0.220304
 31
0.0
  0
LINE
  8
TRMODEL1
  6
CONTINUOUS
 62
     7
  5
6ED
 10
-1.107606
 20
0.220304
 30
0.0
 11
-1.154994
 21
0.225104
 31
0.0
  0
LINE
  8
TRMODEL1
  6
CONTINUOUS
 62
     7
  5
6EE
 10
-1.154994
 20
0.225104
 30
0.0
 11
-1.202346
 21
0.230105
 31
0.0
  0
LINE
  8
TRMODEL1
  6
CONTINUOUS
 62
     7
  5
6EF
 10
-1.202346
 20
0.230105
 30
0.0
 11
-1.249662
 21
0.235306
 31
0.0
  0
LINE
  8
TRMODEL1
  6
CONTINUOUS
 62
     7
  5
6F0
 10
-1.249662
 20
0.235306
 30
0.0
 11
-1.29694
 21
0.240709
 31
0.0
  0
LINE
  8
TRMODEL1
  6
CONTINUOUS
 62
     7
  5
6F1
 10
-1.29694
 20
0.240709
 30
0.0
 11
-1.344177
 21
0.246312
 31
0.0
  0
LINE
  8
TRMODEL1
  6
CONTINUOUS
 62
     7
  5
6F2
 10
-1.344177
 20
0.246312
 30
0.0
 11
-1.391374
 21
0.252115
 31
0.0
  0
LINE
  8
TRMODEL1
  6
CONTINUOUS
 62
     7
  5
6F3
 10
-1.391374
 20
0.252115
 30
0.0
 11
-1.438527
 21
0.258119
 31
0.0
  0
LINE
  8
TRMODEL1
  6
CONTINUOUS
 62
     7
  5
6F4
 10
-1.438527
 20
0.258119
 30
0.0
 11
-1.485637
 21
0.264322
 31
0.0
  0
LINE
  8
TRMODEL1
  6
CONTINUOUS
 62
     7
  5
6F5
 10
-1.485637
 20
0.264322
 30
0.0
 11
-1.532701
 21
0.270725
 31
0.0
  0
LINE
  8
TRMODEL1
  6
CONTINUOUS
 62
     7
  5
6F6
 10
-1.532701
 20
0.270725
 30
0.0
 11
-1.579718
 21
0.277328
 31
0.0
  0
LINE
  8
TRMODEL1
  6
CONTINUOUS
 62
     7
  5
6F7
 10
-1.579718
 20
0.277328
 30
0.0
 11
-1.626687
 21
0.28413
 31
0.0
  0
LINE
  8
TRMODEL1
  6
CONTINUOUS
 62
     7
  5
6F8
 10
-1.626687
 20
0.28413
 30
0.0
 11
-1.673605
 21
0.291132
 31
0.0
  0
LINE
  8
TRMODEL1
  6
CONTINUOUS
 62
     7
  5
6F9
 10
-1.673605
 20
0.291132
 30
0.0
 11
-1.720472
 21
0.298332
 31
0.0
  0
LINE
  8
TRMODEL1
  6
CONTINUOUS
 62
     7
  5
6FA
 10
1.720472
 20
0.789896
 30
0.0
 11
1.673605
 21
0.782695
 31
0.0
  0
LINE
  8
TRMODEL1
  6
CONTINUOUS
 62
     7
  5
6FB
 10
1.673605
 20
0.782695
 30
0.0
 11
1.626687
 21
0.775694
 31
0.0
  0
LINE
  8
TRMODEL1
  6
CONTINUOUS
 62
     7
  5
6FC
 10
1.626687
 20
0.775694
 30
0.0
 11
1.579718
 21
0.768892
 31
0.0
  0
LINE
  8
TRMODEL1
  6
CONTINUOUS
 62
     7
  5
6FD
 10
1.579718
 20
0.768892
 30
0.0
 11
1.532701
 21
0.762289
 31
0.0
  0
LINE
  8
TRMODEL1
  6
CONTINUOUS
 62
     7
  5
6FE
 10
1.532701
 20
0.762289
 30
0.0
 11
1.485637
 21
0.755886
 31
0.0
  0
LINE
  8
TRMODEL1
  6
CONTINUOUS
 62
     7
  5
6FF
 10
1.485637
 20
0.755886
 30
0.0
 11
1.438527
 21
0.749682
 31
0.0
  0
LINE
  8
TRMODEL1
  6
CONTINUOUS
 62
     7
  5
700
 10
1.438527
 20
0.749682
 30
0.0
 11
1.391374
 21
0.743679
 31
0.0
  0
LINE
  8
TRMODEL1
  6
CONTINUOUS
 62
     7
  5
701
 10
1.391374
 20
0.743679
 30
0.0
 11
1.344177
 21
0.737875
 31
0.0
  0
LINE
  8
TRMODEL1
  6
CONTINUOUS
 62
     7
  5
702
 10
1.344177
 20
0.737875
 30
0.0
 11
1.29694
 21
0.732272
 31
0.0
  0
LINE
  8
TRMODEL1
  6
CONTINUOUS
 62
     7
  5
703
 10
1.29694
 20
0.732272
 30
0.0
 11
1.249662
 21
0.72687
 31
0.0
  0
LINE
  8
TRMODEL1
  6
CONTINUOUS
 62
     7
  5
704
 10
1.249662
 20
0.72687
 30
0.0
 11
1.202346
 21
0.721668
 31
0.0
  0
LINE
  8
TRMODEL1
  6
CONTINUOUS
 62
     7
  5
705
 10
1.202346
 20
0.721668
 30
0.0
 11
1.154994
 21
0.716667
 31
0.0
  0
LINE
  8
TRMODEL1
  6
CONTINUOUS
 62
     7
  5
706
 10
1.154994
 20
0.716667
 30
0.0
 11
1.107606
 21
0.711867
 31
0.0
  0
LINE
  8
TRMODEL1
  6
CONTINUOUS
 62
     7
  5
707
 10
1.107606
 20
0.711867
 30
0.0
 11
1.060184
 21
0.707268
 31
0.0
  0
LINE
  8
TRMODEL1
  6
CONTINUOUS
 62
     7
  5
708
 10
1.060184
 20
0.707268
 30
0.0
 11
1.012729
 21
0.702871
 31
0.0
  0
LINE
  8
TRMODEL1
  6
CONTINUOUS
 62
     7
  5
709
 10
1.012729
 20
0.702871
 30
0.0
 11
0.965243
 21
0.698675
 31
0.0
  0
LINE
  8
TRMODEL1
  6
CONTINUOUS
 62
     7
  5
70A
 10
0.965243
 20
0.698675
 30
0.0
 11
0.917728
 21
0.69468
 31
0.0
  0
LINE
  8
TRMODEL1
  6
CONTINUOUS
 62
     7
  5
70B
 10
0.917728
 20
0.69468
 30
0.0
 11
0.870185
 21
0.690887
 31
0.0
  0
LINE
  8
TRMODEL1
  6
CONTINUOUS
 62
     7
  5
70C
 10
0.870185
 20
0.690887
 30
0.0
 11
0.822615
 21
0.687296
 31
0.0
  0
LINE
  8
TRMODEL1
  6
CONTINUOUS
 62
     7
  5
70D
 10
0.822615
 20
0.687296
 30
0.0
 11
0.775019
 21
0.683907
 31
0.0
  0
LINE
  8
TRMODEL1
  6
CONTINUOUS
 62
     7
  5
70E
 10
0.775019
 20
0.683907
 30
0.0
 11
0.7274
 21
0.680719
 31
0.0
  0
LINE
  8
TRMODEL1
  6
CONTINUOUS
 62
     7
  5
70F
 10
0.7274
 20
0.680719
 30
0.0
 11
0.679759
 21
0.677734
 31
0.0
  0
LINE
  8
TRMODEL1
  6
CONTINUOUS
 62
     7
  5
710
 10
0.679759
 20
0.677734
 30
0.0
 11
0.632096
 21
0.674951
 31
0.0
  0
LINE
  8
TRMODEL1
  6
CONTINUOUS
 62
     7
  5
711
 10
0.632096
 20
0.674951
 30
0.0
 11
0.584415
 21
0.67237
 31
0.0
  0
LINE
  8
TRMODEL1
  6
CONTINUOUS
 62
     7
  5
712
 10
0.584415
 20
0.67237
 30
0.0
 11
0.536715
 21
0.669992
 31
0.0
  0
LINE
  8
TRMODEL1
  6
CONTINUOUS
 62
     7
  5
713
 10
0.536715
 20
0.669992
 30
0.0
 11
0.488999
 21
0.667816
 31
0.0
  0
LINE
  8
TRMODEL1
  6
CONTINUOUS
 62
     7
  5
714
 10
0.488999
 20
0.667816
 30
0.0
 11
0.441268
 21
0.665842
 31
0.0
  0
LINE
  8
TRMODEL1
  6
CONTINUOUS
 62
     7
  5
715
 10
0.441268
 20
0.665842
 30
0.0
 11
0.393523
 21
0.664071
 31
0.0
  0
LINE
  8
TRMODEL1
  6
CONTINUOUS
 62
     7
  5
716
 10
0.393523
 20
0.664071
 30
0.0
 11
0.345767
 21
0.662503
 31
0.0
  0
LINE
  8
TRMODEL1
  6
CONTINUOUS
 62
     7
  5
717
 10
0.345767
 20
0.662503
 30
0.0
 11
0.297999
 21
0.661137
 31
0.0
  0
LINE
  8
TRMODEL1
  6
CONTINUOUS
 62
     7
  5
718
 10
0.297999
 20
0.661137
 30
0.0
 11
0.250223
 21
0.659974
 31
0.0
  0
LINE
  8
TRMODEL1
  6
CONTINUOUS
 62
     7
  5
719
 10
0.250223
 20
0.659974
 30
0.0
 11
0.202439
 21
0.659014
 31
0.0
  0
LINE
  8
TRMODEL1
  6
CONTINUOUS
 62
     7
  5
71A
 10
0.202439
 20
0.659014
 30
0.0
 11
0.154649
 21
0.658257
 31
0.0
  0
LINE
  8
TRMODEL1
  6
CONTINUOUS
 62
     7
  5
71B
 10
0.154649
 20
0.658257
 30
0.0
 11
0.106853
 21
0.657702
 31
0.0
  0
LINE
  8
TRMODEL1
  6
CONTINUOUS
 62
     7
  5
71C
 10
0.106853
 20
0.657702
 30
0.0
 11
0.059055
 21
0.65735
 31
0.0
  0
LINE
  8
TRMODEL1
  6
CONTINUOUS
 62
     7
  5
71D
 10
1.720472
 20
0.751936
 30
0.0
 11
1.673605
 21
0.744735
 31
0.0
  0
LINE
  8
TRMODEL1
  6
CONTINUOUS
 62
     7
  5
71E
 10
1.673605
 20
0.744735
 30
0.0
 11
1.626687
 21
0.737734
 31
0.0
  0
LINE
  8
TRMODEL1
  6
CONTINUOUS
 62
     7
  5
71F
 10
1.626687
 20
0.737734
 30
0.0
 11
1.579718
 21
0.730932
 31
0.0
  0
LINE
  8
TRMODEL1
  6
CONTINUOUS
 62
     7
  5
720
 10
1.579718
 20
0.730932
 30
0.0
 11
1.532701
 21
0.724329
 31
0.0
  0
LINE
  8
TRMODEL1
  6
CONTINUOUS
 62
     7
  5
721
 10
1.532701
 20
0.724329
 30
0.0
 11
1.485637
 21
0.717926
 31
0.0
  0
LINE
  8
TRMODEL1
  6
CONTINUOUS
 62
     7
  5
722
 10
1.485637
 20
0.717926
 30
0.0
 11
1.438527
 21
0.711722
 31
0.0
  0
LINE
  8
TRMODEL1
  6
CONTINUOUS
 62
     7
  5
723
 10
1.438527
 20
0.711722
 30
0.0
 11
1.391374
 21
0.705719
 31
0.0
  0
LINE
  8
TRMODEL1
  6
CONTINUOUS
 62
     7
  5
724
 10
1.391374
 20
0.705719
 30
0.0
 11
1.344177
 21
0.699915
 31
0.0
  0
LINE
  8
TRMODEL1
  6
CONTINUOUS
 62
     7
  5
725
 10
1.344177
 20
0.699915
 30
0.0
 11
1.29694
 21
0.694313
 31
0.0
  0
LINE
  8
TRMODEL1
  6
CONTINUOUS
 62
     7
  5
726
 10
1.29694
 20
0.694313
 30
0.0
 11
1.249662
 21
0.68891
 31
0.0
  0
LINE
  8
TRMODEL1
  6
CONTINUOUS
 62
     7
  5
727
 10
1.249662
 20
0.68891
 30
0.0
 11
1.202346
 21
0.683708
 31
0.0
  0
LINE
  8
TRMODEL1
  6
CONTINUOUS
 62
     7
  5
728
 10
1.202346
 20
0.683708
 30
0.0
 11
1.154994
 21
0.678707
 31
0.0
  0
LINE
  8
TRMODEL1
  6
CONTINUOUS
 62
     7
  5
729
 10
1.154994
 20
0.678707
 30
0.0
 11
1.107606
 21
0.673907
 31
0.0
  0
LINE
  8
TRMODEL1
  6
CONTINUOUS
 62
     7
  5
72A
 10
1.107606
 20
0.673907
 30
0.0
 11
1.060184
 21
0.669308
 31
0.0
  0
LINE
  8
TRMODEL1
  6
CONTINUOUS
 62
     7
  5
72B
 10
1.060184
 20
0.669308
 30
0.0
 11
1.012729
 21
0.664911
 31
0.0
  0
LINE
  8
TRMODEL1
  6
CONTINUOUS
 62
     7
  5
72C
 10
1.012729
 20
0.664911
 30
0.0
 11
0.965243
 21
0.660715
 31
0.0
  0
LINE
  8
TRMODEL1
  6
CONTINUOUS
 62
     7
  5
72D
 10
0.965243
 20
0.660715
 30
0.0
 11
0.917728
 21
0.65672
 31
0.0
  0
LINE
  8
TRMODEL1
  6
CONTINUOUS
 62
     7
  5
72E
 10
0.917728
 20
0.65672
 30
0.0
 11
0.870185
 21
0.652927
 31
0.0
  0
LINE
  8
TRMODEL1
  6
CONTINUOUS
 62
     7
  5
72F
 10
0.870185
 20
0.652927
 30
0.0
 11
0.822615
 21
0.649336
 31
0.0
  0
LINE
  8
TRMODEL1
  6
CONTINUOUS
 62
     7
  5
730
 10
0.822615
 20
0.649336
 30
0.0
 11
0.775019
 21
0.645947
 31
0.0
  0
LINE
  8
TRMODEL1
  6
CONTINUOUS
 62
     7
  5
731
 10
0.775019
 20
0.645947
 30
0.0
 11
0.7274
 21
0.642759
 31
0.0
  0
LINE
  8
TRMODEL1
  6
CONTINUOUS
 62
     7
  5
732
 10
0.7274
 20
0.642759
 30
0.0
 11
0.679759
 21
0.639774
 31
0.0
  0
LINE
  8
TRMODEL1
  6
CONTINUOUS
 62
     7
  5
733
 10
0.679759
 20
0.639774
 30
0.0
 11
0.632096
 21
0.636991
 31
0.0
  0
LINE
  8
TRMODEL1
  6
CONTINUOUS
 62
     7
  5
734
 10
0.632096
 20
0.636991
 30
0.0
 11
0.584415
 21
0.63441
 31
0.0
  0
LINE
  8
TRMODEL1
  6
CONTINUOUS
 62
     7
  5
735
 10
0.584415
 20
0.63441
 30
0.0
 11
0.536715
 21
0.632032
 31
0.0
  0
LINE
  8
TRMODEL1
  6
CONTINUOUS
 62
     7
  5
736
 10
0.536715
 20
0.632032
 30
0.0
 11
0.488999
 21
0.629856
 31
0.0
  0
LINE
  8
TRMODEL1
  6
CONTINUOUS
 62
     7
  5
737
 10
0.488999
 20
0.629856
 30
0.0
 11
0.441268
 21
0.627882
 31
0.0
  0
LINE
  8
TRMODEL1
  6
CONTINUOUS
 62
     7
  5
738
 10
0.441268
 20
0.627882
 30
0.0
 11
0.393523
 21
0.626112
 31
0.0
  0
LINE
  8
TRMODEL1
  6
CONTINUOUS
 62
     7
  5
739
 10
0.393523
 20
0.626112
 30
0.0
 11
0.345767
 21
0.624543
 31
0.0
  0
LINE
  8
TRMODEL1
  6
CONTINUOUS
 62
     7
  5
73A
 10
0.345767
 20
0.624543
 30
0.0
 11
0.297999
 21
0.623177
 31
0.0
  0
LINE
  8
TRMODEL1
  6
CONTINUOUS
 62
     7
  5
73B
 10
0.297999
 20
0.623177
 30
0.0
 11
0.250223
 21
0.622014
 31
0.0
  0
LINE
  8
TRMODEL1
  6
CONTINUOUS
 62
     7
  5
73C
 10
0.250223
 20
0.622014
 30
0.0
 11
0.202439
 21
0.621054
 31
0.0
  0
LINE
  8
TRMODEL1
  6
CONTINUOUS
 62
     7
  5
73D
 10
0.202439
 20
0.621054
 30
0.0
 11
0.154649
 21
0.620297
 31
0.0
  0
LINE
  8
TRMODEL1
  6
CONTINUOUS
 62
     7
  5
73E
 10
0.154649
 20
0.620297
 30
0.0
 11
0.106853
 21
0.619742
 31
0.0
  0
LINE
  8
TRMODEL1
  6
CONTINUOUS
 62
     7
  5
73F
 10
0.106853
 20
0.619742
 30
0.0
 11
0.059055
 21
0.61939
 31
0.0
  0
LINE
  8
TRMODEL1
  6
CONTINUOUS
 62
     7
  5
740
 10
-0.059055
 20
0.61939
 30
0.0
 11
-0.106853
 21
0.619742
 31
0.0
  0
LINE
  8
TRMODEL1
  6
CONTINUOUS
 62
     7
  5
741
 10
-0.106853
 20
0.619742
 30
0.0
 11
-0.154649
 21
0.620297
 31
0.0
  0
LINE
  8
TRMODEL1
  6
CONTINUOUS
 62
     7
  5
742
 10
-0.154649
 20
0.620297
 30
0.0
 11
-0.202439
 21
0.621054
 31
0.0
  0
LINE
  8
TRMODEL1
  6
CONTINUOUS
 62
     7
  5
743
 10
-0.202439
 20
0.621054
 30
0.0
 11
-0.250223
 21
0.622014
 31
0.0
  0
LINE
  8
TRMODEL1
  6
CONTINUOUS
 62
     7
  5
744
 10
-0.250223
 20
0.622014
 30
0.0
 11
-0.297999
 21
0.623177
 31
0.0
  0
LINE
  8
TRMODEL1
  6
CONTINUOUS
 62
     7
  5
745
 10
-0.297999
 20
0.623177
 30
0.0
 11
-0.345767
 21
0.624543
 31
0.0
  0
LINE
  8
TRMODEL1
  6
CONTINUOUS
 62
     7
  5
746
 10
-0.345767
 20
0.624543
 30
0.0
 11
-0.393523
 21
0.626112
 31
0.0
  0
LINE
  8
TRMODEL1
  6
CONTINUOUS
 62
     7
  5
747
 10
-0.393523
 20
0.626112
 30
0.0
 11
-0.441268
 21
0.627882
 31
0.0
  0
LINE
  8
TRMODEL1
  6
CONTINUOUS
 62
     7
  5
748
 10
-0.441268
 20
0.627882
 30
0.0
 11
-0.488999
 21
0.629856
 31
0.0
  0
LINE
  8
TRMODEL1
  6
CONTINUOUS
 62
     7
  5
749
 10
-0.488999
 20
0.629856
 30
0.0
 11
-0.536715
 21
0.632032
 31
0.0
  0
LINE
  8
TRMODEL1
  6
CONTINUOUS
 62
     7
  5
74A
 10
-0.536715
 20
0.632032
 30
0.0
 11
-0.584415
 21
0.63441
 31
0.0
  0
LINE
  8
TRMODEL1
  6
CONTINUOUS
 62
     7
  5
74B
 10
-0.584415
 20
0.63441
 30
0.0
 11
-0.632096
 21
0.636991
 31
0.0
  0
LINE
  8
TRMODEL1
  6
CONTINUOUS
 62
     7
  5
74C
 10
-0.632096
 20
0.636991
 30
0.0
 11
-0.679759
 21
0.639774
 31
0.0
  0
LINE
  8
TRMODEL1
  6
CONTINUOUS
 62
     7
  5
74D
 10
-0.679759
 20
0.639774
 30
0.0
 11
-0.7274
 21
0.642759
 31
0.0
  0
LINE
  8
TRMODEL1
  6
CONTINUOUS
 62
     7
  5
74E
 10
-0.7274
 20
0.642759
 30
0.0
 11
-0.775019
 21
0.645947
 31
0.0
  0
LINE
  8
TRMODEL1
  6
CONTINUOUS
 62
     7
  5
74F
 10
-0.775019
 20
0.645947
 30
0.0
 11
-0.822615
 21
0.649336
 31
0.0
  0
LINE
  8
TRMODEL1
  6
CONTINUOUS
 62
     7
  5
750
 10
-0.822615
 20
0.649336
 30
0.0
 11
-0.870185
 21
0.652927
 31
0.0
  0
LINE
  8
TRMODEL1
  6
CONTINUOUS
 62
     7
  5
751
 10
-0.870185
 20
0.652927
 30
0.0
 11
-0.917728
 21
0.65672
 31
0.0
  0
LINE
  8
TRMODEL1
  6
CONTINUOUS
 62
     7
  5
752
 10
-0.917728
 20
0.65672
 30
0.0
 11
-0.965243
 21
0.660715
 31
0.0
  0
LINE
  8
TRMODEL1
  6
CONTINUOUS
 62
     7
  5
753
 10
-0.965243
 20
0.660715
 30
0.0
 11
-1.012729
 21
0.664911
 31
0.0
  0
LINE
  8
TRMODEL1
  6
CONTINUOUS
 62
     7
  5
754
 10
-1.012729
 20
0.664911
 30
0.0
 11
-1.060184
 21
0.669308
 31
0.0
  0
LINE
  8
TRMODEL1
  6
CONTINUOUS
 62
     7
  5
755
 10
-1.060184
 20
0.669308
 30
0.0
 11
-1.107606
 21
0.673907
 31
0.0
  0
LINE
  8
TRMODEL1
  6
CONTINUOUS
 62
     7
  5
756
 10
-1.107606
 20
0.673907
 30
0.0
 11
-1.154994
 21
0.678707
 31
0.0
  0
LINE
  8
TRMODEL1
  6
CONTINUOUS
 62
     7
  5
757
 10
-1.154994
 20
0.678707
 30
0.0
 11
-1.202346
 21
0.683708
 31
0.0
  0
LINE
  8
TRMODEL1
  6
CONTINUOUS
 62
     7
  5
758
 10
-1.202346
 20
0.683708
 30
0.0
 11
-1.249662
 21
0.68891
 31
0.0
  0
LINE
  8
TRMODEL1
  6
CONTINUOUS
 62
     7
  5
759
 10
-1.249662
 20
0.68891
 30
0.0
 11
-1.29694
 21
0.694313
 31
0.0
  0
LINE
  8
TRMODEL1
  6
CONTINUOUS
 62
     7
  5
75A
 10
-1.29694
 20
0.694313
 30
0.0
 11
-1.344177
 21
0.699915
 31
0.0
  0
LINE
  8
TRMODEL1
  6
CONTINUOUS
 62
     7
  5
75B
 10
-1.344177
 20
0.699915
 30
0.0
 11
-1.391374
 21
0.705719
 31
0.0
  0
LINE
  8
TRMODEL1
  6
CONTINUOUS
 62
     7
  5
75C
 10
-1.391374
 20
0.705719
 30
0.0
 11
-1.438527
 21
0.711722
 31
0.0
  0
LINE
  8
TRMODEL1
  6
CONTINUOUS
 62
     7
  5
75D
 10
-1.438527
 20
0.711722
 30
0.0
 11
-1.485637
 21
0.717926
 31
0.0
  0
LINE
  8
TRMODEL1
  6
CONTINUOUS
 62
     7
  5
75E
 10
-1.485637
 20
0.717926
 30
0.0
 11
-1.532701
 21
0.724329
 31
0.0
  0
LINE
  8
TRMODEL1
  6
CONTINUOUS
 62
     7
  5
75F
 10
-1.532701
 20
0.724329
 30
0.0
 11
-1.579718
 21
0.730932
 31
0.0
  0
LINE
  8
TRMODEL1
  6
CONTINUOUS
 62
     7
  5
760
 10
-1.579718
 20
0.730932
 30
0.0
 11
-1.626687
 21
0.737734
 31
0.0
  0
LINE
  8
TRMODEL1
  6
CONTINUOUS
 62
     7
  5
761
 10
-1.626687
 20
0.737734
 30
0.0
 11
-1.673605
 21
0.744735
 31
0.0
  0
LINE
  8
TRMODEL1
  6
CONTINUOUS
 62
     7
  5
762
 10
-1.673605
 20
0.744735
 30
0.0
 11
-1.720472
 21
0.751936
 31
0.0
  0
LINE
  8
TRMODEL1
  6
CONTINUOUS
 62
     7
  5
763
 10
-0.059055
 20
0.65735
 30
0.0
 11
-0.106853
 21
0.657702
 31
0.0
  0
LINE
  8
TRMODEL1
  6
CONTINUOUS
 62
     7
  5
764
 10
-0.106853
 20
0.657702
 30
0.0
 11
-0.154649
 21
0.658257
 31
0.0
  0
LINE
  8
TRMODEL1
  6
CONTINUOUS
 62
     7
  5
765
 10
-0.154649
 20
0.658257
 30
0.0
 11
-0.202439
 21
0.659014
 31
0.0
  0
LINE
  8
TRMODEL1
  6
CONTINUOUS
 62
     7
  5
766
 10
-0.202439
 20
0.659014
 30
0.0
 11
-0.250223
 21
0.659974
 31
0.0
  0
LINE
  8
TRMODEL1
  6
CONTINUOUS
 62
     7
  5
767
 10
-0.250223
 20
0.659974
 30
0.0
 11
-0.297999
 21
0.661137
 31
0.0
  0
LINE
  8
TRMODEL1
  6
CONTINUOUS
 62
     7
  5
768
 10
-0.297999
 20
0.661137
 30
0.0
 11
-0.345767
 21
0.662503
 31
0.0
  0
LINE
  8
TRMODEL1
  6
CONTINUOUS
 62
     7
  5
769
 10
-0.345767
 20
0.662503
 30
0.0
 11
-0.393523
 21
0.664071
 31
0.0
  0
LINE
  8
TRMODEL1
  6
CONTINUOUS
 62
     7
  5
76A
 10
-0.393523
 20
0.664071
 30
0.0
 11
-0.441268
 21
0.665842
 31
0.0
  0
LINE
  8
TRMODEL1
  6
CONTINUOUS
 62
     7
  5
76B
 10
-0.441268
 20
0.665842
 30
0.0
 11
-0.488999
 21
0.667816
 31
0.0
  0
LINE
  8
TRMODEL1
  6
CONTINUOUS
 62
     7
  5
76C
 10
-0.488999
 20
0.667816
 30
0.0
 11
-0.536715
 21
0.669992
 31
0.0
  0
LINE
  8
TRMODEL1
  6
CONTINUOUS
 62
     7
  5
76D
 10
-0.536715
 20
0.669992
 30
0.0
 11
-0.584415
 21
0.67237
 31
0.0
  0
LINE
  8
TRMODEL1
  6
CONTINUOUS
 62
     7
  5
76E
 10
-0.584415
 20
0.67237
 30
0.0
 11
-0.632096
 21
0.674951
 31
0.0
  0
LINE
  8
TRMODEL1
  6
CONTINUOUS
 62
     7
  5
76F
 10
-0.632096
 20
0.674951
 30
0.0
 11
-0.679759
 21
0.677734
 31
0.0
  0
LINE
  8
TRMODEL1
  6
CONTINUOUS
 62
     7
  5
770
 10
-0.679759
 20
0.677734
 30
0.0
 11
-0.7274
 21
0.680719
 31
0.0
  0
LINE
  8
TRMODEL1
  6
CONTINUOUS
 62
     7
  5
771
 10
-0.7274
 20
0.680719
 30
0.0
 11
-0.775019
 21
0.683907
 31
0.0
  0
LINE
  8
TRMODEL1
  6
CONTINUOUS
 62
     7
  5
772
 10
-0.775019
 20
0.683907
 30
0.0
 11
-0.822615
 21
0.687296
 31
0.0
  0
LINE
  8
TRMODEL1
  6
CONTINUOUS
 62
     7
  5
773
 10
-0.822615
 20
0.687296
 30
0.0
 11
-0.870185
 21
0.690887
 31
0.0
  0
LINE
  8
TRMODEL1
  6
CONTINUOUS
 62
     7
  5
774
 10
-0.870185
 20
0.690887
 30
0.0
 11
-0.917728
 21
0.69468
 31
0.0
  0
LINE
  8
TRMODEL1
  6
CONTINUOUS
 62
     7
  5
775
 10
-0.917728
 20
0.69468
 30
0.0
 11
-0.965243
 21
0.698675
 31
0.0
  0
LINE
  8
TRMODEL1
  6
CONTINUOUS
 62
     7
  5
776
 10
-0.965243
 20
0.698675
 30
0.0
 11
-1.012729
 21
0.702871
 31
0.0
  0
LINE
  8
TRMODEL1
  6
CONTINUOUS
 62
     7
  5
777
 10
-1.012729
 20
0.702871
 30
0.0
 11
-1.060184
 21
0.707268
 31
0.0
  0
LINE
  8
TRMODEL1
  6
CONTINUOUS
 62
     7
  5
778
 10
-1.060184
 20
0.707268
 30
0.0
 11
-1.107606
 21
0.711867
 31
0.0
  0
LINE
  8
TRMODEL1
  6
CONTINUOUS
 62
     7
  5
779
 10
-1.107606
 20
0.711867
 30
0.0
 11
-1.154994
 21
0.716667
 31
0.0
  0
LINE
  8
TRMODEL1
  6
CONTINUOUS
 62
     7
  5
77A
 10
-1.154994
 20
0.716667
 30
0.0
 11
-1.202346
 21
0.721668
 31
0.0
  0
LINE
  8
TRMODEL1
  6
CONTINUOUS
 62
     7
  5
77B
 10
-1.202346
 20
0.721668
 30
0.0
 11
-1.249662
 21
0.72687
 31
0.0
  0
LINE
  8
TRMODEL1
  6
CONTINUOUS
 62
     7
  5
77C
 10
-1.249662
 20
0.72687
 30
0.0
 11
-1.29694
 21
0.732272
 31
0.0
  0
LINE
  8
TRMODEL1
  6
CONTINUOUS
 62
     7
  5
77D
 10
-1.29694
 20
0.732272
 30
0.0
 11
-1.344177
 21
0.737875
 31
0.0
  0
LINE
  8
TRMODEL1
  6
CONTINUOUS
 62
     7
  5
77E
 10
-1.344177
 20
0.737875
 30
0.0
 11
-1.391374
 21
0.743679
 31
0.0
  0
LINE
  8
TRMODEL1
  6
CONTINUOUS
 62
     7
  5
77F
 10
-1.391374
 20
0.743679
 30
0.0
 11
-1.438527
 21
0.749682
 31
0.0
  0
LINE
  8
TRMODEL1
  6
CONTINUOUS
 62
     7
  5
780
 10
-1.438527
 20
0.749682
 30
0.0
 11
-1.485637
 21
0.755886
 31
0.0
  0
LINE
  8
TRMODEL1
  6
CONTINUOUS
 62
     7
  5
781
 10
-1.485637
 20
0.755886
 30
0.0
 11
-1.532701
 21
0.762289
 31
0.0
  0
LINE
  8
TRMODEL1
  6
CONTINUOUS
 62
     7
  5
782
 10
-1.532701
 20
0.762289
 30
0.0
 11
-1.579718
 21
0.768892
 31
0.0
  0
LINE
  8
TRMODEL1
  6
CONTINUOUS
 62
     7
  5
783
 10
-1.579718
 20
0.768892
 30
0.0
 11
-1.626687
 21
0.775694
 31
0.0
  0
LINE
  8
TRMODEL1
  6
CONTINUOUS
 62
     7
  5
784
 10
-1.626687
 20
0.775694
 30
0.0
 11
-1.673605
 21
0.782695
 31
0.0
  0
LINE
  8
TRMODEL1
  6
CONTINUOUS
 62
     7
  5
785
 10
-1.673605
 20
0.782695
 30
0.0
 11
-1.720472
 21
0.789896
 31
0.0
  0
LINE
  8
TRMODEL1
  6
CONTINUOUS
 62
     7
  5
786
 10
1.720472
 20
1.243499
 30
0.0
 11
1.673605
 21
1.236299
 31
0.0
  0
LINE
  8
TRMODEL1
  6
CONTINUOUS
 62
     7
  5
787
 10
1.673605
 20
1.236299
 30
0.0
 11
1.626687
 21
1.229298
 31
0.0
  0
LINE
  8
TRMODEL1
  6
CONTINUOUS
 62
     7
  5
788
 10
1.626687
 20
1.229298
 30
0.0
 11
1.579718
 21
1.222495
 31
0.0
  0
LINE
  8
TRMODEL1
  6
CONTINUOUS
 62
     7
  5
789
 10
1.579718
 20
1.222495
 30
0.0
 11
1.532701
 21
1.215893
 31
0.0
  0
LINE
  8
TRMODEL1
  6
CONTINUOUS
 62
     7
  5
78A
 10
1.532701
 20
1.215893
 30
0.0
 11
1.485637
 21
1.209489
 31
0.0
  0
LINE
  8
TRMODEL1
  6
CONTINUOUS
 62
     7
  5
78B
 10
1.485637
 20
1.209489
 30
0.0
 11
1.438527
 21
1.203286
 31
0.0
  0
LINE
  8
TRMODEL1
  6
CONTINUOUS
 62
     7
  5
78C
 10
1.438527
 20
1.203286
 30
0.0
 11
1.391374
 21
1.197282
 31
0.0
  0
LINE
  8
TRMODEL1
  6
CONTINUOUS
 62
     7
  5
78D
 10
1.391374
 20
1.197282
 30
0.0
 11
1.344177
 21
1.191479
 31
0.0
  0
LINE
  8
TRMODEL1
  6
CONTINUOUS
 62
     7
  5
78E
 10
1.344177
 20
1.191479
 30
0.0
 11
1.29694
 21
1.185876
 31
0.0
  0
LINE
  8
TRMODEL1
  6
CONTINUOUS
 62
     7
  5
78F
 10
1.29694
 20
1.185876
 30
0.0
 11
1.249662
 21
1.180474
 31
0.0
  0
LINE
  8
TRMODEL1
  6
CONTINUOUS
 62
     7
  5
790
 10
1.249662
 20
1.180474
 30
0.0
 11
1.202346
 21
1.175272
 31
0.0
  0
LINE
  8
TRMODEL1
  6
CONTINUOUS
 62
     7
  5
791
 10
1.202346
 20
1.175272
 30
0.0
 11
1.154994
 21
1.170271
 31
0.0
  0
LINE
  8
TRMODEL1
  6
CONTINUOUS
 62
     7
  5
792
 10
1.154994
 20
1.170271
 30
0.0
 11
1.107606
 21
1.165471
 31
0.0
  0
LINE
  8
TRMODEL1
  6
CONTINUOUS
 62
     7
  5
793
 10
1.107606
 20
1.165471
 30
0.0
 11
1.060184
 21
1.160872
 31
0.0
  0
LINE
  8
TRMODEL1
  6
CONTINUOUS
 62
     7
  5
794
 10
1.060184
 20
1.160872
 30
0.0
 11
1.012729
 21
1.156474
 31
0.0
  0
LINE
  8
TRMODEL1
  6
CONTINUOUS
 62
     7
  5
795
 10
1.012729
 20
1.156474
 30
0.0
 11
0.965243
 21
1.152278
 31
0.0
  0
LINE
  8
TRMODEL1
  6
CONTINUOUS
 62
     7
  5
796
 10
0.965243
 20
1.152278
 30
0.0
 11
0.917728
 21
1.148284
 31
0.0
  0
LINE
  8
TRMODEL1
  6
CONTINUOUS
 62
     7
  5
797
 10
0.917728
 20
1.148284
 30
0.0
 11
0.870185
 21
1.144491
 31
0.0
  0
LINE
  8
TRMODEL1
  6
CONTINUOUS
 62
     7
  5
798
 10
0.870185
 20
1.144491
 30
0.0
 11
0.822615
 21
1.1409
 31
0.0
  0
LINE
  8
TRMODEL1
  6
CONTINUOUS
 62
     7
  5
799
 10
0.822615
 20
1.1409
 30
0.0
 11
0.775019
 21
1.13751
 31
0.0
  0
LINE
  8
TRMODEL1
  6
CONTINUOUS
 62
     7
  5
79A
 10
0.775019
 20
1.13751
 30
0.0
 11
0.7274
 21
1.134323
 31
0.0
  0
LINE
  8
TRMODEL1
  6
CONTINUOUS
 62
     7
  5
79B
 10
0.7274
 20
1.134323
 30
0.0
 11
0.679759
 21
1.131338
 31
0.0
  0
LINE
  8
TRMODEL1
  6
CONTINUOUS
 62
     7
  5
79C
 10
0.679759
 20
1.131338
 30
0.0
 11
0.632096
 21
1.128555
 31
0.0
  0
LINE
  8
TRMODEL1
  6
CONTINUOUS
 62
     7
  5
79D
 10
0.632096
 20
1.128555
 30
0.0
 11
0.584415
 21
1.125974
 31
0.0
  0
LINE
  8
TRMODEL1
  6
CONTINUOUS
 62
     7
  5
79E
 10
0.584415
 20
1.125974
 30
0.0
 11
0.536715
 21
1.123596
 31
0.0
  0
LINE
  8
TRMODEL1
  6
CONTINUOUS
 62
     7
  5
79F
 10
0.536715
 20
1.123596
 30
0.0
 11
0.488999
 21
1.12142
 31
0.0
  0
LINE
  8
TRMODEL1
  6
CONTINUOUS
 62
     7
  5
7A0
 10
0.488999
 20
1.12142
 30
0.0
 11
0.441268
 21
1.119446
 31
0.0
  0
LINE
  8
TRMODEL1
  6
CONTINUOUS
 62
     7
  5
7A1
 10
0.441268
 20
1.119446
 30
0.0
 11
0.393523
 21
1.117675
 31
0.0
  0
LINE
  8
TRMODEL1
  6
CONTINUOUS
 62
     7
  5
7A2
 10
0.393523
 20
1.117675
 30
0.0
 11
0.345767
 21
1.116107
 31
0.0
  0
LINE
  8
TRMODEL1
  6
CONTINUOUS
 62
     7
  5
7A3
 10
0.345767
 20
1.116107
 30
0.0
 11
0.297999
 21
1.114741
 31
0.0
  0
LINE
  8
TRMODEL1
  6
CONTINUOUS
 62
     7
  5
7A4
 10
0.297999
 20
1.114741
 30
0.0
 11
0.250223
 21
1.113578
 31
0.0
  0
LINE
  8
TRMODEL1
  6
CONTINUOUS
 62
     7
  5
7A5
 10
0.250223
 20
1.113578
 30
0.0
 11
0.202439
 21
1.112618
 31
0.0
  0
LINE
  8
TRMODEL1
  6
CONTINUOUS
 62
     7
  5
7A6
 10
0.202439
 20
1.112618
 30
0.0
 11
0.154649
 21
1.11186
 31
0.0
  0
LINE
  8
TRMODEL1
  6
CONTINUOUS
 62
     7
  5
7A7
 10
0.154649
 20
1.11186
 30
0.0
 11
0.106853
 21
1.111305
 31
0.0
  0
LINE
  8
TRMODEL1
  6
CONTINUOUS
 62
     7
  5
7A8
 10
0.106853
 20
1.111305
 30
0.0
 11
0.059055
 21
1.110953
 31
0.0
  0
LINE
  8
TRMODEL1
  6
CONTINUOUS
 62
     7
  5
7A9
 10
1.720472
 20
1.281459
 30
0.0
 11
1.673605
 21
1.274259
 31
0.0
  0
LINE
  8
TRMODEL1
  6
CONTINUOUS
 62
     7
  5
7AA
 10
1.673605
 20
1.274259
 30
0.0
 11
1.626687
 21
1.267257
 31
0.0
  0
LINE
  8
TRMODEL1
  6
CONTINUOUS
 62
     7
  5
7AB
 10
1.626687
 20
1.267257
 30
0.0
 11
1.579718
 21
1.260455
 31
0.0
  0
LINE
  8
TRMODEL1
  6
CONTINUOUS
 62
     7
  5
7AC
 10
1.579718
 20
1.260455
 30
0.0
 11
1.532701
 21
1.253852
 31
0.0
  0
LINE
  8
TRMODEL1
  6
CONTINUOUS
 62
     7
  5
7AD
 10
1.532701
 20
1.253852
 30
0.0
 11
1.485637
 21
1.247449
 31
0.0
  0
LINE
  8
TRMODEL1
  6
CONTINUOUS
 62
     7
  5
7AE
 10
1.485637
 20
1.247449
 30
0.0
 11
1.438527
 21
1.241246
 31
0.0
  0
LINE
  8
TRMODEL1
  6
CONTINUOUS
 62
     7
  5
7AF
 10
1.438527
 20
1.241246
 30
0.0
 11
1.391374
 21
1.235242
 31
0.0
  0
LINE
  8
TRMODEL1
  6
CONTINUOUS
 62
     7
  5
7B0
 10
1.391374
 20
1.235242
 30
0.0
 11
1.344177
 21
1.229439
 31
0.0
  0
LINE
  8
TRMODEL1
  6
CONTINUOUS
 62
     7
  5
7B1
 10
1.344177
 20
1.229439
 30
0.0
 11
1.29694
 21
1.223836
 31
0.0
  0
LINE
  8
TRMODEL1
  6
CONTINUOUS
 62
     7
  5
7B2
 10
1.29694
 20
1.223836
 30
0.0
 11
1.249662
 21
1.218433
 31
0.0
  0
LINE
  8
TRMODEL1
  6
CONTINUOUS
 62
     7
  5
7B3
 10
1.249662
 20
1.218433
 30
0.0
 11
1.202346
 21
1.213232
 31
0.0
  0
LINE
  8
TRMODEL1
  6
CONTINUOUS
 62
     7
  5
7B4
 10
1.202346
 20
1.213232
 30
0.0
 11
1.154994
 21
1.208231
 31
0.0
  0
LINE
  8
TRMODEL1
  6
CONTINUOUS
 62
     7
  5
7B5
 10
1.154994
 20
1.208231
 30
0.0
 11
1.107606
 21
1.203431
 31
0.0
  0
LINE
  8
TRMODEL1
  6
CONTINUOUS
 62
     7
  5
7B6
 10
1.107606
 20
1.203431
 30
0.0
 11
1.060184
 21
1.198832
 31
0.0
  0
LINE
  8
TRMODEL1
  6
CONTINUOUS
 62
     7
  5
7B7
 10
1.060184
 20
1.198832
 30
0.0
 11
1.012729
 21
1.194434
 31
0.0
  0
LINE
  8
TRMODEL1
  6
CONTINUOUS
 62
     7
  5
7B8
 10
1.012729
 20
1.194434
 30
0.0
 11
0.965243
 21
1.190238
 31
0.0
  0
LINE
  8
TRMODEL1
  6
CONTINUOUS
 62
     7
  5
7B9
 10
0.965243
 20
1.190238
 30
0.0
 11
0.917728
 21
1.186244
 31
0.0
  0
LINE
  8
TRMODEL1
  6
CONTINUOUS
 62
     7
  5
7BA
 10
0.917728
 20
1.186244
 30
0.0
 11
0.870185
 21
1.182451
 31
0.0
  0
LINE
  8
TRMODEL1
  6
CONTINUOUS
 62
     7
  5
7BB
 10
0.870185
 20
1.182451
 30
0.0
 11
0.822615
 21
1.178859
 31
0.0
  0
LINE
  8
TRMODEL1
  6
CONTINUOUS
 62
     7
  5
7BC
 10
0.822615
 20
1.178859
 30
0.0
 11
0.775019
 21
1.17547
 31
0.0
  0
LINE
  8
TRMODEL1
  6
CONTINUOUS
 62
     7
  5
7BD
 10
0.775019
 20
1.17547
 30
0.0
 11
0.7274
 21
1.172283
 31
0.0
  0
LINE
  8
TRMODEL1
  6
CONTINUOUS
 62
     7
  5
7BE
 10
0.7274
 20
1.172283
 30
0.0
 11
0.679759
 21
1.169298
 31
0.0
  0
LINE
  8
TRMODEL1
  6
CONTINUOUS
 62
     7
  5
7BF
 10
0.679759
 20
1.169298
 30
0.0
 11
0.632096
 21
1.166515
 31
0.0
  0
LINE
  8
TRMODEL1
  6
CONTINUOUS
 62
     7
  5
7C0
 10
0.632096
 20
1.166515
 30
0.0
 11
0.584415
 21
1.163934
 31
0.0
  0
LINE
  8
TRMODEL1
  6
CONTINUOUS
 62
     7
  5
7C1
 10
0.584415
 20
1.163934
 30
0.0
 11
0.536715
 21
1.161555
 31
0.0
  0
LINE
  8
TRMODEL1
  6
CONTINUOUS
 62
     7
  5
7C2
 10
0.536715
 20
1.161555
 30
0.0
 11
0.488999
 21
1.159379
 31
0.0
  0
LINE
  8
TRMODEL1
  6
CONTINUOUS
 62
     7
  5
7C3
 10
0.488999
 20
1.159379
 30
0.0
 11
0.441268
 21
1.157406
 31
0.0
  0
LINE
  8
TRMODEL1
  6
CONTINUOUS
 62
     7
  5
7C4
 10
0.441268
 20
1.157406
 30
0.0
 11
0.393523
 21
1.155635
 31
0.0
  0
LINE
  8
TRMODEL1
  6
CONTINUOUS
 62
     7
  5
7C5
 10
0.393523
 20
1.155635
 30
0.0
 11
0.345767
 21
1.154067
 31
0.0
  0
LINE
  8
TRMODEL1
  6
CONTINUOUS
 62
     7
  5
7C6
 10
0.345767
 20
1.154067
 30
0.0
 11
0.297999
 21
1.152701
 31
0.0
  0
LINE
  8
TRMODEL1
  6
CONTINUOUS
 62
     7
  5
7C7
 10
0.297999
 20
1.152701
 30
0.0
 11
0.250223
 21
1.151538
 31
0.0
  0
LINE
  8
TRMODEL1
  6
CONTINUOUS
 62
     7
  5
7C8
 10
0.250223
 20
1.151538
 30
0.0
 11
0.202439
 21
1.150578
 31
0.0
  0
LINE
  8
TRMODEL1
  6
CONTINUOUS
 62
     7
  5
7C9
 10
0.202439
 20
1.150578
 30
0.0
 11
0.154649
 21
1.14982
 31
0.0
  0
LINE
  8
TRMODEL1
  6
CONTINUOUS
 62
     7
  5
7CA
 10
0.154649
 20
1.14982
 30
0.0
 11
0.106853
 21
1.149265
 31
0.0
  0
LINE
  8
TRMODEL1
  6
CONTINUOUS
 62
     7
  5
7CB
 10
0.106853
 20
1.149265
 30
0.0
 11
0.059055
 21
1.148913
 31
0.0
  0
LINE
  8
TRMODEL1
  6
CONTINUOUS
 62
     7
  5
7CC
 10
-0.059055
 20
1.148913
 30
0.0
 11
-0.106853
 21
1.149265
 31
0.0
  0
LINE
  8
TRMODEL1
  6
CONTINUOUS
 62
     7
  5
7CD
 10
-0.106853
 20
1.149265
 30
0.0
 11
-0.154649
 21
1.14982
 31
0.0
  0
LINE
  8
TRMODEL1
  6
CONTINUOUS
 62
     7
  5
7CE
 10
-0.154649
 20
1.14982
 30
0.0
 11
-0.202439
 21
1.150578
 31
0.0
  0
LINE
  8
TRMODEL1
  6
CONTINUOUS
 62
     7
  5
7CF
 10
-0.202439
 20
1.150578
 30
0.0
 11
-0.250223
 21
1.151538
 31
0.0
  0
LINE
  8
TRMODEL1
  6
CONTINUOUS
 62
     7
  5
7D0
 10
-0.250223
 20
1.151538
 30
0.0
 11
-0.297999
 21
1.152701
 31
0.0
  0
LINE
  8
TRMODEL1
  6
CONTINUOUS
 62
     7
  5
7D1
 10
-0.297999
 20
1.152701
 30
0.0
 11
-0.345767
 21
1.154067
 31
0.0
  0
LINE
  8
TRMODEL1
  6
CONTINUOUS
 62
     7
  5
7D2
 10
-0.345767
 20
1.154067
 30
0.0
 11
-0.393523
 21
1.155635
 31
0.0
  0
LINE
  8
TRMODEL1
  6
CONTINUOUS
 62
     7
  5
7D3
 10
-0.393523
 20
1.155635
 30
0.0
 11
-0.441268
 21
1.157406
 31
0.0
  0
LINE
  8
TRMODEL1
  6
CONTINUOUS
 62
     7
  5
7D4
 10
-0.441268
 20
1.157406
 30
0.0
 11
-0.488999
 21
1.159379
 31
0.0
  0
LINE
  8
TRMODEL1
  6
CONTINUOUS
 62
     7
  5
7D5
 10
-0.488999
 20
1.159379
 30
0.0
 11
-0.536715
 21
1.161555
 31
0.0
  0
LINE
  8
TRMODEL1
  6
CONTINUOUS
 62
     7
  5
7D6
 10
-0.536715
 20
1.161555
 30
0.0
 11
-0.584415
 21
1.163934
 31
0.0
  0
LINE
  8
TRMODEL1
  6
CONTINUOUS
 62
     7
  5
7D7
 10
-0.584415
 20
1.163934
 30
0.0
 11
-0.632096
 21
1.166515
 31
0.0
  0
LINE
  8
TRMODEL1
  6
CONTINUOUS
 62
     7
  5
7D8
 10
-0.632096
 20
1.166515
 30
0.0
 11
-0.679759
 21
1.169298
 31
0.0
  0
LINE
  8
TRMODEL1
  6
CONTINUOUS
 62
     7
  5
7D9
 10
-0.679759
 20
1.169298
 30
0.0
 11
-0.7274
 21
1.172283
 31
0.0
  0
LINE
  8
TRMODEL1
  6
CONTINUOUS
 62
     7
  5
7DA
 10
-0.7274
 20
1.172283
 30
0.0
 11
-0.775019
 21
1.17547
 31
0.0
  0
LINE
  8
TRMODEL1
  6
CONTINUOUS
 62
     7
  5
7DB
 10
-0.775019
 20
1.17547
 30
0.0
 11
-0.822615
 21
1.178859
 31
0.0
  0
LINE
  8
TRMODEL1
  6
CONTINUOUS
 62
     7
  5
7DC
 10
-0.822615
 20
1.178859
 30
0.0
 11
-0.870185
 21
1.182451
 31
0.0
  0
LINE
  8
TRMODEL1
  6
CONTINUOUS
 62
     7
  5
7DD
 10
-0.870185
 20
1.182451
 30
0.0
 11
-0.917728
 21
1.186244
 31
0.0
  0
LINE
  8
TRMODEL1
  6
CONTINUOUS
 62
     7
  5
7DE
 10
-0.917728
 20
1.186244
 30
0.0
 11
-0.965243
 21
1.190238
 31
0.0
  0
LINE
  8
TRMODEL1
  6
CONTINUOUS
 62
     7
  5
7DF
 10
-0.965243
 20
1.190238
 30
0.0
 11
-1.012729
 21
1.194434
 31
0.0
  0
LINE
  8
TRMODEL1
  6
CONTINUOUS
 62
     7
  5
7E0
 10
-1.012729
 20
1.194434
 30
0.0
 11
-1.060184
 21
1.198832
 31
0.0
  0
LINE
  8
TRMODEL1
  6
CONTINUOUS
 62
     7
  5
7E1
 10
-1.060184
 20
1.198832
 30
0.0
 11
-1.107606
 21
1.203431
 31
0.0
  0
LINE
  8
TRMODEL1
  6
CONTINUOUS
 62
     7
  5
7E2
 10
-1.107606
 20
1.203431
 30
0.0
 11
-1.154994
 21
1.208231
 31
0.0
  0
LINE
  8
TRMODEL1
  6
CONTINUOUS
 62
     7
  5
7E3
 10
-1.154994
 20
1.208231
 30
0.0
 11
-1.202346
 21
1.213232
 31
0.0
  0
LINE
  8
TRMODEL1
  6
CONTINUOUS
 62
     7
  5
7E4
 10
-1.202346
 20
1.213232
 30
0.0
 11
-1.249662
 21
1.218433
 31
0.0
  0
LINE
  8
TRMODEL1
  6
CONTINUOUS
 62
     7
  5
7E5
 10
-1.249662
 20
1.218433
 30
0.0
 11
-1.29694
 21
1.223836
 31
0.0
  0
LINE
  8
TRMODEL1
  6
CONTINUOUS
 62
     7
  5
7E6
 10
-1.29694
 20
1.223836
 30
0.0
 11
-1.344177
 21
1.229439
 31
0.0
  0
LINE
  8
TRMODEL1
  6
CONTINUOUS
 62
     7
  5
7E7
 10
-1.344177
 20
1.229439
 30
0.0
 11
-1.391374
 21
1.235242
 31
0.0
  0
LINE
  8
TRMODEL1
  6
CONTINUOUS
 62
     7
  5
7E8
 10
-1.391374
 20
1.235242
 30
0.0
 11
-1.438527
 21
1.241246
 31
0.0
  0
LINE
  8
TRMODEL1
  6
CONTINUOUS
 62
     7
  5
7E9
 10
-1.438527
 20
1.241246
 30
0.0
 11
-1.485637
 21
1.247449
 31
0.0
  0
LINE
  8
TRMODEL1
  6
CONTINUOUS
 62
     7
  5
7EA
 10
-1.485637
 20
1.247449
 30
0.0
 11
-1.532701
 21
1.253852
 31
0.0
  0
LINE
  8
TRMODEL1
  6
CONTINUOUS
 62
     7
  5
7EB
 10
-1.532701
 20
1.253852
 30
0.0
 11
-1.579718
 21
1.260455
 31
0.0
  0
LINE
  8
TRMODEL1
  6
CONTINUOUS
 62
     7
  5
7EC
 10
-1.579718
 20
1.260455
 30
0.0
 11
-1.626687
 21
1.267257
 31
0.0
  0
LINE
  8
TRMODEL1
  6
CONTINUOUS
 62
     7
  5
7ED
 10
-1.626687
 20
1.267257
 30
0.0
 11
-1.673605
 21
1.274259
 31
0.0
  0
LINE
  8
TRMODEL1
  6
CONTINUOUS
 62
     7
  5
7EE
 10
-1.673605
 20
1.274259
 30
0.0
 11
-1.720472
 21
1.281459
 31
0.0
  0
LINE
  8
TRMODEL1
  6
CONTINUOUS
 62
     7
  5
7EF
 10
-0.059055
 20
1.110953
 30
0.0
 11
-0.106853
 21
1.111305
 31
0.0
  0
LINE
  8
TRMODEL1
  6
CONTINUOUS
 62
     7
  5
7F0
 10
-0.106853
 20
1.111305
 30
0.0
 11
-0.154649
 21
1.11186
 31
0.0
  0
LINE
  8
TRMODEL1
  6
CONTINUOUS
 62
     7
  5
7F1
 10
-0.154649
 20
1.11186
 30
0.0
 11
-0.202439
 21
1.112618
 31
0.0
  0
LINE
  8
TRMODEL1
  6
CONTINUOUS
 62
     7
  5
7F2
 10
-0.202439
 20
1.112618
 30
0.0
 11
-0.250223
 21
1.113578
 31
0.0
  0
LINE
  8
TRMODEL1
  6
CONTINUOUS
 62
     7
  5
7F3
 10
-0.250223
 20
1.113578
 30
0.0
 11
-0.297999
 21
1.114741
 31
0.0
  0
LINE
  8
TRMODEL1
  6
CONTINUOUS
 62
     7
  5
7F4
 10
-0.297999
 20
1.114741
 30
0.0
 11
-0.345767
 21
1.116107
 31
0.0
  0
LINE
  8
TRMODEL1
  6
CONTINUOUS
 62
     7
  5
7F5
 10
-0.345767
 20
1.116107
 30
0.0
 11
-0.393523
 21
1.117675
 31
0.0
  0
LINE
  8
TRMODEL1
  6
CONTINUOUS
 62
     7
  5
7F6
 10
-0.393523
 20
1.117675
 30
0.0
 11
-0.441268
 21
1.119446
 31
0.0
  0
LINE
  8
TRMODEL1
  6
CONTINUOUS
 62
     7
  5
7F7
 10
-0.441268
 20
1.119446
 30
0.0
 11
-0.488999
 21
1.12142
 31
0.0
  0
LINE
  8
TRMODEL1
  6
CONTINUOUS
 62
     7
  5
7F8
 10
-0.488999
 20
1.12142
 30
0.0
 11
-0.536715
 21
1.123596
 31
0.0
  0
LINE
  8
TRMODEL1
  6
CONTINUOUS
 62
     7
  5
7F9
 10
-0.536715
 20
1.123596
 30
0.0
 11
-0.584415
 21
1.125974
 31
0.0
  0
LINE
  8
TRMODEL1
  6
CONTINUOUS
 62
     7
  5
7FA
 10
-0.584415
 20
1.125974
 30
0.0
 11
-0.632096
 21
1.128555
 31
0.0
  0
LINE
  8
TRMODEL1
  6
CONTINUOUS
 62
     7
  5
7FB
 10
-0.632096
 20
1.128555
 30
0.0
 11
-0.679759
 21
1.131338
 31
0.0
  0
LINE
  8
TRMODEL1
  6
CONTINUOUS
 62
     7
  5
7FC
 10
-0.679759
 20
1.131338
 30
0.0
 11
-0.7274
 21
1.134323
 31
0.0
  0
LINE
  8
TRMODEL1
  6
CONTINUOUS
 62
     7
  5
7FD
 10
-0.7274
 20
1.134323
 30
0.0
 11
-0.775019
 21
1.13751
 31
0.0
  0
LINE
  8
TRMODEL1
  6
CONTINUOUS
 62
     7
  5
7FE
 10
-0.775019
 20
1.13751
 30
0.0
 11
-0.822615
 21
1.1409
 31
0.0
  0
LINE
  8
TRMODEL1
  6
CONTINUOUS
 62
     7
  5
7FF
 10
-0.822615
 20
1.1409
 30
0.0
 11
-0.870185
 21
1.144491
 31
0.0
  0
LINE
  8
TRMODEL1
  6
CONTINUOUS
 62
     7
  5
800
 10
-0.870185
 20
1.144491
 30
0.0
 11
-0.917728
 21
1.148284
 31
0.0
  0
LINE
  8
TRMODEL1
  6
CONTINUOUS
 62
     7
  5
801
 10
-0.917728
 20
1.148284
 30
0.0
 11
-0.965243
 21
1.152278
 31
0.0
  0
LINE
  8
TRMODEL1
  6
CONTINUOUS
 62
     7
  5
802
 10
-0.965243
 20
1.152278
 30
0.0
 11
-1.012729
 21
1.156474
 31
0.0
  0
LINE
  8
TRMODEL1
  6
CONTINUOUS
 62
     7
  5
803
 10
-1.012729
 20
1.156474
 30
0.0
 11
-1.060184
 21
1.160872
 31
0.0
  0
LINE
  8
TRMODEL1
  6
CONTINUOUS
 62
     7
  5
804
 10
-1.060184
 20
1.160872
 30
0.0
 11
-1.107606
 21
1.165471
 31
0.0
  0
LINE
  8
TRMODEL1
  6
CONTINUOUS
 62
     7
  5
805
 10
-1.107606
 20
1.165471
 30
0.0
 11
-1.154994
 21
1.170271
 31
0.0
  0
LINE
  8
TRMODEL1
  6
CONTINUOUS
 62
     7
  5
806
 10
-1.154994
 20
1.170271
 30
0.0
 11
-1.202346
 21
1.175272
 31
0.0
  0
LINE
  8
TRMODEL1
  6
CONTINUOUS
 62
     7
  5
807
 10
-1.202346
 20
1.175272
 30
0.0
 11
-1.249662
 21
1.180474
 31
0.0
  0
LINE
  8
TRMODEL1
  6
CONTINUOUS
 62
     7
  5
808
 10
-1.249662
 20
1.180474
 30
0.0
 11
-1.29694
 21
1.185876
 31
0.0
  0
LINE
  8
TRMODEL1
  6
CONTINUOUS
 62
     7
  5
809
 10
-1.29694
 20
1.185876
 30
0.0
 11
-1.344177
 21
1.191479
 31
0.0
  0
LINE
  8
TRMODEL1
  6
CONTINUOUS
 62
     7
  5
80A
 10
-1.344177
 20
1.191479
 30
0.0
 11
-1.391374
 21
1.197282
 31
0.0
  0
LINE
  8
TRMODEL1
  6
CONTINUOUS
 62
     7
  5
80B
 10
-1.391374
 20
1.197282
 30
0.0
 11
-1.438527
 21
1.203286
 31
0.0
  0
LINE
  8
TRMODEL1
  6
CONTINUOUS
 62
     7
  5
80C
 10
-1.438527
 20
1.203286
 30
0.0
 11
-1.485637
 21
1.209489
 31
0.0
  0
LINE
  8
TRMODEL1
  6
CONTINUOUS
 62
     7
  5
80D
 10
-1.485637
 20
1.209489
 30
0.0
 11
-1.532701
 21
1.215893
 31
0.0
  0
LINE
  8
TRMODEL1
  6
CONTINUOUS
 62
     7
  5
80E
 10
-1.532701
 20
1.215893
 30
0.0
 11
-1.579718
 21
1.222495
 31
0.0
  0
LINE
  8
TRMODEL1
  6
CONTINUOUS
 62
     7
  5
80F
 10
-1.579718
 20
1.222495
 30
0.0
 11
-1.626687
 21
1.229298
 31
0.0
  0
LINE
  8
TRMODEL1
  6
CONTINUOUS
 62
     7
  5
810
 10
-1.626687
 20
1.229298
 30
0.0
 11
-1.673605
 21
1.236299
 31
0.0
  0
LINE
  8
TRMODEL1
  6
CONTINUOUS
 62
     7
  5
811
 10
-1.673605
 20
1.236299
 30
0.0
 11
-1.720472
 21
1.243499
 31
0.0
  0
LINE
  8
TRMODEL1
  6
CONTINUOUS
 62
     7
  5
812
 10
1.720472
 20
1.735063
 30
0.0
 11
1.673605
 21
1.727862
 31
0.0
  0
LINE
  8
TRMODEL1
  6
CONTINUOUS
 62
     7
  5
813
 10
1.673605
 20
1.727862
 30
0.0
 11
1.626687
 21
1.720861
 31
0.0
  0
LINE
  8
TRMODEL1
  6
CONTINUOUS
 62
     7
  5
814
 10
1.626687
 20
1.720861
 30
0.0
 11
1.579718
 21
1.714059
 31
0.0
  0
LINE
  8
TRMODEL1
  6
CONTINUOUS
 62
     7
  5
815
 10
1.579718
 20
1.714059
 30
0.0
 11
1.532701
 21
1.707456
 31
0.0
  0
LINE
  8
TRMODEL1
  6
CONTINUOUS
 62
     7
  5
816
 10
1.532701
 20
1.707456
 30
0.0
 11
1.485637
 21
1.701053
 31
0.0
  0
LINE
  8
TRMODEL1
  6
CONTINUOUS
 62
     7
  5
817
 10
1.485637
 20
1.701053
 30
0.0
 11
1.438527
 21
1.694849
 31
0.0
  0
LINE
  8
TRMODEL1
  6
CONTINUOUS
 62
     7
  5
818
 10
1.438527
 20
1.694849
 30
0.0
 11
1.391374
 21
1.688846
 31
0.0
  0
LINE
  8
TRMODEL1
  6
CONTINUOUS
 62
     7
  5
819
 10
1.391374
 20
1.688846
 30
0.0
 11
1.344177
 21
1.683043
 31
0.0
  0
LINE
  8
TRMODEL1
  6
CONTINUOUS
 62
     7
  5
81A
 10
1.344177
 20
1.683043
 30
0.0
 11
1.29694
 21
1.67744
 31
0.0
  0
LINE
  8
TRMODEL1
  6
CONTINUOUS
 62
     7
  5
81B
 10
1.29694
 20
1.67744
 30
0.0
 11
1.249662
 21
1.672037
 31
0.0
  0
LINE
  8
TRMODEL1
  6
CONTINUOUS
 62
     7
  5
81C
 10
1.249662
 20
1.672037
 30
0.0
 11
1.202346
 21
1.666835
 31
0.0
  0
LINE
  8
TRMODEL1
  6
CONTINUOUS
 62
     7
  5
81D
 10
1.202346
 20
1.666835
 30
0.0
 11
1.154994
 21
1.661834
 31
0.0
  0
LINE
  8
TRMODEL1
  6
CONTINUOUS
 62
     7
  5
81E
 10
1.154994
 20
1.661834
 30
0.0
 11
1.107606
 21
1.657034
 31
0.0
  0
LINE
  8
TRMODEL1
  6
CONTINUOUS
 62
     7
  5
81F
 10
1.107606
 20
1.657034
 30
0.0
 11
1.060184
 21
1.652436
 31
0.0
  0
LINE
  8
TRMODEL1
  6
CONTINUOUS
 62
     7
  5
820
 10
1.060184
 20
1.652436
 30
0.0
 11
1.012729
 21
1.648038
 31
0.0
  0
LINE
  8
TRMODEL1
  6
CONTINUOUS
 62
     7
  5
821
 10
1.012729
 20
1.648038
 30
0.0
 11
0.965243
 21
1.643842
 31
0.0
  0
LINE
  8
TRMODEL1
  6
CONTINUOUS
 62
     7
  5
822
 10
0.965243
 20
1.643842
 30
0.0
 11
0.917728
 21
1.639847
 31
0.0
  0
LINE
  8
TRMODEL1
  6
CONTINUOUS
 62
     7
  5
823
 10
0.917728
 20
1.639847
 30
0.0
 11
0.870185
 21
1.636054
 31
0.0
  0
LINE
  8
TRMODEL1
  6
CONTINUOUS
 62
     7
  5
824
 10
0.870185
 20
1.636054
 30
0.0
 11
0.822615
 21
1.632463
 31
0.0
  0
LINE
  8
TRMODEL1
  6
CONTINUOUS
 62
     7
  5
825
 10
0.822615
 20
1.632463
 30
0.0
 11
0.775019
 21
1.629074
 31
0.0
  0
LINE
  8
TRMODEL1
  6
CONTINUOUS
 62
     7
  5
826
 10
0.775019
 20
1.629074
 30
0.0
 11
0.7274
 21
1.625887
 31
0.0
  0
LINE
  8
TRMODEL1
  6
CONTINUOUS
 62
     7
  5
827
 10
0.7274
 20
1.625887
 30
0.0
 11
0.679759
 21
1.622901
 31
0.0
  0
LINE
  8
TRMODEL1
  6
CONTINUOUS
 62
     7
  5
828
 10
0.679759
 20
1.622901
 30
0.0
 11
0.632096
 21
1.620118
 31
0.0
  0
LINE
  8
TRMODEL1
  6
CONTINUOUS
 62
     7
  5
829
 10
0.632096
 20
1.620118
 30
0.0
 11
0.584415
 21
1.617538
 31
0.0
  0
LINE
  8
TRMODEL1
  6
CONTINUOUS
 62
     7
  5
82A
 10
0.584415
 20
1.617538
 30
0.0
 11
0.536715
 21
1.615159
 31
0.0
  0
LINE
  8
TRMODEL1
  6
CONTINUOUS
 62
     7
  5
82B
 10
0.536715
 20
1.615159
 30
0.0
 11
0.488999
 21
1.612983
 31
0.0
  0
LINE
  8
TRMODEL1
  6
CONTINUOUS
 62
     7
  5
82C
 10
0.488999
 20
1.612983
 30
0.0
 11
0.441268
 21
1.61101
 31
0.0
  0
LINE
  8
TRMODEL1
  6
CONTINUOUS
 62
     7
  5
82D
 10
0.441268
 20
1.61101
 30
0.0
 11
0.393523
 21
1.609239
 31
0.0
  0
LINE
  8
TRMODEL1
  6
CONTINUOUS
 62
     7
  5
82E
 10
0.393523
 20
1.609239
 30
0.0
 11
0.345767
 21
1.60767
 31
0.0
  0
LINE
  8
TRMODEL1
  6
CONTINUOUS
 62
     7
  5
82F
 10
0.345767
 20
1.60767
 30
0.0
 11
0.297999
 21
1.606305
 31
0.0
  0
LINE
  8
TRMODEL1
  6
CONTINUOUS
 62
     7
  5
830
 10
0.297999
 20
1.606305
 30
0.0
 11
0.250223
 21
1.605142
 31
0.0
  0
LINE
  8
TRMODEL1
  6
CONTINUOUS
 62
     7
  5
831
 10
0.250223
 20
1.605142
 30
0.0
 11
0.202439
 21
1.604181
 31
0.0
  0
LINE
  8
TRMODEL1
  6
CONTINUOUS
 62
     7
  5
832
 10
0.202439
 20
1.604181
 30
0.0
 11
0.154649
 21
1.603424
 31
0.0
  0
LINE
  8
TRMODEL1
  6
CONTINUOUS
 62
     7
  5
833
 10
0.154649
 20
1.603424
 30
0.0
 11
0.106853
 21
1.602869
 31
0.0
  0
LINE
  8
TRMODEL1
  6
CONTINUOUS
 62
     7
  5
834
 10
0.106853
 20
1.602869
 30
0.0
 11
0.059055
 21
1.602517
 31
0.0
  0
LINE
  8
TRMODEL1
  6
CONTINUOUS
 62
     7
  5
835
 10
1.720472
 20
1.735063
 30
0.0
 11
1.720472
 21
1.773023
 31
0.0
  0
LINE
  8
TRMODEL1
  6
CONTINUOUS
 62
     7
  5
836
 10
1.720472
 20
1.773023
 30
0.0
 11
1.673605
 21
1.765822
 31
0.0
  0
LINE
  8
TRMODEL1
  6
CONTINUOUS
 62
     7
  5
837
 10
1.673605
 20
1.765822
 30
0.0
 11
1.626687
 21
1.758821
 31
0.0
  0
LINE
  8
TRMODEL1
  6
CONTINUOUS
 62
     7
  5
838
 10
1.626687
 20
1.758821
 30
0.0
 11
1.579718
 21
1.752019
 31
0.0
  0
LINE
  8
TRMODEL1
  6
CONTINUOUS
 62
     7
  5
839
 10
1.579718
 20
1.752019
 30
0.0
 11
1.532701
 21
1.745416
 31
0.0
  0
LINE
  8
TRMODEL1
  6
CONTINUOUS
 62
     7
  5
83A
 10
1.532701
 20
1.745416
 30
0.0
 11
1.485637
 21
1.739013
 31
0.0
  0
LINE
  8
TRMODEL1
  6
CONTINUOUS
 62
     7
  5
83B
 10
1.485637
 20
1.739013
 30
0.0
 11
1.438527
 21
1.732809
 31
0.0
  0
LINE
  8
TRMODEL1
  6
CONTINUOUS
 62
     7
  5
83C
 10
1.438527
 20
1.732809
 30
0.0
 11
1.391374
 21
1.726806
 31
0.0
  0
LINE
  8
TRMODEL1
  6
CONTINUOUS
 62
     7
  5
83D
 10
1.391374
 20
1.726806
 30
0.0
 11
1.344177
 21
1.721002
 31
0.0
  0
LINE
  8
TRMODEL1
  6
CONTINUOUS
 62
     7
  5
83E
 10
1.344177
 20
1.721002
 30
0.0
 11
1.29694
 21
1.7154
 31
0.0
  0
LINE
  8
TRMODEL1
  6
CONTINUOUS
 62
     7
  5
83F
 10
1.29694
 20
1.7154
 30
0.0
 11
1.249662
 21
1.709997
 31
0.0
  0
LINE
  8
TRMODEL1
  6
CONTINUOUS
 62
     7
  5
840
 10
1.249662
 20
1.709997
 30
0.0
 11
1.202346
 21
1.704795
 31
0.0
  0
LINE
  8
TRMODEL1
  6
CONTINUOUS
 62
     7
  5
841
 10
1.202346
 20
1.704795
 30
0.0
 11
1.154994
 21
1.699794
 31
0.0
  0
LINE
  8
TRMODEL1
  6
CONTINUOUS
 62
     7
  5
842
 10
1.154994
 20
1.699794
 30
0.0
 11
1.107606
 21
1.694994
 31
0.0
  0
LINE
  8
TRMODEL1
  6
CONTINUOUS
 62
     7
  5
843
 10
1.107606
 20
1.694994
 30
0.0
 11
1.060184
 21
1.690395
 31
0.0
  0
LINE
  8
TRMODEL1
  6
CONTINUOUS
 62
     7
  5
844
 10
1.060184
 20
1.690395
 30
0.0
 11
1.012729
 21
1.685998
 31
0.0
  0
LINE
  8
TRMODEL1
  6
CONTINUOUS
 62
     7
  5
845
 10
1.012729
 20
1.685998
 30
0.0
 11
0.965243
 21
1.681802
 31
0.0
  0
LINE
  8
TRMODEL1
  6
CONTINUOUS
 62
     7
  5
846
 10
0.965243
 20
1.681802
 30
0.0
 11
0.917728
 21
1.677807
 31
0.0
  0
LINE
  8
TRMODEL1
  6
CONTINUOUS
 62
     7
  5
847
 10
0.917728
 20
1.677807
 30
0.0
 11
0.870185
 21
1.674014
 31
0.0
  0
LINE
  8
TRMODEL1
  6
CONTINUOUS
 62
     7
  5
848
 10
0.870185
 20
1.674014
 30
0.0
 11
0.822615
 21
1.670423
 31
0.0
  0
LINE
  8
TRMODEL1
  6
CONTINUOUS
 62
     7
  5
849
 10
0.822615
 20
1.670423
 30
0.0
 11
0.775019
 21
1.667034
 31
0.0
  0
LINE
  8
TRMODEL1
  6
CONTINUOUS
 62
     7
  5
84A
 10
0.775019
 20
1.667034
 30
0.0
 11
0.7274
 21
1.663846
 31
0.0
  0
LINE
  8
TRMODEL1
  6
CONTINUOUS
 62
     7
  5
84B
 10
0.7274
 20
1.663846
 30
0.0
 11
0.679759
 21
1.660861
 31
0.0
  0
LINE
  8
TRMODEL1
  6
CONTINUOUS
 62
     7
  5
84C
 10
0.679759
 20
1.660861
 30
0.0
 11
0.632096
 21
1.658078
 31
0.0
  0
LINE
  8
TRMODEL1
  6
CONTINUOUS
 62
     7
  5
84D
 10
0.632096
 20
1.658078
 30
0.0
 11
0.584415
 21
1.655497
 31
0.0
  0
LINE
  8
TRMODEL1
  6
CONTINUOUS
 62
     7
  5
84E
 10
0.584415
 20
1.655497
 30
0.0
 11
0.536715
 21
1.653119
 31
0.0
  0
LINE
  8
TRMODEL1
  6
CONTINUOUS
 62
     7
  5
84F
 10
0.536715
 20
1.653119
 30
0.0
 11
0.488999
 21
1.650943
 31
0.0
  0
LINE
  8
TRMODEL1
  6
CONTINUOUS
 62
     7
  5
850
 10
0.488999
 20
1.650943
 30
0.0
 11
0.441268
 21
1.64897
 31
0.0
  0
LINE
  8
TRMODEL1
  6
CONTINUOUS
 62
     7
  5
851
 10
0.441268
 20
1.64897
 30
0.0
 11
0.393523
 21
1.647199
 31
0.0
  0
LINE
  8
TRMODEL1
  6
CONTINUOUS
 62
     7
  5
852
 10
0.393523
 20
1.647199
 30
0.0
 11
0.345767
 21
1.64563
 31
0.0
  0
LINE
  8
TRMODEL1
  6
CONTINUOUS
 62
     7
  5
853
 10
0.345767
 20
1.64563
 30
0.0
 11
0.297999
 21
1.644264
 31
0.0
  0
LINE
  8
TRMODEL1
  6
CONTINUOUS
 62
     7
  5
854
 10
0.297999
 20
1.644264
 30
0.0
 11
0.250223
 21
1.643101
 31
0.0
  0
LINE
  8
TRMODEL1
  6
CONTINUOUS
 62
     7
  5
855
 10
0.250223
 20
1.643101
 30
0.0
 11
0.202439
 21
1.642141
 31
0.0
  0
LINE
  8
TRMODEL1
  6
CONTINUOUS
 62
     7
  5
856
 10
0.202439
 20
1.642141
 30
0.0
 11
0.154649
 21
1.641384
 31
0.0
  0
LINE
  8
TRMODEL1
  6
CONTINUOUS
 62
     7
  5
857
 10
0.154649
 20
1.641384
 30
0.0
 11
0.106853
 21
1.640829
 31
0.0
  0
LINE
  8
TRMODEL1
  6
CONTINUOUS
 62
     7
  5
858
 10
0.106853
 20
1.640829
 30
0.0
 11
0.059055
 21
1.640477
 31
0.0
  0
LINE
  8
TRMODEL1
  6
CONTINUOUS
 62
     7
  5
859
 10
1.720472
 20
1.884597
 30
0.0
 11
1.720472
 21
1.773023
 31
0.0
  0
LINE
  8
TRMODEL1
  6
CONTINUOUS
 62
     7
  5
85A
 10
-1.720472
 20
1.884597
 30
0.0
 11
1.720472
 21
1.884597
 31
0.0
  0
LINE
  8
TRMODEL1
  6
CONTINUOUS
 62
     7
  5
85B
 10
-1.720472
 20
1.773023
 30
0.0
 11
-1.720472
 21
1.884597
 31
0.0
  0
LINE
  8
TRMODEL1
  6
CONTINUOUS
 62
     7
  5
85C
 10
-0.059055
 20
1.640477
 30
0.0
 11
-0.106853
 21
1.640829
 31
0.0
  0
LINE
  8
TRMODEL1
  6
CONTINUOUS
 62
     7
  5
85D
 10
-0.106853
 20
1.640829
 30
0.0
 11
-0.154649
 21
1.641384
 31
0.0
  0
LINE
  8
TRMODEL1
  6
CONTINUOUS
 62
     7
  5
85E
 10
-0.154649
 20
1.641384
 30
0.0
 11
-0.202439
 21
1.642141
 31
0.0
  0
LINE
  8
TRMODEL1
  6
CONTINUOUS
 62
     7
  5
85F
 10
-0.202439
 20
1.642141
 30
0.0
 11
-0.250223
 21
1.643101
 31
0.0
  0
LINE
  8
TRMODEL1
  6
CONTINUOUS
 62
     7
  5
860
 10
-0.250223
 20
1.643101
 30
0.0
 11
-0.297999
 21
1.644264
 31
0.0
  0
LINE
  8
TRMODEL1
  6
CONTINUOUS
 62
     7
  5
861
 10
-0.297999
 20
1.644264
 30
0.0
 11
-0.345767
 21
1.64563
 31
0.0
  0
LINE
  8
TRMODEL1
  6
CONTINUOUS
 62
     7
  5
862
 10
-0.345767
 20
1.64563
 30
0.0
 11
-0.393523
 21
1.647199
 31
0.0
  0
LINE
  8
TRMODEL1
  6
CONTINUOUS
 62
     7
  5
863
 10
-0.393523
 20
1.647199
 30
0.0
 11
-0.441268
 21
1.64897
 31
0.0
  0
LINE
  8
TRMODEL1
  6
CONTINUOUS
 62
     7
  5
864
 10
-0.441268
 20
1.64897
 30
0.0
 11
-0.488999
 21
1.650943
 31
0.0
  0
LINE
  8
TRMODEL1
  6
CONTINUOUS
 62
     7
  5
865
 10
-0.488999
 20
1.650943
 30
0.0
 11
-0.536715
 21
1.653119
 31
0.0
  0
LINE
  8
TRMODEL1
  6
CONTINUOUS
 62
     7
  5
866
 10
-0.536715
 20
1.653119
 30
0.0
 11
-0.584415
 21
1.655497
 31
0.0
  0
LINE
  8
TRMODEL1
  6
CONTINUOUS
 62
     7
  5
867
 10
-0.584415
 20
1.655497
 30
0.0
 11
-0.632096
 21
1.658078
 31
0.0
  0
LINE
  8
TRMODEL1
  6
CONTINUOUS
 62
     7
  5
868
 10
-0.632096
 20
1.658078
 30
0.0
 11
-0.679759
 21
1.660861
 31
0.0
  0
LINE
  8
TRMODEL1
  6
CONTINUOUS
 62
     7
  5
869
 10
-0.679759
 20
1.660861
 30
0.0
 11
-0.7274
 21
1.663846
 31
0.0
  0
LINE
  8
TRMODEL1
  6
CONTINUOUS
 62
     7
  5
86A
 10
-0.7274
 20
1.663846
 30
0.0
 11
-0.775019
 21
1.667034
 31
0.0
  0
LINE
  8
TRMODEL1
  6
CONTINUOUS
 62
     7
  5
86B
 10
-0.775019
 20
1.667034
 30
0.0
 11
-0.822615
 21
1.670423
 31
0.0
  0
LINE
  8
TRMODEL1
  6
CONTINUOUS
 62
     7
  5
86C
 10
-0.822615
 20
1.670423
 30
0.0
 11
-0.870185
 21
1.674014
 31
0.0
  0
LINE
  8
TRMODEL1
  6
CONTINUOUS
 62
     7
  5
86D
 10
-0.870185
 20
1.674014
 30
0.0
 11
-0.917728
 21
1.677807
 31
0.0
  0
LINE
  8
TRMODEL1
  6
CONTINUOUS
 62
     7
  5
86E
 10
-0.917728
 20
1.677807
 30
0.0
 11
-0.965243
 21
1.681802
 31
0.0
  0
LINE
  8
TRMODEL1
  6
CONTINUOUS
 62
     7
  5
86F
 10
-0.965243
 20
1.681802
 30
0.0
 11
-1.012729
 21
1.685998
 31
0.0
  0
LINE
  8
TRMODEL1
  6
CONTINUOUS
 62
     7
  5
870
 10
-1.012729
 20
1.685998
 30
0.0
 11
-1.060184
 21
1.690395
 31
0.0
  0
LINE
  8
TRMODEL1
  6
CONTINUOUS
 62
     7
  5
871
 10
-1.060184
 20
1.690395
 30
0.0
 11
-1.107606
 21
1.694994
 31
0.0
  0
LINE
  8
TRMODEL1
  6
CONTINUOUS
 62
     7
  5
872
 10
-1.107606
 20
1.694994
 30
0.0
 11
-1.154994
 21
1.699794
 31
0.0
  0
LINE
  8
TRMODEL1
  6
CONTINUOUS
 62
     7
  5
873
 10
-1.154994
 20
1.699794
 30
0.0
 11
-1.202346
 21
1.704795
 31
0.0
  0
LINE
  8
TRMODEL1
  6
CONTINUOUS
 62
     7
  5
874
 10
-1.202346
 20
1.704795
 30
0.0
 11
-1.249662
 21
1.709997
 31
0.0
  0
LINE
  8
TRMODEL1
  6
CONTINUOUS
 62
     7
  5
875
 10
-1.249662
 20
1.709997
 30
0.0
 11
-1.29694
 21
1.7154
 31
0.0
  0
LINE
  8
TRMODEL1
  6
CONTINUOUS
 62
     7
  5
876
 10
-1.29694
 20
1.7154
 30
0.0
 11
-1.344177
 21
1.721002
 31
0.0
  0
LINE
  8
TRMODEL1
  6
CONTINUOUS
 62
     7
  5
877
 10
-1.344177
 20
1.721002
 30
0.0
 11
-1.391374
 21
1.726806
 31
0.0
  0
LINE
  8
TRMODEL1
  6
CONTINUOUS
 62
     7
  5
878
 10
-1.391374
 20
1.726806
 30
0.0
 11
-1.438527
 21
1.732809
 31
0.0
  0
LINE
  8
TRMODEL1
  6
CONTINUOUS
 62
     7
  5
879
 10
-1.438527
 20
1.732809
 30
0.0
 11
-1.485637
 21
1.739013
 31
0.0
  0
LINE
  8
TRMODEL1
  6
CONTINUOUS
 62
     7
  5
87A
 10
-1.485637
 20
1.739013
 30
0.0
 11
-1.532701
 21
1.745416
 31
0.0
  0
LINE
  8
TRMODEL1
  6
CONTINUOUS
 62
     7
  5
87B
 10
-1.532701
 20
1.745416
 30
0.0
 11
-1.579718
 21
1.752019
 31
0.0
  0
LINE
  8
TRMODEL1
  6
CONTINUOUS
 62
     7
  5
87C
 10
-1.579718
 20
1.752019
 30
0.0
 11
-1.626687
 21
1.758821
 31
0.0
  0
LINE
  8
TRMODEL1
  6
CONTINUOUS
 62
     7
  5
87D
 10
-1.626687
 20
1.758821
 30
0.0
 11
-1.673605
 21
1.765822
 31
0.0
  0
LINE
  8
TRMODEL1
  6
CONTINUOUS
 62
     7
  5
87E
 10
-1.673605
 20
1.765822
 30
0.0
 11
-1.720472
 21
1.773023
 31
0.0
  0
LINE
  8
TRMODEL1
  6
CONTINUOUS
 62
     7
  5
87F
 10
-1.720472
 20
1.735063
 30
0.0
 11
-1.720472
 21
1.773023
 31
0.0
  0
LINE
  8
TRMODEL1
  6
CONTINUOUS
 62
     7
  5
880
 10
-0.059055
 20
1.602517
 30
0.0
 11
-0.106853
 21
1.602869
 31
0.0
  0
LINE
  8
TRMODEL1
  6
CONTINUOUS
 62
     7
  5
881
 10
-0.106853
 20
1.602869
 30
0.0
 11
-0.154649
 21
1.603424
 31
0.0
  0
LINE
  8
TRMODEL1
  6
CONTINUOUS
 62
     7
  5
882
 10
-0.154649
 20
1.603424
 30
0.0
 11
-0.202439
 21
1.604181
 31
0.0
  0
LINE
  8
TRMODEL1
  6
CONTINUOUS
 62
     7
  5
883
 10
-0.202439
 20
1.604181
 30
0.0
 11
-0.250223
 21
1.605142
 31
0.0
  0
LINE
  8
TRMODEL1
  6
CONTINUOUS
 62
     7
  5
884
 10
-0.250223
 20
1.605142
 30
0.0
 11
-0.297999
 21
1.606305
 31
0.0
  0
LINE
  8
TRMODEL1
  6
CONTINUOUS
 62
     7
  5
885
 10
-0.297999
 20
1.606305
 30
0.0
 11
-0.345767
 21
1.60767
 31
0.0
  0
LINE
  8
TRMODEL1
  6
CONTINUOUS
 62
     7
  5
886
 10
-0.345767
 20
1.60767
 30
0.0
 11
-0.393523
 21
1.609239
 31
0.0
  0
LINE
  8
TRMODEL1
  6
CONTINUOUS
 62
     7
  5
887
 10
-0.393523
 20
1.609239
 30
0.0
 11
-0.441268
 21
1.61101
 31
0.0
  0
LINE
  8
TRMODEL1
  6
CONTINUOUS
 62
     7
  5
888
 10
-0.441268
 20
1.61101
 30
0.0
 11
-0.488999
 21
1.612983
 31
0.0
  0
LINE
  8
TRMODEL1
  6
CONTINUOUS
 62
     7
  5
889
 10
-0.488999
 20
1.612983
 30
0.0
 11
-0.536715
 21
1.615159
 31
0.0
  0
LINE
  8
TRMODEL1
  6
CONTINUOUS
 62
     7
  5
88A
 10
-0.536715
 20
1.615159
 30
0.0
 11
-0.584415
 21
1.617538
 31
0.0
  0
LINE
  8
TRMODEL1
  6
CONTINUOUS
 62
     7
  5
88B
 10
-0.584415
 20
1.617538
 30
0.0
 11
-0.632096
 21
1.620118
 31
0.0
  0
LINE
  8
TRMODEL1
  6
CONTINUOUS
 62
     7
  5
88C
 10
-0.632096
 20
1.620118
 30
0.0
 11
-0.679759
 21
1.622901
 31
0.0
  0
LINE
  8
TRMODEL1
  6
CONTINUOUS
 62
     7
  5
88D
 10
-0.679759
 20
1.622901
 30
0.0
 11
-0.7274
 21
1.625887
 31
0.0
  0
LINE
  8
TRMODEL1
  6
CONTINUOUS
 62
     7
  5
88E
 10
-0.7274
 20
1.625887
 30
0.0
 11
-0.775019
 21
1.629074
 31
0.0
  0
LINE
  8
TRMODEL1
  6
CONTINUOUS
 62
     7
  5
88F
 10
-0.775019
 20
1.629074
 30
0.0
 11
-0.822615
 21
1.632463
 31
0.0
  0
LINE
  8
TRMODEL1
  6
CONTINUOUS
 62
     7
  5
890
 10
-0.822615
 20
1.632463
 30
0.0
 11
-0.870185
 21
1.636054
 31
0.0
  0
LINE
  8
TRMODEL1
  6
CONTINUOUS
 62
     7
  5
891
 10
-0.870185
 20
1.636054
 30
0.0
 11
-0.917728
 21
1.639847
 31
0.0
  0
LINE
  8
TRMODEL1
  6
CONTINUOUS
 62
     7
  5
892
 10
-0.917728
 20
1.639847
 30
0.0
 11
-0.965243
 21
1.643842
 31
0.0
  0
LINE
  8
TRMODEL1
  6
CONTINUOUS
 62
     7
  5
893
 10
-0.965243
 20
1.643842
 30
0.0
 11
-1.012729
 21
1.648038
 31
0.0
  0
LINE
  8
TRMODEL1
  6
CONTINUOUS
 62
     7
  5
894
 10
-1.012729
 20
1.648038
 30
0.0
 11
-1.060184
 21
1.652436
 31
0.0
  0
LINE
  8
TRMODEL1
  6
CONTINUOUS
 62
     7
  5
895
 10
-1.060184
 20
1.652436
 30
0.0
 11
-1.107606
 21
1.657034
 31
0.0
  0
LINE
  8
TRMODEL1
  6
CONTINUOUS
 62
     7
  5
896
 10
-1.107606
 20
1.657034
 30
0.0
 11
-1.154994
 21
1.661834
 31
0.0
  0
LINE
  8
TRMODEL1
  6
CONTINUOUS
 62
     7
  5
897
 10
-1.154994
 20
1.661834
 30
0.0
 11
-1.202346
 21
1.666835
 31
0.0
  0
LINE
  8
TRMODEL1
  6
CONTINUOUS
 62
     7
  5
898
 10
-1.202346
 20
1.666835
 30
0.0
 11
-1.249662
 21
1.672037
 31
0.0
  0
LINE
  8
TRMODEL1
  6
CONTINUOUS
 62
     7
  5
899
 10
-1.249662
 20
1.672037
 30
0.0
 11
-1.29694
 21
1.67744
 31
0.0
  0
LINE
  8
TRMODEL1
  6
CONTINUOUS
 62
     7
  5
89A
 10
-1.29694
 20
1.67744
 30
0.0
 11
-1.344177
 21
1.683043
 31
0.0
  0
LINE
  8
TRMODEL1
  6
CONTINUOUS
 62
     7
  5
89B
 10
-1.344177
 20
1.683043
 30
0.0
 11
-1.391374
 21
1.688846
 31
0.0
  0
LINE
  8
TRMODEL1
  6
CONTINUOUS
 62
     7
  5
89C
 10
-1.391374
 20
1.688846
 30
0.0
 11
-1.438527
 21
1.694849
 31
0.0
  0
LINE
  8
TRMODEL1
  6
CONTINUOUS
 62
     7
  5
89D
 10
-1.438527
 20
1.694849
 30
0.0
 11
-1.485637
 21
1.701053
 31
0.0
  0
LINE
  8
TRMODEL1
  6
CONTINUOUS
 62
     7
  5
89E
 10
-1.485637
 20
1.701053
 30
0.0
 11
-1.532701
 21
1.707456
 31
0.0
  0
LINE
  8
TRMODEL1
  6
CONTINUOUS
 62
     7
  5
89F
 10
-1.532701
 20
1.707456
 30
0.0
 11
-1.579718
 21
1.714059
 31
0.0
  0
LINE
  8
TRMODEL1
  6
CONTINUOUS
 62
     7
  5
8A0
 10
-1.579718
 20
1.714059
 30
0.0
 11
-1.626687
 21
1.720861
 31
0.0
  0
LINE
  8
TRMODEL1
  6
CONTINUOUS
 62
     7
  5
8A1
 10
-1.626687
 20
1.720861
 30
0.0
 11
-1.673605
 21
1.727862
 31
0.0
  0
LINE
  8
TRMODEL1
  6
CONTINUOUS
 62
     7
  5
8A2
 10
-1.673605
 20
1.727862
 30
0.0
 11
-1.720472
 21
1.735063
 31
0.0
  0
LINE
  8
TRMODEL1
  6
CONTINUOUS
 62
     7
  5
8A3
 10
0.059055
 20
1.720472
 30
0.0
 11
0.059055
 21
-1.720472
 31
0.0
  0
LINE
  8
TRMODEL1
  6
CONTINUOUS
 62
     7
  5
8A4
 10
-0.059055
 20
1.720472
 30
0.0
 11
0.059055
 21
1.720472
 31
0.0
  0
LINE
  8
TRMODEL1
  6
CONTINUOUS
 62
     7
  5
8A5
 10
2.362205
 20
-2.362205
 30
0.0
 11
2.362205
 21
2.362205
 31
0.0
  0
LINE
  8
TRMODEL1
  6
CONTINUOUS
 62
     7
  5
8A6
 10
-2.362205
 20
2.362205
 30
0.0
 11
2.362205
 21
2.362205
 31
0.0
  0
LINE
  8
TRMODEL1
  6
CONTINUOUS
 62
     7
  5
8A7
 10
-2.362205
 20
2.362205
 30
0.0
 11
-2.362205
 21
-2.362205
 31
0.0
  0
LINE
  8
TRMODEL1
  6
CONTINUOUS
 62
     7
  5
8A8
 10
2.362205
 20
-2.362205
 30
0.0
 11
-2.362205
 21
-2.362205
 31
0.0
  0
ENDSEC
  0
EOF
