  0
SECTION
  2
HEADER
  9
$ACADVER
  1
AC1009
  9
$DWGCODEPAGE
  3
ansi_1252
  9
$INSBASE
 10
0.0
 20
0.0
 30
0.0
  9
$EXTMIN
 10
-2.992126
 20
-2.992126
 30
0.0
  9
$EXTMAX
 10
2.992126
 20
2.992728
 30
0.0
  9
$LIMMIN
 10
0.0
 20
0.0
  9
$LIMMAX
 10
0.0
 20
0.0
  9
$ORTHOMODE
 70
     0
  9
$REGENMODE
 70
     1
  9
$FILLMODE
 70
     1
  9
$QTEXTMODE
 70
     0
  9
$MIRRTEXT
 70
     1
  9
$DRAGMODE
 70
     2
  9
$LTSCALE
 40
1.0
  9
$OSMODE
 70
     0
  9
$ATTMODE
 70
     1
  9
$TEXTSIZE
 40
0.2
  9
$TRACEWID
 40
0.05
  9
$TEXTSTYLE
  7
STANDARD
  9
$CLAYER
  8
0
  9
$CELTYPE
  6
CONTINUOUS
  9
$CECOLOR
 62
   256
  9
$DIMSCALE
 40
1.0
  9
$DIMASZ
 40
0.18
  9
$DIMEXO
 40
0.0625
  9
$DIMDLI
 40
0.38
  9
$DIMRND
 40
0.0
  9
$DIMDLE
 40
0.0
  9
$DIMEXE
 40
0.18
  9
$DIMTP
 40
0.0
  9
$DIMTM
 40
0.0
  9
$DIMTXT
 40
0.18
  9
$DIMCEN
 40
0.09
  9
$DIMTSZ
 40
0.0
  9
$DIMTOL
 70
     0
  9
$DIMLIM
 70
     0
  9
$DIMTIH
 70
     1
  9
$DIMTOH
 70
     1
  9
$DIMSE1
 70
     0
  9
$DIMSE2
 70
     0
  9
$DIMTAD
 70
     0
  9
$DIMZIN
 70
     0
  9
$DIMBLK
  1

  9
$DIMASO
 70
     1
  9
$DIMSHO
 70
     1
  9
$DIMPOST
  1

  9
$DIMAPOST
  1

  9
$DIMALT
 70
     0
  9
$DIMALTD
 70
     2
  9
$DIMALTF
 40
25.4
  9
$DIMLFAC
 40
1.0
  9
$DIMTOFL
 70
     0
  9
$DIMTVP
 40
0.0
  9
$DIMTIX
 70
     0
  9
$DIMSOXD
 70
     0
  9
$DIMSAH
 70
     0
  9
$DIMBLK1
  1

  9
$DIMBLK2
  1

  9
$DIMSTYLE
  2
STANDARD
  9
$DIMCLRD
 70
     0
  9
$DIMCLRE
 70
     0
  9
$DIMCLRT
 70
     0
  9
$DIMTFAC
 40
1.0
  9
$DIMGAP
 40
0.09
  9
$LUNITS
 70
     2
  9
$LUPREC
 70
     4
  9
$AXISMODE
 70
     0
  9
$AXISUNIT
 10
0.0
 20
0.0
  9
$SKETCHINC
 40
0.1
  9
$FILLETRAD
 40
0.0
  9
$AUNITS
 70
     0
  9
$AUPREC
 70
     0
  9
$MENU
  1
acad
  9
$ELEVATION
 40
0.0
  9
$PELEVATION
 40
0.0
  9
$THICKNESS
 40
0.0
  9
$LIMCHECK
 70
     0
  9
$BLIPMODE
 70
     1
  9
$CHAMFERA
 40
0.0
  9
$CHAMFERB
 40
0.0
  9
$SKPOLY
 70
     0
  9
$TDCREATE
 40
0.000000000
  9
$TDUPDATE
 40
0.000000000
  9
$TDINDWG
 40
0.0000000000
  9
$TDUSRTIMER
 40
0.0000000000
  9
$USRTIMER
 70
     1
  9
$ANGBASE
 50
0.0
  9
$ANGDIR
 70
     0
  9
$PDMODE
 70
     0
  9
$PDSIZE
 40
0.0
  9
$PLINEWID
 40
0.0
  9
$COORDS
 70
     0
  9
$SPLFRAME
 70
     0
  9
$SPLINETYPE
 70
     6
  9
$SPLINESEGS
 70
     8
  9
$ATTDIA
 70
     0
  9
$ATTREQ
 70
     1
  9
$HANDLING
 70
     1
  9
$HANDSEED
  5
42D
  9
$SURFTAB1
 70
     6
  9
$SURFTAB2
 70
     6
  9
$SURFTYPE
 70
     6
  9
$SURFU
 70
     6
  9
$SURFV
 70
     6
  9
$UCSNAME
  2

  9
$UCSORG
 10
0.0
 20
0.0
 30
0.0
  9
$UCSXDIR
 10
1.0
 20
0.0
 30
0.0
  9
$UCSYDIR
 10
0.0
 20
1.0
 30
0.0
  9
$PUCSNAME
  2

  9
$PUCSORG
 10
0.0
 20
0.0
 30
0.0
  9
$PUCSXDIR
 10
1.0
 20
0.0
 30
0.0
  9
$PUCSYDIR
 10
0.0
 20
1.0
 30
0.0
  9
$USERI1
 70
     0
  9
$USERI2
 70
     0
  9
$USERI3
 70
     0
  9
$USERI4
 70
     0
  9
$USERI5
 70
     0
  9
$USERR1
 40
0.0
  9
$USERR2
 40
0.0
  9
$USERR3
 40
0.0
  9
$USERR4
 40
0.0
  9
$USERR5
 40
0.0
  9
$WORLDVIEW
 70
     1
  9
$SHADEDGE
 70
     3
  9
$SHADEDIF
 70
    70
  9
$TILEMODE
 70
     1
  9
$MAXACTVP
 70
    16
  9
$PINSBASE
 10
0.0
 20
0.0
 30
0.0
  9
$PLIMCHECK
 70
     0
  9
$PEXTMIN
 10
1.000000E+20
 20
1.000000E+20
 30
1.000000E+20
  9
$PEXTMAX
 10
-1.000000E+20
 20
-1.000000E+20
 30
-1.000000E+20
  9
$PLIMMIN
 10
0.0
 20
0.0
  9
$PLIMMAX
 10
12.0
 20
9.0
  9
$UNITMODE
 70
     0
  9
$VISRETAIN
 70
     0
  9
$PLINEGEN
 70
     1
  9
$PSLTSCALE
 70
     0
  9
$TREEDEPTH
 70
  3020
  0
ENDSEC
  0
SECTION
  2
TABLES
  0
TABLE
  2
VPORT
 70
     1
  0
VPORT
  2
*ACTIVE
 70
     0
 10
0.0
 20
0.0
 11
1.0
 21
1.0
 12
6.591288
 22
4.579184
 13
0.0
 23
0.0
 14
1.0
 24
1.0
 15
0.0
 25
0.0
 16
0.0
 26
0.0
 36
1.0
 17
0.0
 27
0.0
 37
0.0
 40
9.158369
 41
0.688564
 42
50.0
 43
0.0
 44
0.0
 50
0.0
 51
0.0
 71
     0
 72
   100
 73
     1
 74
     1
 75
     0
 76
     0
 77
     0
 78
     0
  0
ENDTAB
  0
TABLE
  2
LTYPE
 70
     5
  0
LTYPE
  2
CONTINUOUS
 70
    64
  3
Solid line
 72
    65
 73
     0
 40
0.0
  0
LTYPE
  2
CENTER
 70
    64
  3
Center ____ _ ____ _ ____ _ ____ _ ____ _ ____
 72
    65
 73
     4
 40
50.8
 49
31.75
 49
-6.35
 49
6.35
 49
-6.35
  0
LTYPE
  2
HIDDEN
 70
    64
  3
Hidden __ __ __ __ __ __ __ __ __ __ __ __ __ __
 72
    65
 73
     2
 40
9.525
 49
6.35
 49
-3.175
  0
LTYPE
  2
CENTER2
 70
    64
  3
Center (.5x) ___ _ ___ _ ___ _ ___ _ ___ _ ___
 72
    65
 73
     4
 40
28.575
 49
19.05
 49
-3.175
 49
3.175
 49
-3.175
  0
LTYPE
  2
HIDDEN2
 70
    64
  3
Hidden (.5x) _ _ _ _ _ _ _ _ _ _ _ _ _ _ _ _ _
 72
    65
 73
     2
 40
4.7625
 49
3.175
 49
-1.5875
  0
ENDTAB
  0
TABLE
  2
LAYER
 70
     7
  0
LAYER
  2
0
 70
     0
 62
     7
  6
CONTINUOUS
  0
LAYER
  2
TRMODEL1
 70
     0
 62
     7
  6
CONTINUOUS
  0
LAYER
  2
TRMODEL3
 70
     0
 62
     7
  6
CONTINUOUS
  0
LAYER
  2
TRDETAIL2
 70
     0
 62
     7
  6
CONTINUOUS
  0
LAYER
  2
TRDETAIL3
 70
     0
 62
     7
  6
CONTINUOUS
  0
LAYER
  2
TRDETAIL4
 70
     0
 62
     7
  6
CONTINUOUS
  0
LAYER
  2
TRDETAIL5
 70
     0
 62
     7
  6
CONTINUOUS
  0
ENDTAB
  0
TABLE
  2
STYLE
 70
     1
  0
STYLE
  2
STANDARD
 70
     0
 40
0.0
 41
1.0
 50
0.0
 71
     0
 42
0.0
  3
txt
  4

  0
ENDTAB
  0
TABLE
  2
VIEW
 70
     0
  0
ENDTAB
  0
TABLE
  2
UCS
 70
     0
  0
ENDTAB
  0
TABLE
  2
APPID
 70
     1
  0
APPID
  2
ACAD
 70
     0
  0
ENDTAB
  0
TABLE
  2
DIMSTYLE
 70
     1
  0
DIMSTYLE
  2
STANDARD
 70
     0
  3

  4

  5

  6

  7

 40
1.0
 41
0.18
 42
0.0625
 43
0.38
 44
0.18
 45
0.0
 46
0.0
 47
0.0
 48
0.0
 71
     0
 72
     0
 73
     1
 74
     1
 75
     0
 76
     0
 77
     0
 78
     0
140
0.18
141
0.09
142
0.0
143
25.4
144
1.0
145
0.0
146
1.0
147
0.09
170
     0
171
     2
172
     0
173
     0
174
     0
175
     0
176
     0
177
     0
178
     0
  0
ENDTAB
  0
ENDSEC
  0
SECTION
  2
BLOCKS
  0
ENDSEC
  0
SECTION
  2
ENTITIES
  0
LINE
  8
TRMODEL1
  6
CONTINUOUS
 62
     7
  5
237
 10
-0.824247
 20
-1.575459
 30
0.0
 11
-1.350087
 21
-1.575459
 31
0.0
  0
LINE
  8
TRMODEL1
  6
CONTINUOUS
 62
     7
  5
238
 10
-0.059055
 20
-1.575459
 30
0.0
 11
-0.499204
 21
-1.575459
 31
0.0
  0
LINE
  8
TRMODEL1
  6
CONTINUOUS
 62
     7
  5
239
 10
0.499204
 20
-1.575459
 30
0.0
 11
0.059055
 21
-1.575459
 31
0.0
  0
LINE
  8
TRMODEL1
  6
CONTINUOUS
 62
     7
  5
23A
 10
1.350087
 20
-1.575459
 30
0.0
 11
0.824247
 21
-1.575459
 31
0.0
  0
LINE
  8
TRMODEL1
  6
CONTINUOUS
 62
     7
  5
23B
 10
0.828102
 20
-1.565205
 30
0.0
 11
1.361963
 21
-1.565205
 31
0.0
  0
LINE
  8
TRMODEL1
  6
CONTINUOUS
 62
     7
  5
23C
 10
0.059055
 20
-1.565205
 30
0.0
 11
0.530482
 21
-1.565205
 31
0.0
  0
LINE
  8
TRMODEL1
  6
CONTINUOUS
 62
     7
  5
23D
 10
-0.530482
 20
-1.565205
 30
0.0
 11
-0.059055
 21
-1.565205
 31
0.0
  0
LINE
  8
TRMODEL1
  6
CONTINUOUS
 62
     7
  5
23E
 10
-1.361963
 20
-1.565205
 30
0.0
 11
-0.828102
 21
-1.565205
 31
0.0
  0
LINE
  8
TRMODEL1
  6
CONTINUOUS
 62
     7
  5
23F
 10
1.583659
 20
-0.792239
 30
0.0
 11
1.917594
 21
-0.792239
 31
0.0
  0
LINE
  8
TRMODEL1
  6
CONTINUOUS
 62
     7
  5
240
 10
1.163578
 20
-0.792239
 30
0.0
 11
1.450391
 21
-0.792239
 31
0.0
  0
LINE
  8
TRMODEL1
  6
CONTINUOUS
 62
     7
  5
241
 10
0.680822
 20
-0.792239
 30
0.0
 11
0.898719
 21
-0.792239
 31
0.0
  0
LINE
  8
TRMODEL1
  6
CONTINUOUS
 62
     7
  5
242
 10
0.447068
 20
-0.792239
 30
0.0
 11
0.48033
 21
-0.792239
 31
0.0
  0
LINE
  8
TRMODEL1
  6
CONTINUOUS
 62
     7
  5
243
 10
0.059055
 20
-0.792239
 30
0.0
 11
0.315976
 21
-0.792239
 31
0.0
  0
LINE
  8
TRMODEL1
  6
CONTINUOUS
 62
     7
  5
244
 10
-0.315976
 20
-0.792239
 30
0.0
 11
-0.059055
 21
-0.792239
 31
0.0
  0
LINE
  8
TRMODEL1
  6
CONTINUOUS
 62
     7
  5
245
 10
-0.48033
 20
-0.792239
 30
0.0
 11
-0.447068
 21
-0.792239
 31
0.0
  0
LINE
  8
TRMODEL1
  6
CONTINUOUS
 62
     7
  5
246
 10
-0.898719
 20
-0.792239
 30
0.0
 11
-0.680822
 21
-0.792239
 31
0.0
  0
LINE
  8
TRMODEL1
  6
CONTINUOUS
 62
     7
  5
247
 10
-1.450391
 20
-0.792239
 30
0.0
 11
-1.163578
 21
-0.792239
 31
0.0
  0
LINE
  8
TRMODEL1
  6
CONTINUOUS
 62
     7
  5
248
 10
-1.917594
 20
-0.792239
 30
0.0
 11
-1.583659
 21
-0.792239
 31
0.0
  0
LINE
  8
TRMODEL1
  6
CONTINUOUS
 62
     7
  5
249
 10
-1.578487
 20
-0.802493
 30
0.0
 11
-1.913325
 21
-0.802493
 31
0.0
  0
LINE
  8
TRMODEL1
  6
CONTINUOUS
 62
     7
  5
24A
 10
-1.156529
 20
-0.802493
 30
0.0
 11
-1.444743
 21
-0.802493
 31
0.0
  0
LINE
  8
TRMODEL1
  6
CONTINUOUS
 62
     7
  5
24B
 10
-0.668704
 20
-0.802493
 30
0.0
 11
-0.911578
 21
-0.802493
 31
0.0
  0
LINE
  8
TRMODEL1
  6
CONTINUOUS
 62
     7
  5
24C
 10
-0.452007
 20
-0.802493
 30
0.0
 11
-0.462993
 21
-0.802493
 31
0.0
  0
LINE
  8
TRMODEL1
  6
CONTINUOUS
 62
     7
  5
24D
 10
-0.059055
 20
-0.802493
 30
0.0
 11
-0.320914
 21
-0.802493
 31
0.0
  0
LINE
  8
TRMODEL1
  6
CONTINUOUS
 62
     7
  5
24E
 10
0.320914
 20
-0.802493
 30
0.0
 11
0.059055
 21
-0.802493
 31
0.0
  0
LINE
  8
TRMODEL1
  6
CONTINUOUS
 62
     7
  5
24F
 10
0.462993
 20
-0.802493
 30
0.0
 11
0.452007
 21
-0.802493
 31
0.0
  0
LINE
  8
TRMODEL1
  6
CONTINUOUS
 62
     7
  5
250
 10
0.911578
 20
-0.802493
 30
0.0
 11
0.668704
 21
-0.802493
 31
0.0
  0
LINE
  8
TRMODEL1
  6
CONTINUOUS
 62
     7
  5
251
 10
1.444743
 20
-0.802493
 30
0.0
 11
1.156529
 21
-0.802493
 31
0.0
  0
LINE
  8
TRMODEL1
  6
CONTINUOUS
 62
     7
  5
252
 10
1.913325
 20
-0.802493
 30
0.0
 11
1.578487
 21
-0.802493
 31
0.0
  0
LINE
  8
TRMODEL1
  6
CONTINUOUS
 62
     7
  5
253
 10
0.830909
 20
-1.563716
 30
0.0
 11
1.363671
 21
-1.563716
 31
0.0
  0
LINE
  8
TRMODEL1
  6
CONTINUOUS
 62
     7
  5
254
 10
0.059055
 20
-1.563716
 30
0.0
 11
0.534854
 21
-1.563716
 31
0.0
  0
LINE
  8
TRMODEL1
  6
CONTINUOUS
 62
     7
  5
255
 10
-0.534854
 20
-1.563716
 30
0.0
 11
-0.059055
 21
-1.563716
 31
0.0
  0
LINE
  8
TRMODEL1
  6
CONTINUOUS
 62
     7
  5
256
 10
-1.363671
 20
-1.563716
 30
0.0
 11
-0.830909
 21
-1.563716
 31
0.0
  0
LINE
  8
TRMODEL1
  6
CONTINUOUS
 62
     7
  5
257
 10
1.770663
 20
-0.019273
 30
0.0
 11
2.074714
 21
-0.019273
 31
0.0
  0
LINE
  8
TRMODEL1
  6
CONTINUOUS
 62
     7
  5
258
 10
1.407545
 20
-0.019273
 30
0.0
 11
1.652545
 21
-0.019273
 31
0.0
  0
LINE
  8
TRMODEL1
  6
CONTINUOUS
 62
     7
  5
259
 10
1.044409
 20
-0.019273
 30
0.0
 11
1.289423
 21
-0.019273
 31
0.0
  0
LINE
  8
TRMODEL1
  6
CONTINUOUS
 62
     7
  5
25A
 10
0.622143
 20
-0.019273
 30
0.0
 11
0.926276
 21
-0.019273
 31
0.0
  0
LINE
  8
TRMODEL1
  6
CONTINUOUS
 62
     7
  5
25B
 10
-0.926276
 20
-0.019273
 30
0.0
 11
-0.622143
 21
-0.019273
 31
0.0
  0
LINE
  8
TRMODEL1
  6
CONTINUOUS
 62
     7
  5
25C
 10
-1.289423
 20
-0.019273
 30
0.0
 11
-1.044409
 21
-0.019273
 31
0.0
  0
LINE
  8
TRMODEL1
  6
CONTINUOUS
 62
     7
  5
25D
 10
-1.652545
 20
-0.019273
 30
0.0
 11
-1.407545
 21
-0.019273
 31
0.0
  0
LINE
  8
TRMODEL1
  6
CONTINUOUS
 62
     7
  5
25E
 10
-2.074714
 20
-0.019273
 30
0.0
 11
-1.770663
 21
-0.019273
 31
0.0
  0
LINE
  8
TRMODEL1
  6
CONTINUOUS
 62
     7
  5
25F
 10
-1.770522
 20
-0.029528
 30
0.0
 11
-2.074593
 21
-0.029528
 31
0.0
  0
LINE
  8
TRMODEL1
  6
CONTINUOUS
 62
     7
  5
260
 10
-1.407367
 20
-0.029528
 30
0.0
 11
-1.652394
 21
-0.029528
 31
0.0
  0
LINE
  8
TRMODEL1
  6
CONTINUOUS
 62
     7
  5
261
 10
-1.044169
 20
-0.029528
 30
0.0
 11
-1.289229
 21
-0.029528
 31
0.0
  0
LINE
  8
TRMODEL1
  6
CONTINUOUS
 62
     7
  5
262
 10
-0.62174
 20
-0.029528
 30
0.0
 11
-0.926006
 21
-0.029528
 31
0.0
  0
LINE
  8
TRMODEL1
  6
CONTINUOUS
 62
     7
  5
263
 10
0.926006
 20
-0.029528
 30
0.0
 11
0.62174
 21
-0.029528
 31
0.0
  0
LINE
  8
TRMODEL1
  6
CONTINUOUS
 62
     7
  5
264
 10
1.289229
 20
-0.029528
 30
0.0
 11
1.044169
 21
-0.029528
 31
0.0
  0
LINE
  8
TRMODEL1
  6
CONTINUOUS
 62
     7
  5
265
 10
1.652394
 20
-0.029528
 30
0.0
 11
1.407367
 21
-0.029528
 31
0.0
  0
LINE
  8
TRMODEL1
  6
CONTINUOUS
 62
     7
  5
266
 10
2.074593
 20
-0.029528
 30
0.0
 11
1.770522
 21
-0.029528
 31
0.0
  0
LINE
  8
TRMODEL1
  6
CONTINUOUS
 62
     7
  5
267
 10
1.584403
 20
-0.79075
 30
0.0
 11
1.918208
 21
-0.79075
 31
0.0
  0
LINE
  8
TRMODEL1
  6
CONTINUOUS
 62
     7
  5
268
 10
1.16459
 20
-0.79075
 30
0.0
 11
1.451203
 21
-0.79075
 31
0.0
  0
LINE
  8
TRMODEL1
  6
CONTINUOUS
 62
     7
  5
269
 10
0.68255
 20
-0.79075
 30
0.0
 11
0.896853
 21
-0.79075
 31
0.0
  0
LINE
  8
TRMODEL1
  6
CONTINUOUS
 62
     7
  5
26A
 10
0.446352
 20
-0.79075
 30
0.0
 11
0.482776
 21
-0.79075
 31
0.0
  0
LINE
  8
TRMODEL1
  6
CONTINUOUS
 62
     7
  5
26B
 10
0.059055
 20
-0.79075
 30
0.0
 11
0.315259
 21
-0.79075
 31
0.0
  0
LINE
  8
TRMODEL1
  6
CONTINUOUS
 62
     7
  5
26C
 10
-0.315259
 20
-0.79075
 30
0.0
 11
-0.059055
 21
-0.79075
 31
0.0
  0
LINE
  8
TRMODEL1
  6
CONTINUOUS
 62
     7
  5
26D
 10
-0.482776
 20
-0.79075
 30
0.0
 11
-0.446352
 21
-0.79075
 31
0.0
  0
LINE
  8
TRMODEL1
  6
CONTINUOUS
 62
     7
  5
26E
 10
-0.896853
 20
-0.79075
 30
0.0
 11
-0.68255
 21
-0.79075
 31
0.0
  0
LINE
  8
TRMODEL1
  6
CONTINUOUS
 62
     7
  5
26F
 10
-1.451203
 20
-0.79075
 30
0.0
 11
-1.16459
 21
-0.79075
 31
0.0
  0
LINE
  8
TRMODEL1
  6
CONTINUOUS
 62
     7
  5
270
 10
-1.918208
 20
-0.79075
 30
0.0
 11
-1.584403
 21
-0.79075
 31
0.0
  0
LINE
  8
TRMODEL1
  6
CONTINUOUS
 62
     7
  5
271
 10
1.602362
 20
0.753693
 30
0.0
 11
1.933069
 21
0.753693
 31
0.0
  0
LINE
  8
TRMODEL1
  6
CONTINUOUS
 62
     7
  5
272
 10
1.188908
 20
0.753693
 30
0.0
 11
1.47079
 21
0.753693
 31
0.0
  0
LINE
  8
TRMODEL1
  6
CONTINUOUS
 62
     7
  5
273
 10
1.039818
 20
0.753693
 30
0.0
 11
1.046389
 21
0.753693
 31
0.0
  0
LINE
  8
TRMODEL1
  6
CONTINUOUS
 62
     7
  5
274
 10
0.723262
 20
0.753693
 30
0.0
 11
0.850384
 21
0.753693
 31
0.0
  0
LINE
  8
TRMODEL1
  6
CONTINUOUS
 62
     7
  5
275
 10
0.428506
 20
0.753693
 30
0.0
 11
0.5388
 21
0.753693
 31
0.0
  0
LINE
  8
TRMODEL1
  6
CONTINUOUS
 62
     7
  5
276
 10
0.059055
 20
0.753693
 30
0.0
 11
0.297413
 21
0.753693
 31
0.0
  0
LINE
  8
TRMODEL1
  6
CONTINUOUS
 62
     7
  5
277
 10
-0.297413
 20
0.753693
 30
0.0
 11
-0.059055
 21
0.753693
 31
0.0
  0
LINE
  8
TRMODEL1
  6
CONTINUOUS
 62
     7
  5
278
 10
-0.5388
 20
0.753693
 30
0.0
 11
-0.428506
 21
0.753693
 31
0.0
  0
LINE
  8
TRMODEL1
  6
CONTINUOUS
 62
     7
  5
279
 10
-0.850384
 20
0.753693
 30
0.0
 11
-0.723262
 21
0.753693
 31
0.0
  0
LINE
  8
TRMODEL1
  6
CONTINUOUS
 62
     7
  5
27A
 10
-1.046389
 20
0.753693
 30
0.0
 11
-1.039818
 21
0.753693
 31
0.0
  0
LINE
  8
TRMODEL1
  6
CONTINUOUS
 62
     7
  5
27B
 10
-1.47079
 20
0.753693
 30
0.0
 11
-1.188908
 21
0.753693
 31
0.0
  0
LINE
  8
TRMODEL1
  6
CONTINUOUS
 62
     7
  5
27C
 10
-1.933069
 20
0.753693
 30
0.0
 11
-1.602362
 21
0.753693
 31
0.0
  0
LINE
  8
TRMODEL1
  6
CONTINUOUS
 62
     7
  5
27D
 10
-1.607146
 20
0.743438
 30
0.0
 11
-1.937036
 21
0.743438
 31
0.0
  0
LINE
  8
TRMODEL1
  6
CONTINUOUS
 62
     7
  5
27E
 10
-1.195347
 20
0.743438
 30
0.0
 11
-1.476
 21
0.743438
 31
0.0
  0
LINE
  8
TRMODEL1
  6
CONTINUOUS
 62
     7
  5
27F
 10
-1.026959
 20
0.743438
 30
0.0
 11
-1.053699
 21
0.743438
 31
0.0
  0
LINE
  8
TRMODEL1
  6
CONTINUOUS
 62
     7
  5
280
 10
-0.733799
 20
0.743438
 30
0.0
 11
-0.837525
 21
0.743438
 31
0.0
  0
LINE
  8
TRMODEL1
  6
CONTINUOUS
 62
     7
  5
281
 10
-0.423567
 20
0.743438
 30
0.0
 11
-0.552863
 21
0.743438
 31
0.0
  0
LINE
  8
TRMODEL1
  6
CONTINUOUS
 62
     7
  5
282
 10
-0.059055
 20
0.743438
 30
0.0
 11
-0.292475
 21
0.743438
 31
0.0
  0
LINE
  8
TRMODEL1
  6
CONTINUOUS
 62
     7
  5
283
 10
0.292475
 20
0.743438
 30
0.0
 11
0.059055
 21
0.743438
 31
0.0
  0
LINE
  8
TRMODEL1
  6
CONTINUOUS
 62
     7
  5
284
 10
0.552863
 20
0.743438
 30
0.0
 11
0.423567
 21
0.743438
 31
0.0
  0
LINE
  8
TRMODEL1
  6
CONTINUOUS
 62
     7
  5
285
 10
0.837525
 20
0.743438
 30
0.0
 11
0.733799
 21
0.743438
 31
0.0
  0
LINE
  8
TRMODEL1
  6
CONTINUOUS
 62
     7
  5
286
 10
1.053699
 20
0.743438
 30
0.0
 11
1.026959
 21
0.743438
 31
0.0
  0
LINE
  8
TRMODEL1
  6
CONTINUOUS
 62
     7
  5
287
 10
1.476
 20
0.743438
 30
0.0
 11
1.195347
 21
0.743438
 31
0.0
  0
LINE
  8
TRMODEL1
  6
CONTINUOUS
 62
     7
  5
288
 10
1.937036
 20
0.743438
 30
0.0
 11
1.607146
 21
0.743438
 31
0.0
  0
LINE
  8
TRMODEL1
  6
CONTINUOUS
 62
     7
  5
289
 10
1.770678
 20
-0.017784
 30
0.0
 11
2.074727
 21
-0.017784
 31
0.0
  0
LINE
  8
TRMODEL1
  6
CONTINUOUS
 62
     7
  5
28A
 10
1.407565
 20
-0.017784
 30
0.0
 11
1.652562
 21
-0.017784
 31
0.0
  0
LINE
  8
TRMODEL1
  6
CONTINUOUS
 62
     7
  5
28B
 10
1.044435
 20
-0.017784
 30
0.0
 11
1.289444
 21
-0.017784
 31
0.0
  0
LINE
  8
TRMODEL1
  6
CONTINUOUS
 62
     7
  5
28C
 10
0.622187
 20
-0.017784
 30
0.0
 11
0.926306
 21
-0.017784
 31
0.0
  0
LINE
  8
TRMODEL1
  6
CONTINUOUS
 62
     7
  5
28D
 10
-0.926306
 20
-0.017784
 30
0.0
 11
-0.622187
 21
-0.017784
 31
0.0
  0
LINE
  8
TRMODEL1
  6
CONTINUOUS
 62
     7
  5
28E
 10
-1.289444
 20
-0.017784
 30
0.0
 11
-1.044435
 21
-0.017784
 31
0.0
  0
LINE
  8
TRMODEL1
  6
CONTINUOUS
 62
     7
  5
28F
 10
-1.652562
 20
-0.017784
 30
0.0
 11
-1.407565
 21
-0.017784
 31
0.0
  0
LINE
  8
TRMODEL1
  6
CONTINUOUS
 62
     7
  5
290
 10
-2.074727
 20
-0.017784
 30
0.0
 11
-1.770678
 21
-0.017784
 31
0.0
  0
LINE
  8
TRMODEL1
  6
CONTINUOUS
 62
     7
  5
291
 10
0.897179
 20
1.526659
 30
0.0
 11
1.405034
 21
1.526659
 31
0.0
  0
LINE
  8
TRMODEL1
  6
CONTINUOUS
 62
     7
  5
292
 10
0.059055
 20
1.526659
 30
0.0
 11
0.632921
 21
1.526659
 31
0.0
  0
LINE
  8
TRMODEL1
  6
CONTINUOUS
 62
     7
  5
293
 10
-0.632921
 20
1.526659
 30
0.0
 11
-0.059055
 21
1.526659
 31
0.0
  0
LINE
  8
TRMODEL1
  6
CONTINUOUS
 62
     7
  5
294
 10
-1.405034
 20
1.526659
 30
0.0
 11
-0.897179
 21
1.526659
 31
0.0
  0
LINE
  8
TRMODEL1
  6
CONTINUOUS
 62
     7
  5
295
 10
-0.914405
 20
1.516404
 30
0.0
 11
-1.416095
 21
1.516404
 31
0.0
  0
LINE
  8
TRMODEL1
  6
CONTINUOUS
 62
     7
  5
296
 10
-0.059055
 20
1.516404
 30
0.0
 11
-0.657111
 21
1.516404
 31
0.0
  0
LINE
  8
TRMODEL1
  6
CONTINUOUS
 62
     7
  5
297
 10
0.657111
 20
1.516404
 30
0.0
 11
0.059055
 21
1.516404
 31
0.0
  0
LINE
  8
TRMODEL1
  6
CONTINUOUS
 62
     7
  5
298
 10
1.416095
 20
1.516404
 30
0.0
 11
0.914405
 21
1.516404
 31
0.0
  0
LINE
  8
TRMODEL1
  6
CONTINUOUS
 62
     7
  5
299
 10
1.601661
 20
0.755181
 30
0.0
 11
1.932488
 21
0.755181
 31
0.0
  0
LINE
  8
TRMODEL1
  6
CONTINUOUS
 62
     7
  5
29A
 10
1.187963
 20
0.755181
 30
0.0
 11
1.470026
 21
0.755181
 31
0.0
  0
LINE
  8
TRMODEL1
  6
CONTINUOUS
 62
     7
  5
29B
 10
1.041685
 20
0.755181
 30
0.0
 11
1.045315
 21
0.755181
 31
0.0
  0
LINE
  8
TRMODEL1
  6
CONTINUOUS
 62
     7
  5
29C
 10
0.721708
 20
0.755181
 30
0.0
 11
0.85225
 21
0.755181
 31
0.0
  0
LINE
  8
TRMODEL1
  6
CONTINUOUS
 62
     7
  5
29D
 10
0.429222
 20
0.755181
 30
0.0
 11
0.536712
 21
0.755181
 31
0.0
  0
LINE
  8
TRMODEL1
  6
CONTINUOUS
 62
     7
  5
29E
 10
0.059055
 20
0.755181
 30
0.0
 11
0.29813
 21
0.755181
 31
0.0
  0
LINE
  8
TRMODEL1
  6
CONTINUOUS
 62
     7
  5
29F
 10
-0.29813
 20
0.755181
 30
0.0
 11
-0.059055
 21
0.755181
 31
0.0
  0
LINE
  8
TRMODEL1
  6
CONTINUOUS
 62
     7
  5
2A0
 10
-0.536712
 20
0.755181
 30
0.0
 11
-0.429222
 21
0.755181
 31
0.0
  0
LINE
  8
TRMODEL1
  6
CONTINUOUS
 62
     7
  5
2A1
 10
-0.85225
 20
0.755181
 30
0.0
 11
-0.721708
 21
0.755181
 31
0.0
  0
LINE
  8
TRMODEL1
  6
CONTINUOUS
 62
     7
  5
2A2
 10
-1.045315
 20
0.755181
 30
0.0
 11
-1.041685
 21
0.755181
 31
0.0
  0
LINE
  8
TRMODEL1
  6
CONTINUOUS
 62
     7
  5
2A3
 10
-1.470026
 20
0.755181
 30
0.0
 11
-1.187963
 21
0.755181
 31
0.0
  0
LINE
  8
TRMODEL1
  6
CONTINUOUS
 62
     7
  5
2A4
 10
-1.932488
 20
0.755181
 30
0.0
 11
-1.601661
 21
0.755181
 31
0.0
  0
LINE
  8
TRMODEL1
  6
CONTINUOUS
 62
     7
  5
2A5
 10
0.894642
 20
1.528147
 30
0.0
 11
1.403415
 21
1.528147
 31
0.0
  0
LINE
  8
TRMODEL1
  6
CONTINUOUS
 62
     7
  5
2A6
 10
0.059055
 20
1.528147
 30
0.0
 11
0.629319
 21
1.528147
 31
0.0
  0
LINE
  8
TRMODEL1
  6
CONTINUOUS
 62
     7
  5
2A7
 10
-0.629319
 20
1.528147
 30
0.0
 11
-0.059055
 21
1.528147
 31
0.0
  0
LINE
  8
TRMODEL1
  6
CONTINUOUS
 62
     7
  5
2A8
 10
-1.403415
 20
1.528147
 30
0.0
 11
-0.894642
 21
1.528147
 31
0.0
  0
LINE
  8
TRMODEL1
  6
CONTINUOUS
 62
     7
  5
2A9
 10
0.059055
 20
-1.563716
 30
0.0
 11
0.059055
 21
-1.565205
 31
0.0
  0
LINE
  8
TRMODEL1
  6
CONTINUOUS
 62
     7
  5
2AA
 10
0.059055
 20
-0.79075
 30
0.0
 11
0.059055
 21
-0.792239
 31
0.0
  0
LINE
  8
TRMODEL1
  6
CONTINUOUS
 62
     7
  5
2AB
 10
0.059055
 20
0.755181
 30
0.0
 11
0.059055
 21
0.753693
 31
0.0
  0
LINE
  8
TRMODEL1
  6
CONTINUOUS
 62
     7
  5
2AC
 10
0.059055
 20
1.528147
 30
0.0
 11
0.059055
 21
1.526659
 31
0.0
  0
LINE
  8
TRMODEL1
  6
CONTINUOUS
 62
     7
  5
2AD
 10
-0.595564
 20
1.526728
 30
0.0
 11
-0.596578
 21
1.526762
 31
0.0
  0
LINE
  8
TRMODEL1
  6
CONTINUOUS
 62
     7
  5
2AE
 10
-0.596578
 20
1.526762
 30
0.0
 11
-0.597592
 21
1.526795
 31
0.0
  0
LINE
  8
TRMODEL1
  6
CONTINUOUS
 62
     7
  5
2AF
 10
-0.597592
 20
1.526795
 30
0.0
 11
-0.598607
 21
1.526829
 31
0.0
  0
LINE
  8
TRMODEL1
  6
CONTINUOUS
 62
     7
  5
2B0
 10
-0.598607
 20
1.526829
 30
0.0
 11
-0.599621
 21
1.526863
 31
0.0
  0
LINE
  8
TRMODEL1
  6
CONTINUOUS
 62
     7
  5
2B1
 10
-0.599621
 20
1.526863
 30
0.0
 11
-0.600635
 21
1.526897
 31
0.0
  0
LINE
  8
TRMODEL1
  6
CONTINUOUS
 62
     7
  5
2B2
 10
-0.600635
 20
1.526897
 30
0.0
 11
-0.601649
 21
1.526931
 31
0.0
  0
LINE
  8
TRMODEL1
  6
CONTINUOUS
 62
     7
  5
2B3
 10
-0.601649
 20
1.526931
 30
0.0
 11
-0.602663
 21
1.526965
 31
0.0
  0
LINE
  8
TRMODEL1
  6
CONTINUOUS
 62
     7
  5
2B4
 10
-0.602663
 20
1.526965
 30
0.0
 11
-0.603677
 21
1.526999
 31
0.0
  0
LINE
  8
TRMODEL1
  6
CONTINUOUS
 62
     7
  5
2B5
 10
-0.603677
 20
1.526999
 30
0.0
 11
-0.604691
 21
1.527033
 31
0.0
  0
LINE
  8
TRMODEL1
  6
CONTINUOUS
 62
     7
  5
2B6
 10
-0.604691
 20
1.527033
 30
0.0
 11
-0.605706
 21
1.527067
 31
0.0
  0
LINE
  8
TRMODEL1
  6
CONTINUOUS
 62
     7
  5
2B7
 10
-0.605706
 20
1.527067
 30
0.0
 11
-0.60672
 21
1.527102
 31
0.0
  0
LINE
  8
TRMODEL1
  6
CONTINUOUS
 62
     7
  5
2B8
 10
-0.60672
 20
1.527102
 30
0.0
 11
-0.607734
 21
1.527136
 31
0.0
  0
LINE
  8
TRMODEL1
  6
CONTINUOUS
 62
     7
  5
2B9
 10
-0.607734
 20
1.527136
 30
0.0
 11
-0.608748
 21
1.52717
 31
0.0
  0
LINE
  8
TRMODEL1
  6
CONTINUOUS
 62
     7
  5
2BA
 10
-0.608748
 20
1.52717
 30
0.0
 11
-0.609762
 21
1.527205
 31
0.0
  0
LINE
  8
TRMODEL1
  6
CONTINUOUS
 62
     7
  5
2BB
 10
-0.609762
 20
1.527205
 30
0.0
 11
-0.610776
 21
1.527239
 31
0.0
  0
LINE
  8
TRMODEL1
  6
CONTINUOUS
 62
     7
  5
2BC
 10
-0.610776
 20
1.527239
 30
0.0
 11
-0.61179
 21
1.527274
 31
0.0
  0
LINE
  8
TRMODEL1
  6
CONTINUOUS
 62
     7
  5
2BD
 10
-0.61179
 20
1.527274
 30
0.0
 11
-0.612804
 21
1.527308
 31
0.0
  0
LINE
  8
TRMODEL1
  6
CONTINUOUS
 62
     7
  5
2BE
 10
-0.612804
 20
1.527308
 30
0.0
 11
-0.613819
 21
1.527343
 31
0.0
  0
LINE
  8
TRMODEL1
  6
CONTINUOUS
 62
     7
  5
2BF
 10
-0.613819
 20
1.527343
 30
0.0
 11
-0.614833
 21
1.527378
 31
0.0
  0
LINE
  8
TRMODEL1
  6
CONTINUOUS
 62
     7
  5
2C0
 10
-0.614833
 20
1.527378
 30
0.0
 11
-0.615847
 21
1.527413
 31
0.0
  0
LINE
  8
TRMODEL1
  6
CONTINUOUS
 62
     7
  5
2C1
 10
-0.615847
 20
1.527413
 30
0.0
 11
-0.616861
 21
1.527447
 31
0.0
  0
LINE
  8
TRMODEL1
  6
CONTINUOUS
 62
     7
  5
2C2
 10
-0.616861
 20
1.527447
 30
0.0
 11
-0.617875
 21
1.527482
 31
0.0
  0
LINE
  8
TRMODEL1
  6
CONTINUOUS
 62
     7
  5
2C3
 10
-0.617875
 20
1.527482
 30
0.0
 11
-0.618889
 21
1.527517
 31
0.0
  0
LINE
  8
TRMODEL1
  6
CONTINUOUS
 62
     7
  5
2C4
 10
-0.618889
 20
1.527517
 30
0.0
 11
-0.619903
 21
1.527552
 31
0.0
  0
LINE
  8
TRMODEL1
  6
CONTINUOUS
 62
     7
  5
2C5
 10
-0.619903
 20
1.527552
 30
0.0
 11
-0.620917
 21
1.527587
 31
0.0
  0
LINE
  8
TRMODEL1
  6
CONTINUOUS
 62
     7
  5
2C6
 10
-0.620917
 20
1.527587
 30
0.0
 11
-0.621931
 21
1.527622
 31
0.0
  0
LINE
  8
TRMODEL1
  6
CONTINUOUS
 62
     7
  5
2C7
 10
-0.621931
 20
1.527622
 30
0.0
 11
-0.622945
 21
1.527658
 31
0.0
  0
LINE
  8
TRMODEL1
  6
CONTINUOUS
 62
     7
  5
2C8
 10
-0.622945
 20
1.527658
 30
0.0
 11
-0.623959
 21
1.527693
 31
0.0
  0
LINE
  8
TRMODEL1
  6
CONTINUOUS
 62
     7
  5
2C9
 10
-0.623959
 20
1.527693
 30
0.0
 11
-0.624974
 21
1.527728
 31
0.0
  0
LINE
  8
TRMODEL1
  6
CONTINUOUS
 62
     7
  5
2CA
 10
-0.624974
 20
1.527728
 30
0.0
 11
-0.625988
 21
1.527764
 31
0.0
  0
LINE
  8
TRMODEL1
  6
CONTINUOUS
 62
     7
  5
2CB
 10
-0.625988
 20
1.527764
 30
0.0
 11
-0.627002
 21
1.527799
 31
0.0
  0
LINE
  8
TRMODEL1
  6
CONTINUOUS
 62
     7
  5
2CC
 10
-0.627002
 20
1.527799
 30
0.0
 11
-0.628016
 21
1.527834
 31
0.0
  0
LINE
  8
TRMODEL1
  6
CONTINUOUS
 62
     7
  5
2CD
 10
-0.628016
 20
1.527834
 30
0.0
 11
-0.62903
 21
1.52787
 31
0.0
  0
LINE
  8
TRMODEL1
  6
CONTINUOUS
 62
     7
  5
2CE
 10
-0.62903
 20
1.52787
 30
0.0
 11
-0.630044
 21
1.527906
 31
0.0
  0
LINE
  8
TRMODEL1
  6
CONTINUOUS
 62
     7
  5
2CF
 10
-0.630044
 20
1.527906
 30
0.0
 11
-0.631058
 21
1.527941
 31
0.0
  0
LINE
  8
TRMODEL1
  6
CONTINUOUS
 62
     7
  5
2D0
 10
-1.308239
 20
1.526648
 30
0.0
 11
-1.308815
 21
1.52669
 31
0.0
  0
LINE
  8
TRMODEL1
  6
CONTINUOUS
 62
     7
  5
2D1
 10
-1.308815
 20
1.52669
 30
0.0
 11
-1.309391
 21
1.526732
 31
0.0
  0
LINE
  8
TRMODEL1
  6
CONTINUOUS
 62
     7
  5
2D2
 10
-1.309391
 20
1.526732
 30
0.0
 11
-1.309967
 21
1.526775
 31
0.0
  0
LINE
  8
TRMODEL1
  6
CONTINUOUS
 62
     7
  5
2D3
 10
-1.309967
 20
1.526775
 30
0.0
 11
-1.310543
 21
1.526817
 31
0.0
  0
LINE
  8
TRMODEL1
  6
CONTINUOUS
 62
     7
  5
2D4
 10
-1.310543
 20
1.526817
 30
0.0
 11
-1.311119
 21
1.526859
 31
0.0
  0
LINE
  8
TRMODEL1
  6
CONTINUOUS
 62
     7
  5
2D5
 10
-1.311119
 20
1.526859
 30
0.0
 11
-1.311694
 21
1.526901
 31
0.0
  0
LINE
  8
TRMODEL1
  6
CONTINUOUS
 62
     7
  5
2D6
 10
-1.311694
 20
1.526901
 30
0.0
 11
-1.31227
 21
1.526944
 31
0.0
  0
LINE
  8
TRMODEL1
  6
CONTINUOUS
 62
     7
  5
2D7
 10
-1.31227
 20
1.526944
 30
0.0
 11
-1.312846
 21
1.526986
 31
0.0
  0
LINE
  8
TRMODEL1
  6
CONTINUOUS
 62
     7
  5
2D8
 10
-1.312846
 20
1.526986
 30
0.0
 11
-1.313422
 21
1.527028
 31
0.0
  0
LINE
  8
TRMODEL1
  6
CONTINUOUS
 62
     7
  5
2D9
 10
-1.313422
 20
1.527028
 30
0.0
 11
-1.313998
 21
1.52707
 31
0.0
  0
LINE
  8
TRMODEL1
  6
CONTINUOUS
 62
     7
  5
2DA
 10
-1.313998
 20
1.52707
 30
0.0
 11
-1.314574
 21
1.527113
 31
0.0
  0
LINE
  8
TRMODEL1
  6
CONTINUOUS
 62
     7
  5
2DB
 10
-1.314574
 20
1.527113
 30
0.0
 11
-1.315149
 21
1.527155
 31
0.0
  0
LINE
  8
TRMODEL1
  6
CONTINUOUS
 62
     7
  5
2DC
 10
-1.315149
 20
1.527155
 30
0.0
 11
-1.315725
 21
1.527197
 31
0.0
  0
LINE
  8
TRMODEL1
  6
CONTINUOUS
 62
     7
  5
2DD
 10
-1.315725
 20
1.527197
 30
0.0
 11
-1.316301
 21
1.52724
 31
0.0
  0
LINE
  8
TRMODEL1
  6
CONTINUOUS
 62
     7
  5
2DE
 10
-1.316301
 20
1.52724
 30
0.0
 11
-1.316877
 21
1.527282
 31
0.0
  0
LINE
  8
TRMODEL1
  6
CONTINUOUS
 62
     7
  5
2DF
 10
-1.316877
 20
1.527282
 30
0.0
 11
-1.317453
 21
1.527325
 31
0.0
  0
LINE
  8
TRMODEL1
  6
CONTINUOUS
 62
     7
  5
2E0
 10
-1.317453
 20
1.527325
 30
0.0
 11
-1.318029
 21
1.527367
 31
0.0
  0
LINE
  8
TRMODEL1
  6
CONTINUOUS
 62
     7
  5
2E1
 10
-1.318029
 20
1.527367
 30
0.0
 11
-1.318604
 21
1.52741
 31
0.0
  0
LINE
  8
TRMODEL1
  6
CONTINUOUS
 62
     7
  5
2E2
 10
-1.318604
 20
1.52741
 30
0.0
 11
-1.31918
 21
1.527452
 31
0.0
  0
LINE
  8
TRMODEL1
  6
CONTINUOUS
 62
     7
  5
2E3
 10
-1.31918
 20
1.527452
 30
0.0
 11
-1.319756
 21
1.527495
 31
0.0
  0
LINE
  8
TRMODEL1
  6
CONTINUOUS
 62
     7
  5
2E4
 10
-1.319756
 20
1.527495
 30
0.0
 11
-1.320332
 21
1.527537
 31
0.0
  0
LINE
  8
TRMODEL1
  6
CONTINUOUS
 62
     7
  5
2E5
 10
-1.320332
 20
1.527537
 30
0.0
 11
-1.320908
 21
1.52758
 31
0.0
  0
LINE
  8
TRMODEL1
  6
CONTINUOUS
 62
     7
  5
2E6
 10
-1.320908
 20
1.52758
 30
0.0
 11
-1.321484
 21
1.527622
 31
0.0
  0
LINE
  8
TRMODEL1
  6
CONTINUOUS
 62
     7
  5
2E7
 10
-1.321484
 20
1.527622
 30
0.0
 11
-1.322059
 21
1.527665
 31
0.0
  0
LINE
  8
TRMODEL1
  6
CONTINUOUS
 62
     7
  5
2E8
 10
-1.322059
 20
1.527665
 30
0.0
 11
-1.322635
 21
1.527707
 31
0.0
  0
LINE
  8
TRMODEL1
  6
CONTINUOUS
 62
     7
  5
2E9
 10
-1.322635
 20
1.527707
 30
0.0
 11
-1.323211
 21
1.52775
 31
0.0
  0
LINE
  8
TRMODEL1
  6
CONTINUOUS
 62
     7
  5
2EA
 10
-1.323211
 20
1.52775
 30
0.0
 11
-1.323787
 21
1.527793
 31
0.0
  0
LINE
  8
TRMODEL1
  6
CONTINUOUS
 62
     7
  5
2EB
 10
-1.323787
 20
1.527793
 30
0.0
 11
-1.324363
 21
1.527835
 31
0.0
  0
LINE
  8
TRMODEL1
  6
CONTINUOUS
 62
     7
  5
2EC
 10
-1.324363
 20
1.527835
 30
0.0
 11
-1.324938
 21
1.527878
 31
0.0
  0
LINE
  8
TRMODEL1
  6
CONTINUOUS
 62
     7
  5
2ED
 10
-1.324938
 20
1.527878
 30
0.0
 11
-1.325514
 21
1.527921
 31
0.0
  0
LINE
  8
TRMODEL1
  6
CONTINUOUS
 62
     7
  5
2EE
 10
-1.325514
 20
1.527921
 30
0.0
 11
-1.32609
 21
1.527963
 31
0.0
  0
LINE
  8
TRMODEL1
  6
CONTINUOUS
 62
     7
  5
2EF
 10
-1.32609
 20
1.527963
 30
0.0
 11
-1.326666
 21
1.528006
 31
0.0
  0
LINE
  8
TRMODEL1
  6
CONTINUOUS
 62
     7
  5
2F0
 10
-1.326666
 20
1.528006
 30
0.0
 11
-1.327242
 21
1.528049
 31
0.0
  0
LINE
  8
TRMODEL1
  6
CONTINUOUS
 62
     7
  5
2F1
 10
-1.327242
 20
1.528049
 30
0.0
 11
-1.327817
 21
1.528092
 31
0.0
  0
LINE
  8
TRMODEL1
  6
CONTINUOUS
 62
     7
  5
2F2
 10
-1.327817
 20
1.528092
 30
0.0
 11
-1.328393
 21
1.528134
 31
0.0
  0
LINE
  8
TRMODEL1
  6
CONTINUOUS
 62
     7
  5
2F3
 10
1.328393
 20
1.528134
 30
0.0
 11
1.327817
 21
1.528092
 31
0.0
  0
LINE
  8
TRMODEL1
  6
CONTINUOUS
 62
     7
  5
2F4
 10
1.327817
 20
1.528092
 30
0.0
 11
1.327242
 21
1.528049
 31
0.0
  0
LINE
  8
TRMODEL1
  6
CONTINUOUS
 62
     7
  5
2F5
 10
1.327242
 20
1.528049
 30
0.0
 11
1.326666
 21
1.528006
 31
0.0
  0
LINE
  8
TRMODEL1
  6
CONTINUOUS
 62
     7
  5
2F6
 10
1.326666
 20
1.528006
 30
0.0
 11
1.32609
 21
1.527963
 31
0.0
  0
LINE
  8
TRMODEL1
  6
CONTINUOUS
 62
     7
  5
2F7
 10
1.32609
 20
1.527963
 30
0.0
 11
1.325514
 21
1.527921
 31
0.0
  0
LINE
  8
TRMODEL1
  6
CONTINUOUS
 62
     7
  5
2F8
 10
1.325514
 20
1.527921
 30
0.0
 11
1.324938
 21
1.527878
 31
0.0
  0
LINE
  8
TRMODEL1
  6
CONTINUOUS
 62
     7
  5
2F9
 10
1.324938
 20
1.527878
 30
0.0
 11
1.324363
 21
1.527835
 31
0.0
  0
LINE
  8
TRMODEL1
  6
CONTINUOUS
 62
     7
  5
2FA
 10
1.324363
 20
1.527835
 30
0.0
 11
1.323787
 21
1.527793
 31
0.0
  0
LINE
  8
TRMODEL1
  6
CONTINUOUS
 62
     7
  5
2FB
 10
1.323787
 20
1.527793
 30
0.0
 11
1.323211
 21
1.52775
 31
0.0
  0
LINE
  8
TRMODEL1
  6
CONTINUOUS
 62
     7
  5
2FC
 10
1.323211
 20
1.52775
 30
0.0
 11
1.322635
 21
1.527707
 31
0.0
  0
LINE
  8
TRMODEL1
  6
CONTINUOUS
 62
     7
  5
2FD
 10
1.322635
 20
1.527707
 30
0.0
 11
1.322059
 21
1.527665
 31
0.0
  0
LINE
  8
TRMODEL1
  6
CONTINUOUS
 62
     7
  5
2FE
 10
1.322059
 20
1.527665
 30
0.0
 11
1.321484
 21
1.527622
 31
0.0
  0
LINE
  8
TRMODEL1
  6
CONTINUOUS
 62
     7
  5
2FF
 10
1.321484
 20
1.527622
 30
0.0
 11
1.320908
 21
1.52758
 31
0.0
  0
LINE
  8
TRMODEL1
  6
CONTINUOUS
 62
     7
  5
300
 10
1.320908
 20
1.52758
 30
0.0
 11
1.320332
 21
1.527537
 31
0.0
  0
LINE
  8
TRMODEL1
  6
CONTINUOUS
 62
     7
  5
301
 10
1.320332
 20
1.527537
 30
0.0
 11
1.319756
 21
1.527495
 31
0.0
  0
LINE
  8
TRMODEL1
  6
CONTINUOUS
 62
     7
  5
302
 10
1.319756
 20
1.527495
 30
0.0
 11
1.31918
 21
1.527452
 31
0.0
  0
LINE
  8
TRMODEL1
  6
CONTINUOUS
 62
     7
  5
303
 10
1.31918
 20
1.527452
 30
0.0
 11
1.318604
 21
1.52741
 31
0.0
  0
LINE
  8
TRMODEL1
  6
CONTINUOUS
 62
     7
  5
304
 10
1.318604
 20
1.52741
 30
0.0
 11
1.318029
 21
1.527367
 31
0.0
  0
LINE
  8
TRMODEL1
  6
CONTINUOUS
 62
     7
  5
305
 10
1.318029
 20
1.527367
 30
0.0
 11
1.317453
 21
1.527325
 31
0.0
  0
LINE
  8
TRMODEL1
  6
CONTINUOUS
 62
     7
  5
306
 10
1.317453
 20
1.527325
 30
0.0
 11
1.316877
 21
1.527282
 31
0.0
  0
LINE
  8
TRMODEL1
  6
CONTINUOUS
 62
     7
  5
307
 10
1.316877
 20
1.527282
 30
0.0
 11
1.316301
 21
1.52724
 31
0.0
  0
LINE
  8
TRMODEL1
  6
CONTINUOUS
 62
     7
  5
308
 10
1.316301
 20
1.52724
 30
0.0
 11
1.315725
 21
1.527197
 31
0.0
  0
LINE
  8
TRMODEL1
  6
CONTINUOUS
 62
     7
  5
309
 10
1.315725
 20
1.527197
 30
0.0
 11
1.315149
 21
1.527155
 31
0.0
  0
LINE
  8
TRMODEL1
  6
CONTINUOUS
 62
     7
  5
30A
 10
1.315149
 20
1.527155
 30
0.0
 11
1.314574
 21
1.527113
 31
0.0
  0
LINE
  8
TRMODEL1
  6
CONTINUOUS
 62
     7
  5
30B
 10
1.314574
 20
1.527113
 30
0.0
 11
1.313998
 21
1.52707
 31
0.0
  0
LINE
  8
TRMODEL1
  6
CONTINUOUS
 62
     7
  5
30C
 10
1.313998
 20
1.52707
 30
0.0
 11
1.313422
 21
1.527028
 31
0.0
  0
LINE
  8
TRMODEL1
  6
CONTINUOUS
 62
     7
  5
30D
 10
1.313422
 20
1.527028
 30
0.0
 11
1.312846
 21
1.526986
 31
0.0
  0
LINE
  8
TRMODEL1
  6
CONTINUOUS
 62
     7
  5
30E
 10
1.312846
 20
1.526986
 30
0.0
 11
1.31227
 21
1.526944
 31
0.0
  0
LINE
  8
TRMODEL1
  6
CONTINUOUS
 62
     7
  5
30F
 10
1.31227
 20
1.526944
 30
0.0
 11
1.311694
 21
1.526901
 31
0.0
  0
LINE
  8
TRMODEL1
  6
CONTINUOUS
 62
     7
  5
310
 10
1.311694
 20
1.526901
 30
0.0
 11
1.311119
 21
1.526859
 31
0.0
  0
LINE
  8
TRMODEL1
  6
CONTINUOUS
 62
     7
  5
311
 10
1.311119
 20
1.526859
 30
0.0
 11
1.310543
 21
1.526817
 31
0.0
  0
LINE
  8
TRMODEL1
  6
CONTINUOUS
 62
     7
  5
312
 10
1.310543
 20
1.526817
 30
0.0
 11
1.309967
 21
1.526775
 31
0.0
  0
LINE
  8
TRMODEL1
  6
CONTINUOUS
 62
     7
  5
313
 10
1.309967
 20
1.526775
 30
0.0
 11
1.309391
 21
1.526732
 31
0.0
  0
LINE
  8
TRMODEL1
  6
CONTINUOUS
 62
     7
  5
314
 10
1.309391
 20
1.526732
 30
0.0
 11
1.308815
 21
1.52669
 31
0.0
  0
LINE
  8
TRMODEL1
  6
CONTINUOUS
 62
     7
  5
315
 10
1.308815
 20
1.52669
 30
0.0
 11
1.308239
 21
1.526648
 31
0.0
  0
LINE
  8
TRMODEL1
  6
CONTINUOUS
 62
     7
  5
316
 10
0.631058
 20
1.527941
 30
0.0
 11
0.630044
 21
1.527906
 31
0.0
  0
LINE
  8
TRMODEL1
  6
CONTINUOUS
 62
     7
  5
317
 10
0.630044
 20
1.527906
 30
0.0
 11
0.62903
 21
1.52787
 31
0.0
  0
LINE
  8
TRMODEL1
  6
CONTINUOUS
 62
     7
  5
318
 10
0.62903
 20
1.52787
 30
0.0
 11
0.628016
 21
1.527834
 31
0.0
  0
LINE
  8
TRMODEL1
  6
CONTINUOUS
 62
     7
  5
319
 10
0.628016
 20
1.527834
 30
0.0
 11
0.627002
 21
1.527799
 31
0.0
  0
LINE
  8
TRMODEL1
  6
CONTINUOUS
 62
     7
  5
31A
 10
0.627002
 20
1.527799
 30
0.0
 11
0.625988
 21
1.527764
 31
0.0
  0
LINE
  8
TRMODEL1
  6
CONTINUOUS
 62
     7
  5
31B
 10
0.625988
 20
1.527764
 30
0.0
 11
0.624974
 21
1.527728
 31
0.0
  0
LINE
  8
TRMODEL1
  6
CONTINUOUS
 62
     7
  5
31C
 10
0.624974
 20
1.527728
 30
0.0
 11
0.623959
 21
1.527693
 31
0.0
  0
LINE
  8
TRMODEL1
  6
CONTINUOUS
 62
     7
  5
31D
 10
0.623959
 20
1.527693
 30
0.0
 11
0.622945
 21
1.527658
 31
0.0
  0
LINE
  8
TRMODEL1
  6
CONTINUOUS
 62
     7
  5
31E
 10
0.622945
 20
1.527658
 30
0.0
 11
0.621931
 21
1.527622
 31
0.0
  0
LINE
  8
TRMODEL1
  6
CONTINUOUS
 62
     7
  5
31F
 10
0.621931
 20
1.527622
 30
0.0
 11
0.620917
 21
1.527587
 31
0.0
  0
LINE
  8
TRMODEL1
  6
CONTINUOUS
 62
     7
  5
320
 10
0.620917
 20
1.527587
 30
0.0
 11
0.619903
 21
1.527552
 31
0.0
  0
LINE
  8
TRMODEL1
  6
CONTINUOUS
 62
     7
  5
321
 10
0.619903
 20
1.527552
 30
0.0
 11
0.618889
 21
1.527517
 31
0.0
  0
LINE
  8
TRMODEL1
  6
CONTINUOUS
 62
     7
  5
322
 10
0.618889
 20
1.527517
 30
0.0
 11
0.617875
 21
1.527482
 31
0.0
  0
LINE
  8
TRMODEL1
  6
CONTINUOUS
 62
     7
  5
323
 10
0.617875
 20
1.527482
 30
0.0
 11
0.616861
 21
1.527447
 31
0.0
  0
LINE
  8
TRMODEL1
  6
CONTINUOUS
 62
     7
  5
324
 10
0.616861
 20
1.527447
 30
0.0
 11
0.615847
 21
1.527413
 31
0.0
  0
LINE
  8
TRMODEL1
  6
CONTINUOUS
 62
     7
  5
325
 10
0.615847
 20
1.527413
 30
0.0
 11
0.614833
 21
1.527378
 31
0.0
  0
LINE
  8
TRMODEL1
  6
CONTINUOUS
 62
     7
  5
326
 10
0.614833
 20
1.527378
 30
0.0
 11
0.613819
 21
1.527343
 31
0.0
  0
LINE
  8
TRMODEL1
  6
CONTINUOUS
 62
     7
  5
327
 10
0.613819
 20
1.527343
 30
0.0
 11
0.612804
 21
1.527308
 31
0.0
  0
LINE
  8
TRMODEL1
  6
CONTINUOUS
 62
     7
  5
328
 10
0.612804
 20
1.527308
 30
0.0
 11
0.61179
 21
1.527274
 31
0.0
  0
LINE
  8
TRMODEL1
  6
CONTINUOUS
 62
     7
  5
329
 10
0.61179
 20
1.527274
 30
0.0
 11
0.610776
 21
1.527239
 31
0.0
  0
LINE
  8
TRMODEL1
  6
CONTINUOUS
 62
     7
  5
32A
 10
0.610776
 20
1.527239
 30
0.0
 11
0.609762
 21
1.527205
 31
0.0
  0
LINE
  8
TRMODEL1
  6
CONTINUOUS
 62
     7
  5
32B
 10
0.609762
 20
1.527205
 30
0.0
 11
0.608748
 21
1.52717
 31
0.0
  0
LINE
  8
TRMODEL1
  6
CONTINUOUS
 62
     7
  5
32C
 10
0.608748
 20
1.52717
 30
0.0
 11
0.607734
 21
1.527136
 31
0.0
  0
LINE
  8
TRMODEL1
  6
CONTINUOUS
 62
     7
  5
32D
 10
0.607734
 20
1.527136
 30
0.0
 11
0.60672
 21
1.527102
 31
0.0
  0
LINE
  8
TRMODEL1
  6
CONTINUOUS
 62
     7
  5
32E
 10
0.60672
 20
1.527102
 30
0.0
 11
0.605706
 21
1.527067
 31
0.0
  0
LINE
  8
TRMODEL1
  6
CONTINUOUS
 62
     7
  5
32F
 10
0.605706
 20
1.527067
 30
0.0
 11
0.604691
 21
1.527033
 31
0.0
  0
LINE
  8
TRMODEL1
  6
CONTINUOUS
 62
     7
  5
330
 10
0.604691
 20
1.527033
 30
0.0
 11
0.603677
 21
1.526999
 31
0.0
  0
LINE
  8
TRMODEL1
  6
CONTINUOUS
 62
     7
  5
331
 10
0.603677
 20
1.526999
 30
0.0
 11
0.602663
 21
1.526965
 31
0.0
  0
LINE
  8
TRMODEL1
  6
CONTINUOUS
 62
     7
  5
332
 10
0.602663
 20
1.526965
 30
0.0
 11
0.601649
 21
1.526931
 31
0.0
  0
LINE
  8
TRMODEL1
  6
CONTINUOUS
 62
     7
  5
333
 10
0.601649
 20
1.526931
 30
0.0
 11
0.600635
 21
1.526897
 31
0.0
  0
LINE
  8
TRMODEL1
  6
CONTINUOUS
 62
     7
  5
334
 10
0.600635
 20
1.526897
 30
0.0
 11
0.599621
 21
1.526863
 31
0.0
  0
LINE
  8
TRMODEL1
  6
CONTINUOUS
 62
     7
  5
335
 10
0.599621
 20
1.526863
 30
0.0
 11
0.598607
 21
1.526829
 31
0.0
  0
LINE
  8
TRMODEL1
  6
CONTINUOUS
 62
     7
  5
336
 10
0.598607
 20
1.526829
 30
0.0
 11
0.597592
 21
1.526795
 31
0.0
  0
LINE
  8
TRMODEL1
  6
CONTINUOUS
 62
     7
  5
337
 10
0.597592
 20
1.526795
 30
0.0
 11
0.596578
 21
1.526762
 31
0.0
  0
LINE
  8
TRMODEL1
  6
CONTINUOUS
 62
     7
  5
338
 10
0.596578
 20
1.526762
 30
0.0
 11
0.595564
 21
1.526728
 31
0.0
  0
LINE
  8
TRMODEL1
  6
CONTINUOUS
 62
     7
  5
339
 10
-2.318898
 20
2.992126
 30
0.0
 11
-2.318898
 21
2.992728
 31
0.0
  0
LINE
  8
TRMODEL1
  6
CONTINUOUS
 62
     7
  5
33A
 10
2.318898
 20
2.992126
 30
0.0
 11
2.318898
 21
2.992728
 31
0.0
  0
LINE
  8
TRMODEL1
  6
CONTINUOUS
 62
     7
  5
33B
 10
-0.059055
 20
1.526659
 30
0.0
 11
-0.059055
 21
1.528147
 31
0.0
  0
LINE
  8
TRMODEL1
  6
CONTINUOUS
 62
     7
  5
33C
 10
-0.059055
 20
0.753693
 30
0.0
 11
-0.059055
 21
0.755181
 31
0.0
  0
LINE
  8
TRMODEL1
  6
CONTINUOUS
 62
     7
  5
33D
 10
-0.059055
 20
-0.792239
 30
0.0
 11
-0.059055
 21
-0.79075
 31
0.0
  0
LINE
  8
TRMODEL1
  6
CONTINUOUS
 62
     7
  5
33E
 10
-0.059055
 20
-1.565205
 30
0.0
 11
-0.059055
 21
-1.563716
 31
0.0
  0
ARC
  8
TRMODEL1
  6
CONTINUOUS
 62
     7
  5
33F
 10
0.0
 20
0.0
 30
0.0
 40
0.622441
 50
275.444221
 51
290.270065
  0
ARC
  8
TRMODEL1
  6
CONTINUOUS
 62
     7
  5
340
 10
0.0
 20
0.0
 30
0.0
 40
0.622441
 50
249.729935
 51
264.555779
  0
ARC
  8
TRMODEL1
  6
CONTINUOUS
 62
     7
  5
341
 10
0.0
 20
0.0
 30
0.0
 40
0.622441
 50
301.158507
 51
315.984351
  0
ARC
  8
TRMODEL1
  6
CONTINUOUS
 62
     7
  5
342
 10
0.0
 20
0.0
 30
0.0
 40
0.622441
 50
224.015649
 51
238.841493
  0
ARC
  8
TRMODEL1
  6
CONTINUOUS
 62
     7
  5
343
 10
0.0
 20
0.0
 30
0.0
 40
0.622441
 50
326.872792
 51
341.698636
  0
ARC
  8
TRMODEL1
  6
CONTINUOUS
 62
     7
  5
344
 10
0.0
 20
0.0
 30
0.0
 40
0.622441
 50
198.301364
 51
213.127208
  0
ARC
  8
TRMODEL1
  6
CONTINUOUS
 62
     7
  5
345
 10
0.0
 20
0.0
 30
0.0
 40
0.622441
 50
352.587078
 51
7.412922
  0
ARC
  8
TRMODEL1
  6
CONTINUOUS
 62
     7
  5
346
 10
0.0
 20
0.0
 30
0.0
 40
0.622441
 50
172.587078
 51
187.412922
  0
ARC
  8
TRMODEL1
  6
CONTINUOUS
 62
     7
  5
347
 10
0.0
 20
0.0
 30
0.0
 40
0.622441
 50
18.301364
 51
33.127208
  0
ARC
  8
TRMODEL1
  6
CONTINUOUS
 62
     7
  5
348
 10
0.0
 20
0.0
 30
0.0
 40
0.622441
 50
146.872792
 51
161.698636
  0
ARC
  8
TRMODEL1
  6
CONTINUOUS
 62
     7
  5
349
 10
0.0
 20
0.0
 30
0.0
 40
0.622441
 50
44.015649
 51
58.841493
  0
ARC
  8
TRMODEL1
  6
CONTINUOUS
 62
     7
  5
34A
 10
0.0
 20
0.0
 30
0.0
 40
0.622441
 50
121.158507
 51
135.984351
  0
ARC
  8
TRMODEL1
  6
CONTINUOUS
 62
     7
  5
34B
 10
0.0
 20
0.0
 30
0.0
 40
0.622441
 50
95.444221
 51
110.270065
  0
ARC
  8
TRMODEL1
  6
CONTINUOUS
 62
     7
  5
34C
 10
0.0
 20
0.0
 30
0.0
 40
0.622441
 50
69.729935
 51
84.555779
  0
LINE
  8
TRMODEL1
  6
CONTINUOUS
 62
     7
  5
34D
 10
0.347959
 20
0.858652
 30
0.0
 11
0.215642
 21
0.583893
 31
0.0
  0
LINE
  8
TRMODEL1
  6
CONTINUOUS
 62
     7
  5
34E
 10
0.454372
 20
0.807406
 30
0.0
 11
0.322056
 21
0.532647
 31
0.0
  0
LINE
  8
TRMODEL1
  6
CONTINUOUS
 62
     7
  5
34F
 10
0.686055
 20
0.622645
 30
0.0
 11
0.447628
 21
0.432506
 31
0.0
  0
LINE
  8
TRMODEL1
  6
CONTINUOUS
 62
     7
  5
350
 10
0.759696
 20
0.530303
 30
0.0
 11
0.521269
 21
0.340164
 31
0.0
  0
LINE
  8
TRMODEL1
  6
CONTINUOUS
 62
     7
  5
351
 10
0.88827
 20
0.263316
 30
0.0
 11
0.590957
 21
0.195456
 31
0.0
  0
LINE
  8
TRMODEL1
  6
CONTINUOUS
 62
     7
  5
352
 10
0.914552
 20
0.148167
 30
0.0
 11
0.617239
 21
0.080307
 31
0.0
  0
LINE
  8
TRMODEL1
  6
CONTINUOUS
 62
     7
  5
353
 10
0.914552
 20
-0.148167
 30
0.0
 11
0.617239
 21
-0.080307
 31
0.0
  0
LINE
  8
TRMODEL1
  6
CONTINUOUS
 62
     7
  5
354
 10
0.88827
 20
-0.263316
 30
0.0
 11
0.590957
 21
-0.195456
 31
0.0
  0
LINE
  8
TRMODEL1
  6
CONTINUOUS
 62
     7
  5
355
 10
0.759696
 20
-0.530303
 30
0.0
 11
0.521269
 21
-0.340164
 31
0.0
  0
LINE
  8
TRMODEL1
  6
CONTINUOUS
 62
     7
  5
356
 10
0.686055
 20
-0.622645
 30
0.0
 11
0.447628
 21
-0.432506
 31
0.0
  0
LINE
  8
TRMODEL1
  6
CONTINUOUS
 62
     7
  5
357
 10
0.454372
 20
-0.807406
 30
0.0
 11
0.322056
 21
-0.532647
 31
0.0
  0
LINE
  8
TRMODEL1
  6
CONTINUOUS
 62
     7
  5
358
 10
0.347959
 20
-0.858652
 30
0.0
 11
0.215642
 21
-0.583893
 31
0.0
  0
LINE
  8
TRMODEL1
  6
CONTINUOUS
 62
     7
  5
359
 10
-0.347959
 20
-0.858652
 30
0.0
 11
-0.215642
 21
-0.583893
 31
0.0
  0
LINE
  8
TRMODEL1
  6
CONTINUOUS
 62
     7
  5
35A
 10
0.059055
 20
-0.924592
 30
0.0
 11
0.059055
 21
-0.619633
 31
0.0
  0
ARC
  8
TRMODEL1
  6
CONTINUOUS
 62
     7
  5
35B
 10
0.0
 20
0.0
 30
0.0
 40
0.926476
 50
247.940319
 51
266.345396
  0
ARC
  8
TRMODEL1
  6
CONTINUOUS
 62
     7
  5
35C
 10
0.0
 20
0.0
 30
0.0
 40
0.926476
 50
222.226033
 51
240.63111
  0
ARC
  8
TRMODEL1
  6
CONTINUOUS
 62
     7
  5
35D
 10
0.0
 20
0.0
 30
0.0
 40
0.926476
 50
273.654604
 51
292.059681
  0
ARC
  8
TRMODEL1
  6
CONTINUOUS
 62
     7
  5
35E
 10
0.0
 20
0.0
 30
0.0
 40
0.926476
 50
196.511747
 51
214.916824
  0
ARC
  8
TRMODEL1
  6
CONTINUOUS
 62
     7
  5
35F
 10
0.0
 20
0.0
 30
0.0
 40
0.926476
 50
299.36889
 51
317.773967
  0
ARC
  8
TRMODEL1
  6
CONTINUOUS
 62
     7
  5
360
 10
0.0
 20
0.0
 30
0.0
 40
0.926476
 50
170.797461
 51
189.202539
  0
ARC
  8
TRMODEL1
  6
CONTINUOUS
 62
     7
  5
361
 10
0.0
 20
0.0
 30
0.0
 40
0.926476
 50
325.083176
 51
343.488253
  0
ARC
  8
TRMODEL1
  6
CONTINUOUS
 62
     7
  5
362
 10
0.0
 20
0.0
 30
0.0
 40
0.926476
 50
145.083176
 51
163.488253
  0
ARC
  8
TRMODEL1
  6
CONTINUOUS
 62
     7
  5
363
 10
0.0
 20
0.0
 30
0.0
 40
0.926476
 50
350.797461
 51
9.202539
  0
ARC
  8
TRMODEL1
  6
CONTINUOUS
 62
     7
  5
364
 10
0.0
 20
0.0
 30
0.0
 40
0.926476
 50
119.36889
 51
137.773967
  0
ARC
  8
TRMODEL1
  6
CONTINUOUS
 62
     7
  5
365
 10
0.0
 20
0.0
 30
0.0
 40
0.926476
 50
16.511747
 51
34.916824
  0
ARC
  8
TRMODEL1
  6
CONTINUOUS
 62
     7
  5
366
 10
0.0
 20
0.0
 30
0.0
 40
0.926476
 50
93.654604
 51
112.059681
  0
ARC
  8
TRMODEL1
  6
CONTINUOUS
 62
     7
  5
367
 10
0.0
 20
0.0
 30
0.0
 40
0.926476
 50
42.226033
 51
60.63111
  0
ARC
  8
TRMODEL1
  6
CONTINUOUS
 62
     7
  5
368
 10
0.0
 20
0.0
 30
0.0
 40
1.044587
 50
247.526627
 51
266.759087
  0
ARC
  8
TRMODEL1
  6
CONTINUOUS
 62
     7
  5
369
 10
0.0
 20
0.0
 30
0.0
 40
1.044587
 50
221.812341
 51
241.044802
  0
ARC
  8
TRMODEL1
  6
CONTINUOUS
 62
     7
  5
36A
 10
0.0
 20
0.0
 30
0.0
 40
1.044587
 50
273.240913
 51
292.473373
  0
ARC
  8
TRMODEL1
  6
CONTINUOUS
 62
     7
  5
36B
 10
0.0
 20
0.0
 30
0.0
 40
1.044587
 50
196.098056
 51
215.330516
  0
ARC
  8
TRMODEL1
  6
CONTINUOUS
 62
     7
  5
36C
 10
0.0
 20
0.0
 30
0.0
 40
1.044587
 50
298.955198
 51
318.187659
  0
ARC
  8
TRMODEL1
  6
CONTINUOUS
 62
     7
  5
36D
 10
0.0
 20
0.0
 30
0.0
 40
1.044587
 50
170.38377
 51
189.61623
  0
ARC
  8
TRMODEL1
  6
CONTINUOUS
 62
     7
  5
36E
 10
0.0
 20
0.0
 30
0.0
 40
1.044587
 50
324.669484
 51
343.901944
  0
ARC
  8
TRMODEL1
  6
CONTINUOUS
 62
     7
  5
36F
 10
0.0
 20
0.0
 30
0.0
 40
1.044587
 50
144.669484
 51
163.901944
  0
ARC
  8
TRMODEL1
  6
CONTINUOUS
 62
     7
  5
370
 10
0.0
 20
0.0
 30
0.0
 40
1.044587
 50
350.38377
 51
9.61623
  0
ARC
  8
TRMODEL1
  6
CONTINUOUS
 62
     7
  5
371
 10
0.0
 20
0.0
 30
0.0
 40
1.044587
 50
118.955198
 51
138.187659
  0
ARC
  8
TRMODEL1
  6
CONTINUOUS
 62
     7
  5
372
 10
0.0
 20
0.0
 30
0.0
 40
1.044587
 50
93.240913
 51
112.473373
  0
ARC
  8
TRMODEL1
  6
CONTINUOUS
 62
     7
  5
373
 10
0.0
 20
0.0
 30
0.0
 40
1.044587
 50
16.098056
 51
35.330516
  0
ARC
  8
TRMODEL1
  6
CONTINUOUS
 62
     7
  5
374
 10
0.0
 20
0.0
 30
0.0
 40
1.044587
 50
41.812341
 51
61.044802
  0
ARC
  8
TRMODEL1
  6
CONTINUOUS
 62
     7
  5
375
 10
0.0
 20
0.0
 30
0.0
 40
0.926476
 50
67.940319
 51
86.345396
  0
ARC
  8
TRMODEL1
  6
CONTINUOUS
 62
     7
  5
376
 10
0.0
 20
0.0
 30
0.0
 40
1.044587
 50
67.526627
 51
86.759087
  0
LINE
  8
TRMODEL1
  6
CONTINUOUS
 62
     7
  5
377
 10
0.505728
 20
1.186264
 30
0.0
 11
0.399297
 21
0.965258
 31
0.0
  0
LINE
  8
TRMODEL1
  6
CONTINUOUS
 62
     7
  5
378
 10
0.059055
 20
0.924592
 30
0.0
 11
0.059055
 21
0.619633
 31
0.0
  0
LINE
  8
TRMODEL1
  6
CONTINUOUS
 62
     7
  5
379
 10
0.612142
 20
1.135018
 30
0.0
 11
0.505711
 21
0.914012
 31
0.0
  0
LINE
  8
TRMODEL1
  6
CONTINUOUS
 62
     7
  5
37A
 10
0.970346
 20
0.849359
 30
0.0
 11
0.778564
 21
0.696419
 31
0.0
  0
LINE
  8
TRMODEL1
  6
CONTINUOUS
 62
     7
  5
37B
 10
-0.059055
 20
0.924592
 30
0.0
 11
-0.059055
 21
0.619633
 31
0.0
  0
LINE
  8
TRMODEL1
  6
CONTINUOUS
 62
     7
  5
37C
 10
1.043987
 20
0.757017
 30
0.0
 11
0.852205
 21
0.604076
 31
0.0
  0
LINE
  8
TRMODEL1
  6
CONTINUOUS
 62
     7
  5
37D
 10
-0.347959
 20
0.858652
 30
0.0
 11
-0.215642
 21
0.583893
 31
0.0
  0
LINE
  8
TRMODEL1
  6
CONTINUOUS
 62
     7
  5
37E
 10
1.242775
 20
0.344229
 30
0.0
 11
1.003627
 21
0.289645
 31
0.0
  0
LINE
  8
TRMODEL1
  6
CONTINUOUS
 62
     7
  5
37F
 10
-0.454372
 20
0.807406
 30
0.0
 11
-0.322056
 21
0.532647
 31
0.0
  0
LINE
  8
TRMODEL1
  6
CONTINUOUS
 62
     7
  5
380
 10
1.269057
 20
0.22908
 30
0.0
 11
1.029909
 21
0.174496
 31
0.0
  0
LINE
  8
TRMODEL1
  6
CONTINUOUS
 62
     7
  5
381
 10
-0.686055
 20
0.622645
 30
0.0
 11
-0.447628
 21
0.432506
 31
0.0
  0
LINE
  8
TRMODEL1
  6
CONTINUOUS
 62
     7
  5
382
 10
1.269057
 20
-0.22908
 30
0.0
 11
1.029909
 21
-0.174496
 31
0.0
  0
LINE
  8
TRMODEL1
  6
CONTINUOUS
 62
     7
  5
383
 10
-0.759696
 20
0.530303
 30
0.0
 11
-0.521269
 21
0.340164
 31
0.0
  0
LINE
  8
TRMODEL1
  6
CONTINUOUS
 62
     7
  5
384
 10
1.242775
 20
-0.344229
 30
0.0
 11
1.003627
 21
-0.289645
 31
0.0
  0
LINE
  8
TRMODEL1
  6
CONTINUOUS
 62
     7
  5
385
 10
-0.88827
 20
0.263316
 30
0.0
 11
-0.590957
 21
0.195456
 31
0.0
  0
LINE
  8
TRMODEL1
  6
CONTINUOUS
 62
     7
  5
386
 10
1.043987
 20
-0.757017
 30
0.0
 11
0.852205
 21
-0.604076
 31
0.0
  0
LINE
  8
TRMODEL1
  6
CONTINUOUS
 62
     7
  5
387
 10
-0.914552
 20
0.148167
 30
0.0
 11
-0.617239
 21
0.080307
 31
0.0
  0
LINE
  8
TRMODEL1
  6
CONTINUOUS
 62
     7
  5
388
 10
0.970346
 20
-0.849359
 30
0.0
 11
0.778564
 21
-0.696419
 31
0.0
  0
LINE
  8
TRMODEL1
  6
CONTINUOUS
 62
     7
  5
389
 10
-0.914552
 20
-0.148167
 30
0.0
 11
-0.617239
 21
-0.080307
 31
0.0
  0
LINE
  8
TRMODEL1
  6
CONTINUOUS
 62
     7
  5
38A
 10
0.612142
 20
-1.135018
 30
0.0
 11
0.505711
 21
-0.914012
 31
0.0
  0
LINE
  8
TRMODEL1
  6
CONTINUOUS
 62
     7
  5
38B
 10
-0.88827
 20
-0.263316
 30
0.0
 11
-0.590957
 21
-0.195456
 31
0.0
  0
LINE
  8
TRMODEL1
  6
CONTINUOUS
 62
     7
  5
38C
 10
0.505728
 20
-1.186264
 30
0.0
 11
0.399297
 21
-0.965258
 31
0.0
  0
LINE
  8
TRMODEL1
  6
CONTINUOUS
 62
     7
  5
38D
 10
-0.759696
 20
-0.530303
 30
0.0
 11
-0.521269
 21
-0.340164
 31
0.0
  0
LINE
  8
TRMODEL1
  6
CONTINUOUS
 62
     7
  5
38E
 10
0.059055
 20
-1.288214
 30
0.0
 11
0.059055
 21
-1.042916
 31
0.0
  0
LINE
  8
TRMODEL1
  6
CONTINUOUS
 62
     7
  5
38F
 10
-0.686055
 20
-0.622645
 30
0.0
 11
-0.447628
 21
-0.432506
 31
0.0
  0
LINE
  8
TRMODEL1
  6
CONTINUOUS
 62
     7
  5
390
 10
-0.059055
 20
-1.042916
 30
0.0
 11
-0.059055
 21
-1.288214
 31
0.0
  0
LINE
  8
TRMODEL1
  6
CONTINUOUS
 62
     7
  5
391
 10
-0.454372
 20
-0.807406
 30
0.0
 11
-0.322056
 21
-0.532647
 31
0.0
  0
LINE
  8
TRMODEL1
  6
CONTINUOUS
 62
     7
  5
392
 10
-0.059055
 20
-0.619633
 30
0.0
 11
-0.059055
 21
-0.924592
 31
0.0
  0
ARC
  8
TRMODEL1
  6
CONTINUOUS
 62
     7
  5
393
 10
0.0
 20
0.0
 30
0.0
 40
1.289567
 50
41.19618
 51
61.660963
  0
ARC
  8
TRMODEL1
  6
CONTINUOUS
 62
     7
  5
394
 10
0.0
 20
0.0
 30
0.0
 40
1.289567
 50
15.481894
 51
35.946677
  0
ARC
  8
TRMODEL1
  6
CONTINUOUS
 62
     7
  5
395
 10
0.0
 20
0.0
 30
0.0
 40
1.289567
 50
349.767609
 51
10.232391
  0
ARC
  8
TRMODEL1
  6
CONTINUOUS
 62
     7
  5
396
 10
0.0
 20
0.0
 30
0.0
 40
1.289567
 50
324.053323
 51
344.518106
  0
ARC
  8
TRMODEL1
  6
CONTINUOUS
 62
     7
  5
397
 10
0.0
 20
0.0
 30
0.0
 40
1.289567
 50
298.339037
 51
318.80382
  0
ARC
  8
TRMODEL1
  6
CONTINUOUS
 62
     7
  5
398
 10
0.0
 20
0.0
 30
0.0
 40
1.289567
 50
272.624752
 51
293.089534
  0
ARC
  8
TRMODEL1
  6
CONTINUOUS
 62
     7
  5
399
 10
0.0
 20
0.0
 30
0.0
 40
1.289567
 50
246.910466
 51
267.375248
  0
LINE
  8
TRMODEL1
  6
CONTINUOUS
 62
     7
  5
39A
 10
-0.505728
 20
-1.186264
 30
0.0
 11
-0.399297
 21
-0.965258
 31
0.0
  0
LINE
  8
TRMODEL1
  6
CONTINUOUS
 62
     7
  5
39B
 10
0.059055
 20
1.288214
 30
0.0
 11
0.059055
 21
1.042916
 31
0.0
  0
ARC
  8
TRMODEL1
  6
CONTINUOUS
 62
     7
  5
39C
 10
0.0
 20
0.0
 30
0.0
 40
1.289567
 50
66.910466
 51
87.375248
  0
LINE
  8
TRMODEL1
  6
CONTINUOUS
 62
     7
  5
39D
 10
-0.505728
 20
1.186264
 30
0.0
 11
-0.399297
 21
0.965258
 31
0.0
  0
ARC
  8
TRMODEL1
  6
CONTINUOUS
 62
     7
  5
39E
 10
0.0
 20
0.0
 30
0.0
 40
1.289567
 50
92.624752
 51
113.089534
  0
LINE
  8
TRMODEL1
  6
CONTINUOUS
 62
     7
  5
39F
 10
-0.059055
 20
1.288214
 30
0.0
 11
-0.059055
 21
1.042916
 31
0.0
  0
LINE
  8
TRMODEL1
  6
CONTINUOUS
 62
     7
  5
3A0
 10
-0.970346
 20
0.849359
 30
0.0
 11
-0.778564
 21
0.696419
 31
0.0
  0
ARC
  8
TRMODEL1
  6
CONTINUOUS
 62
     7
  5
3A1
 10
0.0
 20
0.0
 30
0.0
 40
1.289567
 50
118.339037
 51
138.80382
  0
LINE
  8
TRMODEL1
  6
CONTINUOUS
 62
     7
  5
3A2
 10
-0.612142
 20
1.135018
 30
0.0
 11
-0.505711
 21
0.914012
 31
0.0
  0
LINE
  8
TRMODEL1
  6
CONTINUOUS
 62
     7
  5
3A3
 10
-1.242775
 20
0.344229
 30
0.0
 11
-1.003627
 21
0.289645
 31
0.0
  0
ARC
  8
TRMODEL1
  6
CONTINUOUS
 62
     7
  5
3A4
 10
0.0
 20
0.0
 30
0.0
 40
1.289567
 50
144.053323
 51
164.518106
  0
LINE
  8
TRMODEL1
  6
CONTINUOUS
 62
     7
  5
3A5
 10
-1.043987
 20
0.757017
 30
0.0
 11
-0.852205
 21
0.604076
 31
0.0
  0
LINE
  8
TRMODEL1
  6
CONTINUOUS
 62
     7
  5
3A6
 10
-1.269057
 20
-0.22908
 30
0.0
 11
-1.029909
 21
-0.174496
 31
0.0
  0
ARC
  8
TRMODEL1
  6
CONTINUOUS
 62
     7
  5
3A7
 10
0.0
 20
0.0
 30
0.0
 40
1.289567
 50
169.767609
 51
190.232391
  0
LINE
  8
TRMODEL1
  6
CONTINUOUS
 62
     7
  5
3A8
 10
-1.269057
 20
0.22908
 30
0.0
 11
-1.029909
 21
0.174496
 31
0.0
  0
LINE
  8
TRMODEL1
  6
CONTINUOUS
 62
     7
  5
3A9
 10
-1.043987
 20
-0.757017
 30
0.0
 11
-0.852205
 21
-0.604076
 31
0.0
  0
ARC
  8
TRMODEL1
  6
CONTINUOUS
 62
     7
  5
3AA
 10
0.0
 20
0.0
 30
0.0
 40
1.289567
 50
195.481894
 51
215.946677
  0
LINE
  8
TRMODEL1
  6
CONTINUOUS
 62
     7
  5
3AB
 10
-1.242775
 20
-0.344229
 30
0.0
 11
-1.003627
 21
-0.289645
 31
0.0
  0
LINE
  8
TRMODEL1
  6
CONTINUOUS
 62
     7
  5
3AC
 10
-0.612142
 20
-1.135018
 30
0.0
 11
-0.505711
 21
-0.914012
 31
0.0
  0
ARC
  8
TRMODEL1
  6
CONTINUOUS
 62
     7
  5
3AD
 10
0.0
 20
0.0
 30
0.0
 40
1.289567
 50
221.19618
 51
241.660963
  0
LINE
  8
TRMODEL1
  6
CONTINUOUS
 62
     7
  5
3AE
 10
-0.970346
 20
-0.849359
 30
0.0
 11
-0.778564
 21
-0.696419
 31
0.0
  0
LINE
  8
TRMODEL1
  6
CONTINUOUS
 62
     7
  5
3AF
 10
2.440945
 20
2.322835
 30
0.0
 11
2.440945
 21
-2.322835
 31
0.0
  0
ARC
  8
TRMODEL1
  6
CONTINUOUS
 62
     7
  5
3B0
 10
2.322835
 20
2.322835
 30
0.0
 40
0.11811
 50
0.0
 51
90.0
  0
LINE
  8
TRMODEL1
  6
CONTINUOUS
 62
     7
  5
3B1
 10
-2.322835
 20
2.440945
 30
0.0
 11
2.322835
 21
2.440945
 31
0.0
  0
ARC
  8
TRMODEL1
  6
CONTINUOUS
 62
     7
  5
3B2
 10
-2.322835
 20
2.322835
 30
0.0
 40
0.11811
 50
90.0
 51
180.0
  0
LINE
  8
TRMODEL1
  6
CONTINUOUS
 62
     7
  5
3B3
 10
-2.440945
 20
-2.322835
 30
0.0
 11
-2.440945
 21
2.322835
 31
0.0
  0
ARC
  8
TRMODEL1
  6
CONTINUOUS
 62
     7
  5
3B4
 10
-2.322835
 20
-2.322835
 30
0.0
 40
0.11811
 50
180.0
 51
270.0
  0
LINE
  8
TRMODEL1
  6
CONTINUOUS
 62
     7
  5
3B5
 10
2.322835
 20
-2.440945
 30
0.0
 11
-2.322835
 21
-2.440945
 31
0.0
  0
ARC
  8
TRMODEL1
  6
CONTINUOUS
 62
     7
  5
3B6
 10
2.322835
 20
-2.322835
 30
0.0
 40
0.11811
 50
270.0
 51
0.0
  0
ARC
  8
TRMODEL1
  6
CONTINUOUS
 62
     7
  5
3B7
 10
0.0
 20
0.0
 30
0.0
 40
1.770768
 50
66.196883
 51
88.088831
  0
LINE
  8
TRMODEL1
  6
CONTINUOUS
 62
     7
  5
3B8
 10
0.059055
 20
2.073963
 30
0.0
 11
0.059055
 21
1.769783
 31
0.0
  0
ARC
  8
TRMODEL1
  6
CONTINUOUS
 62
     7
  5
3B9
 10
0.0
 20
0.0
 30
0.0
 40
2.074803
 50
65.916744
 51
88.36897
  0
LINE
  8
TRMODEL1
  6
CONTINUOUS
 62
     7
  5
3BA
 10
0.846652
 20
1.894199
 30
0.0
 11
0.714673
 21
1.620142
 31
0.0
  0
ARC
  8
TRMODEL1
  6
CONTINUOUS
 62
     7
  5
3BB
 10
0.0
 20
0.0
 30
0.0
 40
1.770768
 50
40.482598
 51
62.374545
  0
LINE
  8
TRMODEL1
  6
CONTINUOUS
 62
     7
  5
3BC
 10
0.953065
 20
1.842953
 30
0.0
 11
0.821087
 21
1.568896
 31
0.0
  0
ARC
  8
TRMODEL1
  6
CONTINUOUS
 62
     7
  5
3BD
 10
0.0
 20
0.0
 30
0.0
 40
2.074803
 50
40.202459
 51
62.654684
  0
LINE
  8
TRMODEL1
  6
CONTINUOUS
 62
     7
  5
3BE
 10
1.584669
 20
1.339266
 30
0.0
 11
1.346852
 21
1.149613
 31
0.0
  0
ARC
  8
TRMODEL1
  6
CONTINUOUS
 62
     7
  5
3BF
 10
0.0
 20
0.0
 30
0.0
 40
1.770768
 50
14.768312
 51
36.660259
  0
LINE
  8
TRMODEL1
  6
CONTINUOUS
 62
     7
  5
3C0
 10
1.658309
 20
1.246923
 30
0.0
 11
1.420492
 21
1.05727
 31
0.0
  0
ARC
  8
TRMODEL1
  6
CONTINUOUS
 62
     7
  5
3C1
 10
0.0
 20
0.0
 30
0.0
 40
2.074803
 50
14.488173
 51
36.940399
  0
LINE
  8
TRMODEL1
  6
CONTINUOUS
 62
     7
  5
3C2
 10
2.008823
 20
0.519075
 30
0.0
 11
1.71227
 21
0.451388
 31
0.0
  0
ARC
  8
TRMODEL1
  6
CONTINUOUS
 62
     7
  5
3C3
 10
0.0
 20
0.0
 30
0.0
 40
1.770768
 50
349.054026
 51
10.945974
  0
LINE
  8
TRMODEL1
  6
CONTINUOUS
 62
     7
  5
3C4
 10
2.035105
 20
0.403926
 30
0.0
 11
1.738552
 21
0.336239
 31
0.0
  0
ARC
  8
TRMODEL1
  6
CONTINUOUS
 62
     7
  5
3C5
 10
0.0
 20
0.0
 30
0.0
 40
2.074803
 50
348.773887
 51
11.226113
  0
LINE
  8
TRMODEL1
  6
CONTINUOUS
 62
     7
  5
3C6
 10
2.035105
 20
-0.403926
 30
0.0
 11
1.738552
 21
-0.336239
 31
0.0
  0
ARC
  8
TRMODEL1
  6
CONTINUOUS
 62
     7
  5
3C7
 10
0.0
 20
0.0
 30
0.0
 40
1.770768
 50
323.339741
 51
345.231688
  0
LINE
  8
TRMODEL1
  6
CONTINUOUS
 62
     7
  5
3C8
 10
2.008823
 20
-0.519075
 30
0.0
 11
1.71227
 21
-0.451388
 31
0.0
  0
ARC
  8
TRMODEL1
  6
CONTINUOUS
 62
     7
  5
3C9
 10
0.0
 20
0.0
 30
0.0
 40
2.074803
 50
323.059601
 51
345.511827
  0
LINE
  8
TRMODEL1
  6
CONTINUOUS
 62
     7
  5
3CA
 10
1.658309
 20
-1.246923
 30
0.0
 11
1.420492
 21
-1.05727
 31
0.0
  0
ARC
  8
TRMODEL1
  6
CONTINUOUS
 62
     7
  5
3CB
 10
0.0
 20
0.0
 30
0.0
 40
1.770768
 50
297.625455
 51
319.517402
  0
LINE
  8
TRMODEL1
  6
CONTINUOUS
 62
     7
  5
3CC
 10
1.584669
 20
-1.339266
 30
0.0
 11
1.346852
 21
-1.149613
 31
0.0
  0
ARC
  8
TRMODEL1
  6
CONTINUOUS
 62
     7
  5
3CD
 10
0.0
 20
0.0
 30
0.0
 40
2.074803
 50
297.345316
 51
319.797541
  0
LINE
  8
TRMODEL1
  6
CONTINUOUS
 62
     7
  5
3CE
 10
0.953065
 20
-1.842953
 30
0.0
 11
0.821087
 21
-1.568896
 31
0.0
  0
ARC
  8
TRMODEL1
  6
CONTINUOUS
 62
     7
  5
3CF
 10
0.0
 20
0.0
 30
0.0
 40
1.770768
 50
271.911169
 51
293.803117
  0
LINE
  8
TRMODEL1
  6
CONTINUOUS
 62
     7
  5
3D0
 10
0.846652
 20
-1.894199
 30
0.0
 11
0.714673
 21
-1.620142
 31
0.0
  0
ARC
  8
TRMODEL1
  6
CONTINUOUS
 62
     7
  5
3D1
 10
0.0
 20
0.0
 30
0.0
 40
2.074803
 50
271.63103
 51
294.083256
  0
LINE
  8
TRMODEL1
  6
CONTINUOUS
 62
     7
  5
3D2
 10
0.059055
 20
-2.073963
 30
0.0
 11
0.059055
 21
-1.769783
 31
0.0
  0
LINE
  8
TRMODEL1
  6
CONTINUOUS
 62
     7
  5
3D3
 10
-0.846652
 20
1.894199
 30
0.0
 11
-0.714673
 21
1.620142
 31
0.0
  0
ARC
  8
TRMODEL1
  6
CONTINUOUS
 62
     7
  5
3D4
 10
0.0
 20
0.0
 30
0.0
 40
2.074803
 50
91.63103
 51
114.083256
  0
LINE
  8
TRMODEL1
  6
CONTINUOUS
 62
     7
  5
3D5
 10
-0.059055
 20
2.073963
 30
0.0
 11
-0.059055
 21
1.769783
 31
0.0
  0
ARC
  8
TRMODEL1
  6
CONTINUOUS
 62
     7
  5
3D6
 10
0.0
 20
0.0
 30
0.0
 40
1.770768
 50
91.911169
 51
113.803117
  0
LINE
  8
TRMODEL1
  6
CONTINUOUS
 62
     7
  5
3D7
 10
-1.584669
 20
1.339266
 30
0.0
 11
-1.346852
 21
1.149613
 31
0.0
  0
ARC
  8
TRMODEL1
  6
CONTINUOUS
 62
     7
  5
3D8
 10
0.0
 20
0.0
 30
0.0
 40
2.074803
 50
117.345316
 51
139.797541
  0
LINE
  8
TRMODEL1
  6
CONTINUOUS
 62
     7
  5
3D9
 10
-0.953065
 20
1.842953
 30
0.0
 11
-0.821087
 21
1.568896
 31
0.0
  0
ARC
  8
TRMODEL1
  6
CONTINUOUS
 62
     7
  5
3DA
 10
0.0
 20
0.0
 30
0.0
 40
1.770768
 50
117.625455
 51
139.517402
  0
LINE
  8
TRMODEL1
  6
CONTINUOUS
 62
     7
  5
3DB
 10
-2.008823
 20
0.519075
 30
0.0
 11
-1.71227
 21
0.451388
 31
0.0
  0
ARC
  8
TRMODEL1
  6
CONTINUOUS
 62
     7
  5
3DC
 10
0.0
 20
0.0
 30
0.0
 40
2.074803
 50
143.059601
 51
165.511827
  0
LINE
  8
TRMODEL1
  6
CONTINUOUS
 62
     7
  5
3DD
 10
-1.658309
 20
1.246923
 30
0.0
 11
-1.420492
 21
1.05727
 31
0.0
  0
ARC
  8
TRMODEL1
  6
CONTINUOUS
 62
     7
  5
3DE
 10
0.0
 20
0.0
 30
0.0
 40
1.770768
 50
143.339741
 51
165.231688
  0
LINE
  8
TRMODEL1
  6
CONTINUOUS
 62
     7
  5
3DF
 10
-2.035105
 20
-0.403926
 30
0.0
 11
-1.738552
 21
-0.336239
 31
0.0
  0
ARC
  8
TRMODEL1
  6
CONTINUOUS
 62
     7
  5
3E0
 10
0.0
 20
0.0
 30
0.0
 40
2.074803
 50
168.773887
 51
191.226113
  0
LINE
  8
TRMODEL1
  6
CONTINUOUS
 62
     7
  5
3E1
 10
-2.035105
 20
0.403926
 30
0.0
 11
-1.738552
 21
0.336239
 31
0.0
  0
ARC
  8
TRMODEL1
  6
CONTINUOUS
 62
     7
  5
3E2
 10
0.0
 20
0.0
 30
0.0
 40
1.770768
 50
169.054026
 51
190.945974
  0
LINE
  8
TRMODEL1
  6
CONTINUOUS
 62
     7
  5
3E3
 10
-1.658309
 20
-1.246923
 30
0.0
 11
-1.420492
 21
-1.05727
 31
0.0
  0
ARC
  8
TRMODEL1
  6
CONTINUOUS
 62
     7
  5
3E4
 10
0.0
 20
0.0
 30
0.0
 40
2.074803
 50
194.488173
 51
216.940399
  0
LINE
  8
TRMODEL1
  6
CONTINUOUS
 62
     7
  5
3E5
 10
-2.008823
 20
-0.519075
 30
0.0
 11
-1.71227
 21
-0.451388
 31
0.0
  0
ARC
  8
TRMODEL1
  6
CONTINUOUS
 62
     7
  5
3E6
 10
0.0
 20
0.0
 30
0.0
 40
1.770768
 50
194.768312
 51
216.660259
  0
LINE
  8
TRMODEL1
  6
CONTINUOUS
 62
     7
  5
3E7
 10
-0.953065
 20
-1.842953
 30
0.0
 11
-0.821087
 21
-1.568896
 31
0.0
  0
ARC
  8
TRMODEL1
  6
CONTINUOUS
 62
     7
  5
3E8
 10
0.0
 20
0.0
 30
0.0
 40
2.074803
 50
220.202459
 51
242.654684
  0
LINE
  8
TRMODEL1
  6
CONTINUOUS
 62
     7
  5
3E9
 10
-1.584669
 20
-1.339266
 30
0.0
 11
-1.346852
 21
-1.149613
 31
0.0
  0
ARC
  8
TRMODEL1
  6
CONTINUOUS
 62
     7
  5
3EA
 10
0.0
 20
0.0
 30
0.0
 40
1.770768
 50
220.482598
 51
242.374545
  0
LINE
  8
TRMODEL1
  6
CONTINUOUS
 62
     7
  5
3EB
 10
-0.059055
 20
-1.769783
 30
0.0
 11
-0.059055
 21
-2.073963
 31
0.0
  0
ARC
  8
TRMODEL1
  6
CONTINUOUS
 62
     7
  5
3EC
 10
0.0
 20
0.0
 30
0.0
 40
2.074803
 50
245.916744
 51
268.36897
  0
LINE
  8
TRMODEL1
  6
CONTINUOUS
 62
     7
  5
3ED
 10
-0.846652
 20
-1.894199
 30
0.0
 11
-0.714673
 21
-1.620142
 31
0.0
  0
ARC
  8
TRMODEL1
  6
CONTINUOUS
 62
     7
  5
3EE
 10
0.0
 20
0.0
 30
0.0
 40
1.770768
 50
246.196883
 51
268.088831
  0
ARC
  8
TRMODEL1
  6
CONTINUOUS
 62
     7
  5
3EF
 10
0.0
 20
0.0
 30
0.0
 40
1.407677
 50
220.975817
 51
241.881326
  0
LINE
  8
TRMODEL1
  6
CONTINUOUS
 62
     7
  5
3F0
 10
-0.76981
 20
-1.462419
 30
0.0
 11
-0.663437
 21
-1.241534
 31
0.0
  0
ARC
  8
TRMODEL1
  6
CONTINUOUS
 62
     7
  5
3F1
 10
0.0
 20
0.0
 30
0.0
 40
1.652657
 50
220.619239
 51
242.237904
  0
LINE
  8
TRMODEL1
  6
CONTINUOUS
 62
     7
  5
3F2
 10
-1.254454
 20
-1.075928
 30
0.0
 11
-1.062777
 21
-0.923071
 31
0.0
  0
ARC
  8
TRMODEL1
  6
CONTINUOUS
 62
     7
  5
3F3
 10
0.0
 20
0.0
 30
0.0
 40
1.407677
 50
195.261531
 51
216.16704
  0
LINE
  8
TRMODEL1
  6
CONTINUOUS
 62
     7
  5
3F4
 10
-1.328095
 20
-0.983586
 30
0.0
 11
-1.136418
 21
-0.830729
 31
0.0
  0
ARC
  8
TRMODEL1
  6
CONTINUOUS
 62
     7
  5
3F5
 10
0.0
 20
0.0
 30
0.0
 40
1.652657
 50
194.904953
 51
216.523618
  0
LINE
  8
TRMODEL1
  6
CONTINUOUS
 62
     7
  5
3F6
 10
-1.597052
 20
-0.425091
 30
0.0
 11
-1.358035
 21
-0.370536
 31
0.0
  0
ARC
  8
TRMODEL1
  6
CONTINUOUS
 62
     7
  5
3F7
 10
0.0
 20
0.0
 30
0.0
 40
1.407677
 50
169.547245
 51
190.452755
  0
LINE
  8
TRMODEL1
  6
CONTINUOUS
 62
     7
  5
3F8
 10
-1.623334
 20
-0.309942
 30
0.0
 11
-1.384317
 21
-0.255387
 31
0.0
  0
ARC
  8
TRMODEL1
  6
CONTINUOUS
 62
     7
  5
3F9
 10
0.0
 20
0.0
 30
0.0
 40
1.652657
 50
169.190668
 51
190.809332
  0
LINE
  8
TRMODEL1
  6
CONTINUOUS
 62
     7
  5
3FA
 10
-1.623334
 20
0.309942
 30
0.0
 11
-1.384317
 21
0.255387
 31
0.0
  0
ARC
  8
TRMODEL1
  6
CONTINUOUS
 62
     7
  5
3FB
 10
0.0
 20
0.0
 30
0.0
 40
1.407677
 50
143.83296
 51
164.738469
  0
LINE
  8
TRMODEL1
  6
CONTINUOUS
 62
     7
  5
3FC
 10
-1.597052
 20
0.425091
 30
0.0
 11
-1.358035
 21
0.370536
 31
0.0
  0
ARC
  8
TRMODEL1
  6
CONTINUOUS
 62
     7
  5
3FD
 10
0.0
 20
0.0
 30
0.0
 40
1.652657
 50
143.476382
 51
165.095047
  0
LINE
  8
TRMODEL1
  6
CONTINUOUS
 62
     7
  5
3FE
 10
-1.328095
 20
0.983586
 30
0.0
 11
-1.136418
 21
0.830729
 31
0.0
  0
ARC
  8
TRMODEL1
  6
CONTINUOUS
 62
     7
  5
3FF
 10
0.0
 20
0.0
 30
0.0
 40
1.407677
 50
118.118674
 51
139.024183
  0
LINE
  8
TRMODEL1
  6
CONTINUOUS
 62
     7
  5
400
 10
-1.254454
 20
1.075928
 30
0.0
 11
-1.062777
 21
0.923071
 31
0.0
  0
ARC
  8
TRMODEL1
  6
CONTINUOUS
 62
     7
  5
401
 10
0.0
 20
0.0
 30
0.0
 40
1.652657
 50
117.762096
 51
139.380761
  0
LINE
  8
TRMODEL1
  6
CONTINUOUS
 62
     7
  5
402
 10
-0.76981
 20
1.462419
 30
0.0
 11
-0.663437
 21
1.241534
 31
0.0
  0
ARC
  8
TRMODEL1
  6
CONTINUOUS
 62
     7
  5
403
 10
0.0
 20
0.0
 30
0.0
 40
1.407677
 50
92.404388
 51
113.309898
  0
LINE
  8
TRMODEL1
  6
CONTINUOUS
 62
     7
  5
404
 10
-0.663396
 20
1.513665
 30
0.0
 11
-0.557024
 21
1.29278
 31
0.0
  0
ARC
  8
TRMODEL1
  6
CONTINUOUS
 62
     7
  5
405
 10
0.0
 20
0.0
 30
0.0
 40
1.652657
 50
92.047811
 51
113.666475
  0
LINE
  8
TRMODEL1
  6
CONTINUOUS
 62
     7
  5
406
 10
-0.059055
 20
1.651602
 30
0.0
 11
-0.059055
 21
1.406438
 31
0.0
  0
LINE
  8
TRMODEL1
  6
CONTINUOUS
 62
     7
  5
407
 10
-0.059055
 20
-1.406438
 30
0.0
 11
-0.059055
 21
-1.651602
 31
0.0
  0
ARC
  8
TRMODEL1
  6
CONTINUOUS
 62
     7
  5
408
 10
0.0
 20
0.0
 30
0.0
 40
1.652657
 50
246.333525
 51
267.952189
  0
LINE
  8
TRMODEL1
  6
CONTINUOUS
 62
     7
  5
409
 10
-0.663396
 20
-1.513665
 30
0.0
 11
-0.557024
 21
-1.29278
 31
0.0
  0
ARC
  8
TRMODEL1
  6
CONTINUOUS
 62
     7
  5
40A
 10
0.0
 20
0.0
 30
0.0
 40
1.407677
 50
246.690102
 51
267.595612
  0
LINE
  8
TRMODEL1
  6
CONTINUOUS
 62
     7
  5
40B
 10
0.663396
 20
-1.513665
 30
0.0
 11
0.557024
 21
-1.29278
 31
0.0
  0
ARC
  8
TRMODEL1
  6
CONTINUOUS
 62
     7
  5
40C
 10
0.0
 20
0.0
 30
0.0
 40
1.652657
 50
272.047811
 51
293.666475
  0
LINE
  8
TRMODEL1
  6
CONTINUOUS
 62
     7
  5
40D
 10
0.059055
 20
-1.651602
 30
0.0
 11
0.059055
 21
-1.406438
 31
0.0
  0
ARC
  8
TRMODEL1
  6
CONTINUOUS
 62
     7
  5
40E
 10
0.0
 20
0.0
 30
0.0
 40
1.407677
 50
272.404388
 51
293.309898
  0
LINE
  8
TRMODEL1
  6
CONTINUOUS
 62
     7
  5
40F
 10
1.254454
 20
-1.075928
 30
0.0
 11
1.062777
 21
-0.923071
 31
0.0
  0
ARC
  8
TRMODEL1
  6
CONTINUOUS
 62
     7
  5
410
 10
0.0
 20
0.0
 30
0.0
 40
1.652657
 50
297.762096
 51
319.380761
  0
LINE
  8
TRMODEL1
  6
CONTINUOUS
 62
     7
  5
411
 10
0.76981
 20
-1.462419
 30
0.0
 11
0.663437
 21
-1.241534
 31
0.0
  0
ARC
  8
TRMODEL1
  6
CONTINUOUS
 62
     7
  5
412
 10
0.0
 20
0.0
 30
0.0
 40
1.407677
 50
298.118674
 51
319.024183
  0
LINE
  8
TRMODEL1
  6
CONTINUOUS
 62
     7
  5
413
 10
1.597052
 20
-0.425091
 30
0.0
 11
1.358035
 21
-0.370536
 31
0.0
  0
ARC
  8
TRMODEL1
  6
CONTINUOUS
 62
     7
  5
414
 10
0.0
 20
0.0
 30
0.0
 40
1.652657
 50
323.476382
 51
345.095047
  0
LINE
  8
TRMODEL1
  6
CONTINUOUS
 62
     7
  5
415
 10
1.328095
 20
-0.983586
 30
0.0
 11
1.136418
 21
-0.830729
 31
0.0
  0
ARC
  8
TRMODEL1
  6
CONTINUOUS
 62
     7
  5
416
 10
0.0
 20
0.0
 30
0.0
 40
1.407677
 50
323.83296
 51
344.738469
  0
LINE
  8
TRMODEL1
  6
CONTINUOUS
 62
     7
  5
417
 10
1.623334
 20
0.309942
 30
0.0
 11
1.384317
 21
0.255387
 31
0.0
  0
ARC
  8
TRMODEL1
  6
CONTINUOUS
 62
     7
  5
418
 10
0.0
 20
0.0
 30
0.0
 40
1.652657
 50
349.190668
 51
10.809332
  0
LINE
  8
TRMODEL1
  6
CONTINUOUS
 62
     7
  5
419
 10
1.623334
 20
-0.309942
 30
0.0
 11
1.384317
 21
-0.255387
 31
0.0
  0
ARC
  8
TRMODEL1
  6
CONTINUOUS
 62
     7
  5
41A
 10
0.0
 20
0.0
 30
0.0
 40
1.407677
 50
349.547245
 51
10.452755
  0
LINE
  8
TRMODEL1
  6
CONTINUOUS
 62
     7
  5
41B
 10
1.328095
 20
0.983586
 30
0.0
 11
1.136418
 21
0.830729
 31
0.0
  0
ARC
  8
TRMODEL1
  6
CONTINUOUS
 62
     7
  5
41C
 10
0.0
 20
0.0
 30
0.0
 40
1.652657
 50
14.904953
 51
36.523618
  0
LINE
  8
TRMODEL1
  6
CONTINUOUS
 62
     7
  5
41D
 10
1.597052
 20
0.425091
 30
0.0
 11
1.358035
 21
0.370536
 31
0.0
  0
ARC
  8
TRMODEL1
  6
CONTINUOUS
 62
     7
  5
41E
 10
0.0
 20
0.0
 30
0.0
 40
1.407677
 50
15.261531
 51
36.16704
  0
LINE
  8
TRMODEL1
  6
CONTINUOUS
 62
     7
  5
41F
 10
0.76981
 20
1.462419
 30
0.0
 11
0.663437
 21
1.241534
 31
0.0
  0
ARC
  8
TRMODEL1
  6
CONTINUOUS
 62
     7
  5
420
 10
0.0
 20
0.0
 30
0.0
 40
1.652657
 50
40.619239
 51
62.237904
  0
LINE
  8
TRMODEL1
  6
CONTINUOUS
 62
     7
  5
421
 10
1.254454
 20
1.075928
 30
0.0
 11
1.062777
 21
0.923071
 31
0.0
  0
ARC
  8
TRMODEL1
  6
CONTINUOUS
 62
     7
  5
422
 10
0.0
 20
0.0
 30
0.0
 40
1.407677
 50
40.975817
 51
61.881326
  0
LINE
  8
TRMODEL1
  6
CONTINUOUS
 62
     7
  5
423
 10
0.059055
 20
1.651602
 30
0.0
 11
0.059055
 21
1.406438
 31
0.0
  0
ARC
  8
TRMODEL1
  6
CONTINUOUS
 62
     7
  5
424
 10
0.0
 20
0.0
 30
0.0
 40
1.652657
 50
66.333525
 51
87.952189
  0
LINE
  8
TRMODEL1
  6
CONTINUOUS
 62
     7
  5
425
 10
0.663396
 20
1.513665
 30
0.0
 11
0.557024
 21
1.29278
 31
0.0
  0
ARC
  8
TRMODEL1
  6
CONTINUOUS
 62
     7
  5
426
 10
0.0
 20
0.0
 30
0.0
 40
1.407677
 50
66.690102
 51
87.595612
  0
LINE
  8
TRMODEL1
  6
CONTINUOUS
 62
     7
  5
427
 10
-2.992126
 20
-2.992126
 30
0.0
 11
-2.992126
 21
2.992126
 31
0.0
  0
LINE
  8
TRMODEL1
  6
CONTINUOUS
 62
     7
  5
428
 10
2.992126
 20
-2.992126
 30
0.0
 11
-2.992126
 21
-2.992126
 31
0.0
  0
LINE
  8
TRMODEL1
  6
CONTINUOUS
 62
     7
  5
429
 10
2.992126
 20
2.992126
 30
0.0
 11
2.992126
 21
-2.992126
 31
0.0
  0
LINE
  8
TRMODEL1
  6
CONTINUOUS
 62
     7
  5
42A
 10
-2.992126
 20
2.992126
 30
0.0
 11
2.992126
 21
2.992126
 31
0.0
  0
ENDSEC
  0
EOF
