  0
SECTION
  2
HEADER
  9
$ACADVER
  1
AC1009
  9
$DWGCODEPAGE
  3
ansi_1252
  9
$INSBASE
 10
0.0
 20
0.0
 30
0.0
  9
$EXTMIN
 10
-2.362205
 20
-2.362205
 30
0.0
  9
$EXTMAX
 10
2.362205
 20
2.362205
 30
0.0
  9
$LIMMIN
 10
0.0
 20
0.0
  9
$LIMMAX
 10
0.0
 20
0.0
  9
$ORTHOMODE
 70
     0
  9
$REGENMODE
 70
     1
  9
$FILLMODE
 70
     1
  9
$QTEXTMODE
 70
     0
  9
$MIRRTEXT
 70
     1
  9
$DRAGMODE
 70
     2
  9
$LTSCALE
 40
1.0
  9
$OSMODE
 70
     0
  9
$ATTMODE
 70
     1
  9
$TEXTSIZE
 40
0.2
  9
$TRACEWID
 40
0.05
  9
$TEXTSTYLE
  7
STANDARD
  9
$CLAYER
  8
0
  9
$CELTYPE
  6
CONTINUOUS
  9
$CECOLOR
 62
   256
  9
$DIMSCALE
 40
1.0
  9
$DIMASZ
 40
0.18
  9
$DIMEXO
 40
0.0625
  9
$DIMDLI
 40
0.38
  9
$DIMRND
 40
0.0
  9
$DIMDLE
 40
0.0
  9
$DIMEXE
 40
0.18
  9
$DIMTP
 40
0.0
  9
$DIMTM
 40
0.0
  9
$DIMTXT
 40
0.18
  9
$DIMCEN
 40
0.09
  9
$DIMTSZ
 40
0.0
  9
$DIMTOL
 70
     0
  9
$DIMLIM
 70
     0
  9
$DIMTIH
 70
     1
  9
$DIMTOH
 70
     1
  9
$DIMSE1
 70
     0
  9
$DIMSE2
 70
     0
  9
$DIMTAD
 70
     0
  9
$DIMZIN
 70
     0
  9
$DIMBLK
  1

  9
$DIMASO
 70
     1
  9
$DIMSHO
 70
     1
  9
$DIMPOST
  1

  9
$DIMAPOST
  1

  9
$DIMALT
 70
     0
  9
$DIMALTD
 70
     2
  9
$DIMALTF
 40
25.4
  9
$DIMLFAC
 40
1.0
  9
$DIMTOFL
 70
     0
  9
$DIMTVP
 40
0.0
  9
$DIMTIX
 70
     0
  9
$DIMSOXD
 70
     0
  9
$DIMSAH
 70
     0
  9
$DIMBLK1
  1

  9
$DIMBLK2
  1

  9
$DIMSTYLE
  2
STANDARD
  9
$DIMCLRD
 70
     0
  9
$DIMCLRE
 70
     0
  9
$DIMCLRT
 70
     0
  9
$DIMTFAC
 40
1.0
  9
$DIMGAP
 40
0.09
  9
$LUNITS
 70
     2
  9
$LUPREC
 70
     4
  9
$AXISMODE
 70
     0
  9
$AXISUNIT
 10
0.0
 20
0.0
  9
$SKETCHINC
 40
0.1
  9
$FILLETRAD
 40
0.0
  9
$AUNITS
 70
     0
  9
$AUPREC
 70
     0
  9
$MENU
  1
acad
  9
$ELEVATION
 40
0.0
  9
$PELEVATION
 40
0.0
  9
$THICKNESS
 40
0.0
  9
$LIMCHECK
 70
     0
  9
$BLIPMODE
 70
     1
  9
$CHAMFERA
 40
0.0
  9
$CHAMFERB
 40
0.0
  9
$SKPOLY
 70
     0
  9
$TDCREATE
 40
0.000000000
  9
$TDUPDATE
 40
0.000000000
  9
$TDINDWG
 40
0.0000000000
  9
$TDUSRTIMER
 40
0.0000000000
  9
$USRTIMER
 70
     1
  9
$ANGBASE
 50
0.0
  9
$ANGDIR
 70
     0
  9
$PDMODE
 70
     0
  9
$PDSIZE
 40
0.0
  9
$PLINEWID
 40
0.0
  9
$COORDS
 70
     0
  9
$SPLFRAME
 70
     0
  9
$SPLINETYPE
 70
     6
  9
$SPLINESEGS
 70
     8
  9
$ATTDIA
 70
     0
  9
$ATTREQ
 70
     1
  9
$HANDLING
 70
     1
  9
$HANDSEED
  5
2BD
  9
$SURFTAB1
 70
     6
  9
$SURFTAB2
 70
     6
  9
$SURFTYPE
 70
     6
  9
$SURFU
 70
     6
  9
$SURFV
 70
     6
  9
$UCSNAME
  2

  9
$UCSORG
 10
0.0
 20
0.0
 30
0.0
  9
$UCSXDIR
 10
1.0
 20
0.0
 30
0.0
  9
$UCSYDIR
 10
0.0
 20
1.0
 30
0.0
  9
$PUCSNAME
  2

  9
$PUCSORG
 10
0.0
 20
0.0
 30
0.0
  9
$PUCSXDIR
 10
1.0
 20
0.0
 30
0.0
  9
$PUCSYDIR
 10
0.0
 20
1.0
 30
0.0
  9
$USERI1
 70
     0
  9
$USERI2
 70
     0
  9
$USERI3
 70
     0
  9
$USERI4
 70
     0
  9
$USERI5
 70
     0
  9
$USERR1
 40
0.0
  9
$USERR2
 40
0.0
  9
$USERR3
 40
0.0
  9
$USERR4
 40
0.0
  9
$USERR5
 40
0.0
  9
$WORLDVIEW
 70
     1
  9
$SHADEDGE
 70
     3
  9
$SHADEDIF
 70
    70
  9
$TILEMODE
 70
     1
  9
$MAXACTVP
 70
    16
  9
$PINSBASE
 10
0.0
 20
0.0
 30
0.0
  9
$PLIMCHECK
 70
     0
  9
$PEXTMIN
 10
1.000000E+20
 20
1.000000E+20
 30
1.000000E+20
  9
$PEXTMAX
 10
-1.000000E+20
 20
-1.000000E+20
 30
-1.000000E+20
  9
$PLIMMIN
 10
0.0
 20
0.0
  9
$PLIMMAX
 10
12.0
 20
9.0
  9
$UNITMODE
 70
     0
  9
$VISRETAIN
 70
     0
  9
$PLINEGEN
 70
     1
  9
$PSLTSCALE
 70
     0
  9
$TREEDEPTH
 70
  3020
  0
ENDSEC
  0
SECTION
  2
TABLES
  0
TABLE
  2
VPORT
 70
     1
  0
VPORT
  2
*ACTIVE
 70
     0
 10
0.0
 20
0.0
 11
1.0
 21
1.0
 12
6.591288
 22
4.579184
 13
0.0
 23
0.0
 14
1.0
 24
1.0
 15
0.0
 25
0.0
 16
0.0
 26
0.0
 36
1.0
 17
0.0
 27
0.0
 37
0.0
 40
9.158369
 41
0.688564
 42
50.0
 43
0.0
 44
0.0
 50
0.0
 51
0.0
 71
     0
 72
   100
 73
     1
 74
     1
 75
     0
 76
     0
 77
     0
 78
     0
  0
ENDTAB
  0
TABLE
  2
LTYPE
 70
     5
  0
LTYPE
  2
CONTINUOUS
 70
    64
  3
Solid line
 72
    65
 73
     0
 40
0.0
  0
LTYPE
  2
CENTER
 70
    64
  3
Center ____ _ ____ _ ____ _ ____ _ ____ _ ____
 72
    65
 73
     4
 40
50.8
 49
31.75
 49
-6.35
 49
6.35
 49
-6.35
  0
LTYPE
  2
HIDDEN
 70
    64
  3
Hidden __ __ __ __ __ __ __ __ __ __ __ __ __ __
 72
    65
 73
     2
 40
9.525
 49
6.35
 49
-3.175
  0
LTYPE
  2
CENTER2
 70
    64
  3
Center (.5x) ___ _ ___ _ ___ _ ___ _ ___ _ ___
 72
    65
 73
     4
 40
28.575
 49
19.05
 49
-3.175
 49
3.175
 49
-3.175
  0
LTYPE
  2
HIDDEN2
 70
    64
  3
Hidden (.5x) _ _ _ _ _ _ _ _ _ _ _ _ _ _ _ _ _
 72
    65
 73
     2
 40
4.7625
 49
3.175
 49
-1.5875
  0
ENDTAB
  0
TABLE
  2
LAYER
 70
     7
  0
LAYER
  2
0
 70
     0
 62
     7
  6
CONTINUOUS
  0
LAYER
  2
TRMODEL1
 70
     0
 62
     7
  6
CONTINUOUS
  0
LAYER
  2
TRMODEL3
 70
     0
 62
     7
  6
CONTINUOUS
  0
LAYER
  2
TRDETAIL2
 70
     0
 62
     7
  6
CONTINUOUS
  0
LAYER
  2
TRDETAIL3
 70
     0
 62
     7
  6
CONTINUOUS
  0
LAYER
  2
TRDETAIL4
 70
     0
 62
     7
  6
CONTINUOUS
  0
LAYER
  2
TRDETAIL5
 70
     0
 62
     7
  6
CONTINUOUS
  0
ENDTAB
  0
TABLE
  2
STYLE
 70
     1
  0
STYLE
  2
STANDARD
 70
     0
 40
0.0
 41
1.0
 50
0.0
 71
     0
 42
0.0
  3
txt
  4

  0
ENDTAB
  0
TABLE
  2
VIEW
 70
     0
  0
ENDTAB
  0
TABLE
  2
UCS
 70
     0
  0
ENDTAB
  0
TABLE
  2
APPID
 70
     1
  0
APPID
  2
ACAD
 70
     0
  0
ENDTAB
  0
TABLE
  2
DIMSTYLE
 70
     1
  0
DIMSTYLE
  2
STANDARD
 70
     0
  3

  4

  5

  6

  7

 40
1.0
 41
0.18
 42
0.0625
 43
0.38
 44
0.18
 45
0.0
 46
0.0
 47
0.0
 48
0.0
 71
     0
 72
     0
 73
     1
 74
     1
 75
     0
 76
     0
 77
     0
 78
     0
140
0.18
141
0.09
142
0.0
143
25.4
144
1.0
145
0.0
146
1.0
147
0.09
170
     0
171
     2
172
     0
173
     0
174
     0
175
     0
176
     0
177
     0
178
     0
  0
ENDTAB
  0
ENDSEC
  0
SECTION
  2
BLOCKS
  0
ENDSEC
  0
SECTION
  2
ENTITIES
  0
LINE
  8
TRMODEL1
  6
CONTINUOUS
 62
     7
  5
17F
 10
-0.801842
 20
-1.061811
 30
0.0
 11
-1.114548
 21
-1.061811
 31
0.0
  0
LINE
  8
TRMODEL1
  6
CONTINUOUS
 62
     7
  5
180
 10
-0.557224
 20
-1.061811
 30
0.0
 11
-0.65557
 21
-1.061811
 31
0.0
  0
LINE
  8
TRMODEL1
  6
CONTINUOUS
 62
     7
  5
181
 10
-0.199626
 20
-1.061811
 30
0.0
 11
-0.465459
 21
-1.061811
 31
0.0
  0
LINE
  8
TRMODEL1
  6
CONTINUOUS
 62
     7
  5
182
 10
0.465459
 20
-1.061811
 30
0.0
 11
0.199626
 21
-1.061811
 31
0.0
  0
LINE
  8
TRMODEL1
  6
CONTINUOUS
 62
     7
  5
183
 10
0.65557
 20
-1.061811
 30
0.0
 11
0.557224
 21
-1.061811
 31
0.0
  0
LINE
  8
TRMODEL1
  6
CONTINUOUS
 62
     7
  5
184
 10
1.114548
 20
-1.061811
 30
0.0
 11
0.801842
 21
-1.061811
 31
0.0
  0
LINE
  8
TRMODEL1
  6
CONTINUOUS
 62
     7
  5
185
 10
0.815244
 20
-1.051556
 30
0.0
 11
1.124229
 21
-1.051556
 31
0.0
  0
LINE
  8
TRMODEL1
  6
CONTINUOUS
 62
     7
  5
186
 10
0.552285
 20
-1.051556
 30
0.0
 11
0.671896
 21
-1.051556
 31
0.0
  0
LINE
  8
TRMODEL1
  6
CONTINUOUS
 62
     7
  5
187
 10
0.248038
 20
-1.051556
 30
0.0
 11
0.46052
 21
-1.051556
 31
0.0
  0
LINE
  8
TRMODEL1
  6
CONTINUOUS
 62
     7
  5
188
 10
-0.46052
 20
-1.051556
 30
0.0
 11
-0.248038
 21
-1.051556
 31
0.0
  0
LINE
  8
TRMODEL1
  6
CONTINUOUS
 62
     7
  5
189
 10
-0.671896
 20
-1.051556
 30
0.0
 11
-0.552285
 21
-1.051556
 31
0.0
  0
LINE
  8
TRMODEL1
  6
CONTINUOUS
 62
     7
  5
18A
 10
-1.124229
 20
-1.051556
 30
0.0
 11
-0.815244
 21
-1.051556
 31
0.0
  0
LINE
  8
TRMODEL1
  6
CONTINUOUS
 62
     7
  5
18B
 10
1.279983
 20
-0.363367
 30
0.0
 11
1.406242
 21
-0.363367
 31
0.0
  0
LINE
  8
TRMODEL1
  6
CONTINUOUS
 62
     7
  5
18C
 10
1.017476
 20
-0.363367
 30
0.0
 11
1.193808
 21
-0.363367
 31
0.0
  0
LINE
  8
TRMODEL1
  6
CONTINUOUS
 62
     7
  5
18D
 10
0.746529
 20
-0.363367
 30
0.0
 11
0.929216
 21
-0.363367
 31
0.0
  0
LINE
  8
TRMODEL1
  6
CONTINUOUS
 62
     7
  5
18E
 10
0.52195
 20
-0.363367
 30
0.0
 11
0.65334
 21
-0.363367
 31
0.0
  0
LINE
  8
TRMODEL1
  6
CONTINUOUS
 62
     7
  5
18F
 10
-0.65334
 20
-0.363367
 30
0.0
 11
-0.52195
 21
-0.363367
 31
0.0
  0
LINE
  8
TRMODEL1
  6
CONTINUOUS
 62
     7
  5
190
 10
-0.929216
 20
-0.363367
 30
0.0
 11
-0.746529
 21
-0.363367
 31
0.0
  0
LINE
  8
TRMODEL1
  6
CONTINUOUS
 62
     7
  5
191
 10
-1.193808
 20
-0.363367
 30
0.0
 11
-1.017476
 21
-0.363367
 31
0.0
  0
LINE
  8
TRMODEL1
  6
CONTINUOUS
 62
     7
  5
192
 10
-1.406242
 20
-0.363367
 30
0.0
 11
-1.279983
 21
-0.363367
 31
0.0
  0
LINE
  8
TRMODEL1
  6
CONTINUOUS
 62
     7
  5
193
 10
-1.277027
 20
-0.373622
 30
0.0
 11
-1.451171
 21
-0.373622
 31
0.0
  0
LINE
  8
TRMODEL1
  6
CONTINUOUS
 62
     7
  5
194
 10
-1.013755
 20
-0.373622
 30
0.0
 11
-1.190639
 21
-0.373622
 31
0.0
  0
LINE
  8
TRMODEL1
  6
CONTINUOUS
 62
     7
  5
195
 10
-0.74145
 20
-0.373622
 30
0.0
 11
-0.92514
 21
-0.373622
 31
0.0
  0
LINE
  8
TRMODEL1
  6
CONTINUOUS
 62
     7
  5
196
 10
-0.534809
 20
-0.373622
 30
0.0
 11
-0.64753
 21
-0.373622
 31
0.0
  0
LINE
  8
TRMODEL1
  6
CONTINUOUS
 62
     7
  5
197
 10
-0.388188
 20
-0.373622
 30
0.0
 11
-0.402205
 21
-0.373622
 31
0.0
  0
LINE
  8
TRMODEL1
  6
CONTINUOUS
 62
     7
  5
198
 10
0.402205
 20
-0.373622
 30
0.0
 11
0.388188
 21
-0.373622
 31
0.0
  0
LINE
  8
TRMODEL1
  6
CONTINUOUS
 62
     7
  5
199
 10
0.64753
 20
-0.373622
 30
0.0
 11
0.534809
 21
-0.373622
 31
0.0
  0
LINE
  8
TRMODEL1
  6
CONTINUOUS
 62
     7
  5
19A
 10
0.92514
 20
-0.373622
 30
0.0
 11
0.74145
 21
-0.373622
 31
0.0
  0
LINE
  8
TRMODEL1
  6
CONTINUOUS
 62
     7
  5
19B
 10
1.190639
 20
-0.373622
 30
0.0
 11
1.013755
 21
-0.373622
 31
0.0
  0
LINE
  8
TRMODEL1
  6
CONTINUOUS
 62
     7
  5
19C
 10
1.451171
 20
-0.373622
 30
0.0
 11
1.277027
 21
-0.373622
 31
0.0
  0
LINE
  8
TRMODEL1
  6
CONTINUOUS
 62
     7
  5
19D
 10
0.815502
 20
-1.051356
 30
0.0
 11
1.124416
 21
-1.051356
 31
0.0
  0
LINE
  8
TRMODEL1
  6
CONTINUOUS
 62
     7
  5
19E
 10
0.552189
 20
-1.051356
 30
0.0
 11
0.672209
 21
-1.051356
 31
0.0
  0
LINE
  8
TRMODEL1
  6
CONTINUOUS
 62
     7
  5
19F
 10
0.248885
 20
-1.051356
 30
0.0
 11
0.460424
 21
-1.051356
 31
0.0
  0
LINE
  8
TRMODEL1
  6
CONTINUOUS
 62
     7
  5
1A0
 10
-0.460424
 20
-1.051356
 30
0.0
 11
-0.248885
 21
-1.051356
 31
0.0
  0
LINE
  8
TRMODEL1
  6
CONTINUOUS
 62
     7
  5
1A1
 10
-0.672209
 20
-1.051356
 30
0.0
 11
-0.552189
 21
-1.051356
 31
0.0
  0
LINE
  8
TRMODEL1
  6
CONTINUOUS
 62
     7
  5
1A2
 10
-1.124416
 20
-1.051356
 30
0.0
 11
-0.815502
 21
-1.051356
 31
0.0
  0
LINE
  8
TRMODEL1
  6
CONTINUOUS
 62
     7
  5
1A3
 10
1.030429
 20
0.324822
 30
0.0
 11
1.204867
 21
0.324822
 31
0.0
  0
LINE
  8
TRMODEL1
  6
CONTINUOUS
 62
     7
  5
1A4
 10
0.764089
 20
0.324822
 30
0.0
 11
0.943381
 21
0.324822
 31
0.0
  0
LINE
  8
TRMODEL1
  6
CONTINUOUS
 62
     7
  5
1A5
 10
0.473616
 20
0.324822
 30
0.0
 11
0.673335
 21
0.324822
 31
0.0
  0
LINE
  8
TRMODEL1
  6
CONTINUOUS
 62
     7
  5
1A6
 10
-0.673335
 20
0.324822
 30
0.0
 11
-0.473616
 21
0.324822
 31
0.0
  0
LINE
  8
TRMODEL1
  6
CONTINUOUS
 62
     7
  5
1A7
 10
-0.943381
 20
0.324822
 30
0.0
 11
-0.764089
 21
0.324822
 31
0.0
  0
LINE
  8
TRMODEL1
  6
CONTINUOUS
 62
     7
  5
1A8
 10
-1.204867
 20
0.324822
 30
0.0
 11
-1.030429
 21
0.324822
 31
0.0
  0
LINE
  8
TRMODEL1
  6
CONTINUOUS
 62
     7
  5
1A9
 10
-1.033606
 20
0.314567
 30
0.0
 11
-1.192434
 21
0.314567
 31
0.0
  0
LINE
  8
TRMODEL1
  6
CONTINUOUS
 62
     7
  5
1AA
 10
-0.768368
 20
0.314567
 30
0.0
 11
-0.94685
 21
0.314567
 31
0.0
  0
LINE
  8
TRMODEL1
  6
CONTINUOUS
 62
     7
  5
1AB
 10
-0.460756
 20
0.314567
 30
0.0
 11
-0.678186
 21
0.314567
 31
0.0
  0
LINE
  8
TRMODEL1
  6
CONTINUOUS
 62
     7
  5
1AC
 10
0.678186
 20
0.314567
 30
0.0
 11
0.460756
 21
0.314567
 31
0.0
  0
LINE
  8
TRMODEL1
  6
CONTINUOUS
 62
     7
  5
1AD
 10
0.94685
 20
0.314567
 30
0.0
 11
0.768368
 21
0.314567
 31
0.0
  0
LINE
  8
TRMODEL1
  6
CONTINUOUS
 62
     7
  5
1AE
 10
1.192434
 20
0.314567
 30
0.0
 11
1.033606
 21
0.314567
 31
0.0
  0
LINE
  8
TRMODEL1
  6
CONTINUOUS
 62
     7
  5
1AF
 10
1.28004
 20
-0.363167
 30
0.0
 11
1.405364
 21
-0.363167
 31
0.0
  0
LINE
  8
TRMODEL1
  6
CONTINUOUS
 62
     7
  5
1B0
 10
1.017547
 20
-0.363167
 30
0.0
 11
1.193869
 21
-0.363167
 31
0.0
  0
LINE
  8
TRMODEL1
  6
CONTINUOUS
 62
     7
  5
1B1
 10
0.746626
 20
-0.363167
 30
0.0
 11
0.929294
 21
-0.363167
 31
0.0
  0
LINE
  8
TRMODEL1
  6
CONTINUOUS
 62
     7
  5
1B2
 10
0.521699
 20
-0.363167
 30
0.0
 11
0.653451
 21
-0.363167
 31
0.0
  0
LINE
  8
TRMODEL1
  6
CONTINUOUS
 62
     7
  5
1B3
 10
-0.653451
 20
-0.363167
 30
0.0
 11
-0.521699
 21
-0.363167
 31
0.0
  0
LINE
  8
TRMODEL1
  6
CONTINUOUS
 62
     7
  5
1B4
 10
-0.929294
 20
-0.363167
 30
0.0
 11
-0.746626
 21
-0.363167
 31
0.0
  0
LINE
  8
TRMODEL1
  6
CONTINUOUS
 62
     7
  5
1B5
 10
-1.193869
 20
-0.363167
 30
0.0
 11
-1.017547
 21
-0.363167
 31
0.0
  0
LINE
  8
TRMODEL1
  6
CONTINUOUS
 62
     7
  5
1B6
 10
-1.405364
 20
-0.363167
 30
0.0
 11
-1.28004
 21
-0.363167
 31
0.0
  0
LINE
  8
TRMODEL1
  6
CONTINUOUS
 62
     7
  5
1B7
 10
0.862671
 20
1.013011
 30
0.0
 11
1.159081
 21
1.013011
 31
0.0
  0
LINE
  8
TRMODEL1
  6
CONTINUOUS
 62
     7
  5
1B8
 10
0.533723
 20
1.013011
 30
0.0
 11
0.728714
 21
1.013011
 31
0.0
  0
LINE
  8
TRMODEL1
  6
CONTINUOUS
 62
     7
  5
1B9
 10
0.375636
 20
1.013011
 30
0.0
 11
0.441958
 21
1.013011
 31
0.0
  0
LINE
  8
TRMODEL1
  6
CONTINUOUS
 62
     7
  5
1BA
 10
-0.441958
 20
1.013011
 30
0.0
 11
-0.375636
 21
1.013011
 31
0.0
  0
LINE
  8
TRMODEL1
  6
CONTINUOUS
 62
     7
  5
1BB
 10
-0.728714
 20
1.013011
 30
0.0
 11
-0.533723
 21
1.013011
 31
0.0
  0
LINE
  8
TRMODEL1
  6
CONTINUOUS
 62
     7
  5
1BC
 10
-1.159081
 20
1.013011
 30
0.0
 11
-0.862671
 21
1.013011
 31
0.0
  0
LINE
  8
TRMODEL1
  6
CONTINUOUS
 62
     7
  5
1BD
 10
-0.87457
 20
1.002756
 30
0.0
 11
-1.167964
 21
1.002756
 31
0.0
  0
LINE
  8
TRMODEL1
  6
CONTINUOUS
 62
     7
  5
1BE
 10
-0.528784
 20
1.002756
 30
0.0
 11
-0.742762
 21
1.002756
 31
0.0
  0
LINE
  8
TRMODEL1
  6
CONTINUOUS
 62
     7
  5
1BF
 10
-0.402211
 20
1.002756
 30
0.0
 11
-0.437019
 21
1.002756
 31
0.0
  0
LINE
  8
TRMODEL1
  6
CONTINUOUS
 62
     7
  5
1C0
 10
0.437019
 20
1.002756
 30
0.0
 11
0.402211
 21
1.002756
 31
0.0
  0
LINE
  8
TRMODEL1
  6
CONTINUOUS
 62
     7
  5
1C1
 10
0.742762
 20
1.002756
 30
0.0
 11
0.528784
 21
1.002756
 31
0.0
  0
LINE
  8
TRMODEL1
  6
CONTINUOUS
 62
     7
  5
1C2
 10
1.167964
 20
1.002756
 30
0.0
 11
0.87457
 21
1.002756
 31
0.0
  0
LINE
  8
TRMODEL1
  6
CONTINUOUS
 62
     7
  5
1C3
 10
1.030366
 20
0.325022
 30
0.0
 11
1.204813
 21
0.325022
 31
0.0
  0
LINE
  8
TRMODEL1
  6
CONTINUOUS
 62
     7
  5
1C4
 10
0.764004
 20
0.325022
 30
0.0
 11
0.943312
 21
0.325022
 31
0.0
  0
LINE
  8
TRMODEL1
  6
CONTINUOUS
 62
     7
  5
1C5
 10
0.473867
 20
0.325022
 30
0.0
 11
0.673238
 21
0.325022
 31
0.0
  0
LINE
  8
TRMODEL1
  6
CONTINUOUS
 62
     7
  5
1C6
 10
-0.673238
 20
0.325022
 30
0.0
 11
-0.473867
 21
0.325022
 31
0.0
  0
LINE
  8
TRMODEL1
  6
CONTINUOUS
 62
     7
  5
1C7
 10
-0.943312
 20
0.325022
 30
0.0
 11
-0.764004
 21
0.325022
 31
0.0
  0
LINE
  8
TRMODEL1
  6
CONTINUOUS
 62
     7
  5
1C8
 10
-1.204813
 20
0.325022
 30
0.0
 11
-1.030366
 21
0.325022
 31
0.0
  0
LINE
  8
TRMODEL1
  6
CONTINUOUS
 62
     7
  5
1C9
 10
0.862436
 20
1.013211
 30
0.0
 11
1.158906
 21
1.013211
 31
0.0
  0
LINE
  8
TRMODEL1
  6
CONTINUOUS
 62
     7
  5
1CA
 10
0.533819
 20
1.013211
 30
0.0
 11
0.728435
 21
1.013211
 31
0.0
  0
LINE
  8
TRMODEL1
  6
CONTINUOUS
 62
     7
  5
1CB
 10
0.375095
 20
1.013211
 30
0.0
 11
0.442054
 21
1.013211
 31
0.0
  0
LINE
  8
TRMODEL1
  6
CONTINUOUS
 62
     7
  5
1CC
 10
-0.442054
 20
1.013211
 30
0.0
 11
-0.375095
 21
1.013211
 31
0.0
  0
LINE
  8
TRMODEL1
  6
CONTINUOUS
 62
     7
  5
1CD
 10
-0.728435
 20
1.013211
 30
0.0
 11
-0.533819
 21
1.013211
 31
0.0
  0
LINE
  8
TRMODEL1
  6
CONTINUOUS
 62
     7
  5
1CE
 10
-1.158906
 20
1.013211
 30
0.0
 11
-0.862436
 21
1.013211
 31
0.0
  0
ARC
  8
TRMODEL1
  6
CONTINUOUS
 62
     7
  5
1CF
 10
0.0
 20
0.0
 30
0.0
 40
0.53878
 50
274.40042
 51
291.313865
  0
ARC
  8
TRMODEL1
  6
CONTINUOUS
 62
     7
  5
1D0
 10
0.0
 20
0.0
 30
0.0
 40
0.53878
 50
248.686135
 51
265.59958
  0
ARC
  8
TRMODEL1
  6
CONTINUOUS
 62
     7
  5
1D1
 10
0.0
 20
0.0
 30
0.0
 40
0.53878
 50
300.114706
 51
317.028151
  0
ARC
  8
TRMODEL1
  6
CONTINUOUS
 62
     7
  5
1D2
 10
0.0
 20
0.0
 30
0.0
 40
0.53878
 50
222.971849
 51
239.885294
  0
ARC
  8
TRMODEL1
  6
CONTINUOUS
 62
     7
  5
1D3
 10
0.0
 20
0.0
 30
0.0
 40
0.53878
 50
325.828992
 51
342.742437
  0
ARC
  8
TRMODEL1
  6
CONTINUOUS
 62
     7
  5
1D4
 10
0.0
 20
0.0
 30
0.0
 40
0.53878
 50
197.257563
 51
214.171008
  0
ARC
  8
TRMODEL1
  6
CONTINUOUS
 62
     7
  5
1D5
 10
0.0
 20
0.0
 30
0.0
 40
0.53878
 50
351.543277
 51
8.456723
  0
ARC
  8
TRMODEL1
  6
CONTINUOUS
 62
     7
  5
1D6
 10
0.0
 20
0.0
 30
0.0
 40
0.53878
 50
171.543277
 51
188.456723
  0
ARC
  8
TRMODEL1
  6
CONTINUOUS
 62
     7
  5
1D7
 10
0.0
 20
0.0
 30
0.0
 40
0.53878
 50
17.257563
 51
34.171008
  0
ARC
  8
TRMODEL1
  6
CONTINUOUS
 62
     7
  5
1D8
 10
0.0
 20
0.0
 30
0.0
 40
0.53878
 50
145.828992
 51
162.742437
  0
ARC
  8
TRMODEL1
  6
CONTINUOUS
 62
     7
  5
1D9
 10
0.0
 20
0.0
 30
0.0
 40
0.53878
 50
42.971849
 51
59.885294
  0
ARC
  8
TRMODEL1
  6
CONTINUOUS
 62
     7
  5
1DA
 10
0.0
 20
0.0
 30
0.0
 40
0.53878
 50
120.114706
 51
137.028151
  0
ARC
  8
TRMODEL1
  6
CONTINUOUS
 62
     7
  5
1DB
 10
0.0
 20
0.0
 30
0.0
 40
0.53878
 50
94.40042
 51
111.313865
  0
ARC
  8
TRMODEL1
  6
CONTINUOUS
 62
     7
  5
1DC
 10
0.0
 20
0.0
 30
0.0
 40
0.53878
 50
68.686135
 51
85.59958
  0
LINE
  8
TRMODEL1
  6
CONTINUOUS
 62
     7
  5
1DD
 10
0.286625
 20
0.69046
 30
0.0
 11
0.195834
 21
0.501929
 31
0.0
  0
LINE
  8
TRMODEL1
  6
CONTINUOUS
 62
     7
  5
1DE
 10
0.361115
 20
0.654587
 30
0.0
 11
0.270323
 21
0.466057
 31
0.0
  0
LINE
  8
TRMODEL1
  6
CONTINUOUS
 62
     7
  5
1DF
 10
0.55782
 20
0.497721
 30
0.0
 11
0.394219
 21
0.367253
 31
0.0
  0
LINE
  8
TRMODEL1
  6
CONTINUOUS
 62
     7
  5
1E0
 10
0.609368
 20
0.433081
 30
0.0
 11
0.445767
 21
0.302613
 31
0.0
  0
LINE
  8
TRMODEL1
  6
CONTINUOUS
 62
     7
  5
1E1
 10
0.718531
 20
0.206402
 30
0.0
 11
0.514524
 21
0.159838
 31
0.0
  0
LINE
  8
TRMODEL1
  6
CONTINUOUS
 62
     7
  5
1E2
 10
0.736929
 20
0.125797
 30
0.0
 11
0.532921
 21
0.079234
 31
0.0
  0
LINE
  8
TRMODEL1
  6
CONTINUOUS
 62
     7
  5
1E3
 10
0.736929
 20
-0.125797
 30
0.0
 11
0.532921
 21
-0.079234
 31
0.0
  0
LINE
  8
TRMODEL1
  6
CONTINUOUS
 62
     7
  5
1E4
 10
0.718531
 20
-0.206402
 30
0.0
 11
0.514524
 21
-0.159838
 31
0.0
  0
LINE
  8
TRMODEL1
  6
CONTINUOUS
 62
     7
  5
1E5
 10
0.609368
 20
-0.433081
 30
0.0
 11
0.445767
 21
-0.302613
 31
0.0
  0
LINE
  8
TRMODEL1
  6
CONTINUOUS
 62
     7
  5
1E6
 10
0.55782
 20
-0.497721
 30
0.0
 11
0.394219
 21
-0.367253
 31
0.0
  0
LINE
  8
TRMODEL1
  6
CONTINUOUS
 62
     7
  5
1E7
 10
0.361115
 20
-0.654587
 30
0.0
 11
0.270323
 21
-0.466057
 31
0.0
  0
LINE
  8
TRMODEL1
  6
CONTINUOUS
 62
     7
  5
1E8
 10
0.286625
 20
-0.69046
 30
0.0
 11
0.195834
 21
-0.501929
 31
0.0
  0
LINE
  8
TRMODEL1
  6
CONTINUOUS
 62
     7
  5
1E9
 10
-0.286625
 20
-0.69046
 30
0.0
 11
-0.195834
 21
-0.501929
 31
0.0
  0
LINE
  8
TRMODEL1
  6
CONTINUOUS
 62
     7
  5
1EA
 10
0.041339
 20
-0.746445
 30
0.0
 11
0.041339
 21
-0.537191
 31
0.0
  0
ARC
  8
TRMODEL1
  6
CONTINUOUS
 62
     7
  5
1EB
 10
0.0
 20
0.0
 30
0.0
 40
0.747589
 50
247.455553
 51
266.830162
  0
ARC
  8
TRMODEL1
  6
CONTINUOUS
 62
     7
  5
1EC
 10
0.0
 20
0.0
 30
0.0
 40
0.747589
 50
221.741267
 51
241.115876
  0
ARC
  8
TRMODEL1
  6
CONTINUOUS
 62
     7
  5
1ED
 10
0.0
 20
0.0
 30
0.0
 40
0.747589
 50
273.169838
 51
292.544447
  0
ARC
  8
TRMODEL1
  6
CONTINUOUS
 62
     7
  5
1EE
 10
0.0
 20
0.0
 30
0.0
 40
0.747589
 50
196.026981
 51
215.40159
  0
ARC
  8
TRMODEL1
  6
CONTINUOUS
 62
     7
  5
1EF
 10
0.0
 20
0.0
 30
0.0
 40
0.747589
 50
298.884124
 51
318.258733
  0
ARC
  8
TRMODEL1
  6
CONTINUOUS
 62
     7
  5
1F0
 10
0.0
 20
0.0
 30
0.0
 40
0.747589
 50
170.312696
 51
189.687304
  0
ARC
  8
TRMODEL1
  6
CONTINUOUS
 62
     7
  5
1F1
 10
0.0
 20
0.0
 30
0.0
 40
0.747589
 50
324.59841
 51
343.973019
  0
ARC
  8
TRMODEL1
  6
CONTINUOUS
 62
     7
  5
1F2
 10
0.0
 20
0.0
 30
0.0
 40
0.747589
 50
144.59841
 51
163.973019
  0
ARC
  8
TRMODEL1
  6
CONTINUOUS
 62
     7
  5
1F3
 10
0.0
 20
0.0
 30
0.0
 40
0.747589
 50
350.312696
 51
9.687304
  0
ARC
  8
TRMODEL1
  6
CONTINUOUS
 62
     7
  5
1F4
 10
0.0
 20
0.0
 30
0.0
 40
0.747589
 50
118.884124
 51
138.258733
  0
ARC
  8
TRMODEL1
  6
CONTINUOUS
 62
     7
  5
1F5
 10
0.0
 20
0.0
 30
0.0
 40
0.747589
 50
16.026981
 51
35.40159
  0
ARC
  8
TRMODEL1
  6
CONTINUOUS
 62
     7
  5
1F6
 10
0.0
 20
0.0
 30
0.0
 40
0.747589
 50
93.169838
 51
112.544447
  0
ARC
  8
TRMODEL1
  6
CONTINUOUS
 62
     7
  5
1F7
 10
0.0
 20
0.0
 30
0.0
 40
0.747589
 50
41.741267
 51
61.115876
  0
ARC
  8
TRMODEL1
  6
CONTINUOUS
 62
     7
  5
1F8
 10
0.0
 20
0.0
 30
0.0
 40
0.830266
 50
247.139627
 51
267.146087
  0
ARC
  8
TRMODEL1
  6
CONTINUOUS
 62
     7
  5
1F9
 10
0.0
 20
0.0
 30
0.0
 40
0.830266
 50
221.425341
 51
241.431802
  0
ARC
  8
TRMODEL1
  6
CONTINUOUS
 62
     7
  5
1FA
 10
0.0
 20
0.0
 30
0.0
 40
0.830266
 50
272.853913
 51
292.860373
  0
ARC
  8
TRMODEL1
  6
CONTINUOUS
 62
     7
  5
1FB
 10
0.0
 20
0.0
 30
0.0
 40
0.830266
 50
195.711056
 51
215.717516
  0
ARC
  8
TRMODEL1
  6
CONTINUOUS
 62
     7
  5
1FC
 10
0.0
 20
0.0
 30
0.0
 40
0.830266
 50
298.568198
 51
318.574659
  0
ARC
  8
TRMODEL1
  6
CONTINUOUS
 62
     7
  5
1FD
 10
0.0
 20
0.0
 30
0.0
 40
0.830266
 50
169.99677
 51
190.00323
  0
ARC
  8
TRMODEL1
  6
CONTINUOUS
 62
     7
  5
1FE
 10
0.0
 20
0.0
 30
0.0
 40
0.830266
 50
324.282484
 51
344.288944
  0
ARC
  8
TRMODEL1
  6
CONTINUOUS
 62
     7
  5
1FF
 10
0.0
 20
0.0
 30
0.0
 40
0.830266
 50
144.282484
 51
164.288944
  0
ARC
  8
TRMODEL1
  6
CONTINUOUS
 62
     7
  5
200
 10
0.0
 20
0.0
 30
0.0
 40
0.830266
 50
349.99677
 51
10.00323
  0
ARC
  8
TRMODEL1
  6
CONTINUOUS
 62
     7
  5
201
 10
0.0
 20
0.0
 30
0.0
 40
0.830266
 50
118.568198
 51
138.574659
  0
ARC
  8
TRMODEL1
  6
CONTINUOUS
 62
     7
  5
202
 10
0.0
 20
0.0
 30
0.0
 40
0.830266
 50
92.853913
 51
112.860373
  0
ARC
  8
TRMODEL1
  6
CONTINUOUS
 62
     7
  5
203
 10
0.0
 20
0.0
 30
0.0
 40
0.830266
 50
15.711056
 51
35.717516
  0
ARC
  8
TRMODEL1
  6
CONTINUOUS
 62
     7
  5
204
 10
0.0
 20
0.0
 30
0.0
 40
0.830266
 50
41.425341
 51
61.431802
  0
ARC
  8
TRMODEL1
  6
CONTINUOUS
 62
     7
  5
205
 10
0.0
 20
0.0
 30
0.0
 40
0.747589
 50
67.455553
 51
86.830162
  0
ARC
  8
TRMODEL1
  6
CONTINUOUS
 62
     7
  5
206
 10
0.0
 20
0.0
 30
0.0
 40
0.830266
 50
67.139627
 51
87.146087
  0
LINE
  8
TRMODEL1
  6
CONTINUOUS
 62
     7
  5
207
 10
0.395285
 20
0.916094
 30
0.0
 11
0.322547
 21
0.765052
 31
0.0
  0
LINE
  8
TRMODEL1
  6
CONTINUOUS
 62
     7
  5
208
 10
0.041339
 20
0.746445
 30
0.0
 11
0.041339
 21
0.537191
 31
0.0
  0
LINE
  8
TRMODEL1
  6
CONTINUOUS
 62
     7
  5
209
 10
0.469775
 20
0.880221
 30
0.0
 11
0.397037
 21
0.72918
 31
0.0
  0
LINE
  8
TRMODEL1
  6
CONTINUOUS
 62
     7
  5
20A
 10
0.753618
 20
0.653864
 30
0.0
 11
0.622549
 21
0.54934
 31
0.0
  0
LINE
  8
TRMODEL1
  6
CONTINUOUS
 62
     7
  5
20B
 10
-0.041339
 20
0.746445
 30
0.0
 11
-0.041339
 21
0.537191
 31
0.0
  0
LINE
  8
TRMODEL1
  6
CONTINUOUS
 62
     7
  5
20C
 10
0.805166
 20
0.589224
 30
0.0
 11
0.674097
 21
0.4847
 31
0.0
  0
LINE
  8
TRMODEL1
  6
CONTINUOUS
 62
     7
  5
20D
 10
-0.286625
 20
0.69046
 30
0.0
 11
-0.195834
 21
0.501929
 31
0.0
  0
LINE
  8
TRMODEL1
  6
CONTINUOUS
 62
     7
  5
20E
 10
0.962687
 20
0.262129
 30
0.0
 11
0.799247
 21
0.224825
 31
0.0
  0
LINE
  8
TRMODEL1
  6
CONTINUOUS
 62
     7
  5
20F
 10
-0.361115
 20
0.654587
 30
0.0
 11
-0.270323
 21
0.466057
 31
0.0
  0
LINE
  8
TRMODEL1
  6
CONTINUOUS
 62
     7
  5
210
 10
0.981084
 20
0.181524
 30
0.0
 11
0.817644
 21
0.14422
 31
0.0
  0
LINE
  8
TRMODEL1
  6
CONTINUOUS
 62
     7
  5
211
 10
-0.55782
 20
0.497721
 30
0.0
 11
-0.394219
 21
0.367253
 31
0.0
  0
LINE
  8
TRMODEL1
  6
CONTINUOUS
 62
     7
  5
212
 10
0.981084
 20
-0.181524
 30
0.0
 11
0.817644
 21
-0.14422
 31
0.0
  0
LINE
  8
TRMODEL1
  6
CONTINUOUS
 62
     7
  5
213
 10
-0.609368
 20
0.433081
 30
0.0
 11
-0.445767
 21
0.302613
 31
0.0
  0
LINE
  8
TRMODEL1
  6
CONTINUOUS
 62
     7
  5
214
 10
0.962687
 20
-0.262129
 30
0.0
 11
0.799247
 21
-0.224825
 31
0.0
  0
LINE
  8
TRMODEL1
  6
CONTINUOUS
 62
     7
  5
215
 10
-0.718531
 20
0.206402
 30
0.0
 11
-0.514524
 21
0.159838
 31
0.0
  0
LINE
  8
TRMODEL1
  6
CONTINUOUS
 62
     7
  5
216
 10
0.805166
 20
-0.589224
 30
0.0
 11
0.674097
 21
-0.4847
 31
0.0
  0
LINE
  8
TRMODEL1
  6
CONTINUOUS
 62
     7
  5
217
 10
-0.736929
 20
0.125797
 30
0.0
 11
-0.532921
 21
0.079234
 31
0.0
  0
LINE
  8
TRMODEL1
  6
CONTINUOUS
 62
     7
  5
218
 10
0.753618
 20
-0.653864
 30
0.0
 11
0.622549
 21
-0.54934
 31
0.0
  0
LINE
  8
TRMODEL1
  6
CONTINUOUS
 62
     7
  5
219
 10
-0.736929
 20
-0.125797
 30
0.0
 11
-0.532921
 21
-0.079234
 31
0.0
  0
LINE
  8
TRMODEL1
  6
CONTINUOUS
 62
     7
  5
21A
 10
0.469775
 20
-0.880221
 30
0.0
 11
0.397037
 21
-0.72918
 31
0.0
  0
LINE
  8
TRMODEL1
  6
CONTINUOUS
 62
     7
  5
21B
 10
-0.718531
 20
-0.206402
 30
0.0
 11
-0.514524
 21
-0.159838
 31
0.0
  0
LINE
  8
TRMODEL1
  6
CONTINUOUS
 62
     7
  5
21C
 10
0.395285
 20
-0.916094
 30
0.0
 11
0.322547
 21
-0.765052
 31
0.0
  0
LINE
  8
TRMODEL1
  6
CONTINUOUS
 62
     7
  5
21D
 10
-0.609368
 20
-0.433081
 30
0.0
 11
-0.445767
 21
-0.302613
 31
0.0
  0
LINE
  8
TRMODEL1
  6
CONTINUOUS
 62
     7
  5
21E
 10
0.041339
 20
-0.996879
 30
0.0
 11
0.041339
 21
-0.829236
 31
0.0
  0
LINE
  8
TRMODEL1
  6
CONTINUOUS
 62
     7
  5
21F
 10
-0.55782
 20
-0.497721
 30
0.0
 11
-0.394219
 21
-0.367253
 31
0.0
  0
LINE
  8
TRMODEL1
  6
CONTINUOUS
 62
     7
  5
220
 10
-0.041339
 20
-0.829236
 30
0.0
 11
-0.041339
 21
-0.996879
 31
0.0
  0
LINE
  8
TRMODEL1
  6
CONTINUOUS
 62
     7
  5
221
 10
-0.361115
 20
-0.654587
 30
0.0
 11
-0.270323
 21
-0.466057
 31
0.0
  0
LINE
  8
TRMODEL1
  6
CONTINUOUS
 62
     7
  5
222
 10
-0.041339
 20
-0.537191
 30
0.0
 11
-0.041339
 21
-0.746445
 31
0.0
  0
ARC
  8
TRMODEL1
  6
CONTINUOUS
 62
     7
  5
223
 10
0.0
 20
0.0
 30
0.0
 40
0.997736
 50
40.946009
 51
61.911134
  0
ARC
  8
TRMODEL1
  6
CONTINUOUS
 62
     7
  5
224
 10
0.0
 20
0.0
 30
0.0
 40
0.997736
 50
15.231723
 51
36.196849
  0
ARC
  8
TRMODEL1
  6
CONTINUOUS
 62
     7
  5
225
 10
0.0
 20
0.0
 30
0.0
 40
0.997736
 50
349.517437
 51
10.482563
  0
ARC
  8
TRMODEL1
  6
CONTINUOUS
 62
     7
  5
226
 10
0.0
 20
0.0
 30
0.0
 40
0.997736
 50
323.803151
 51
344.768277
  0
ARC
  8
TRMODEL1
  6
CONTINUOUS
 62
     7
  5
227
 10
0.0
 20
0.0
 30
0.0
 40
0.997736
 50
298.088866
 51
319.053991
  0
ARC
  8
TRMODEL1
  6
CONTINUOUS
 62
     7
  5
228
 10
0.0
 20
0.0
 30
0.0
 40
0.997736
 50
272.37458
 51
293.339706
  0
ARC
  8
TRMODEL1
  6
CONTINUOUS
 62
     7
  5
229
 10
0.0
 20
0.0
 30
0.0
 40
0.997736
 50
246.660294
 51
267.62542
  0
LINE
  8
TRMODEL1
  6
CONTINUOUS
 62
     7
  5
22A
 10
-0.395285
 20
-0.916094
 30
0.0
 11
-0.322547
 21
-0.765052
 31
0.0
  0
LINE
  8
TRMODEL1
  6
CONTINUOUS
 62
     7
  5
22B
 10
0.041339
 20
0.996879
 30
0.0
 11
0.041339
 21
0.829236
 31
0.0
  0
ARC
  8
TRMODEL1
  6
CONTINUOUS
 62
     7
  5
22C
 10
0.0
 20
0.0
 30
0.0
 40
0.997736
 50
66.660294
 51
87.62542
  0
LINE
  8
TRMODEL1
  6
CONTINUOUS
 62
     7
  5
22D
 10
-0.395285
 20
0.916094
 30
0.0
 11
-0.322547
 21
0.765052
 31
0.0
  0
ARC
  8
TRMODEL1
  6
CONTINUOUS
 62
     7
  5
22E
 10
0.0
 20
0.0
 30
0.0
 40
0.997736
 50
92.37458
 51
113.339706
  0
LINE
  8
TRMODEL1
  6
CONTINUOUS
 62
     7
  5
22F
 10
-0.041339
 20
0.996879
 30
0.0
 11
-0.041339
 21
0.829236
 31
0.0
  0
LINE
  8
TRMODEL1
  6
CONTINUOUS
 62
     7
  5
230
 10
-0.753618
 20
0.653864
 30
0.0
 11
-0.622549
 21
0.54934
 31
0.0
  0
ARC
  8
TRMODEL1
  6
CONTINUOUS
 62
     7
  5
231
 10
0.0
 20
0.0
 30
0.0
 40
0.997736
 50
118.088866
 51
139.053991
  0
LINE
  8
TRMODEL1
  6
CONTINUOUS
 62
     7
  5
232
 10
-0.469775
 20
0.880221
 30
0.0
 11
-0.397037
 21
0.72918
 31
0.0
  0
LINE
  8
TRMODEL1
  6
CONTINUOUS
 62
     7
  5
233
 10
-0.962687
 20
0.262129
 30
0.0
 11
-0.799247
 21
0.224825
 31
0.0
  0
ARC
  8
TRMODEL1
  6
CONTINUOUS
 62
     7
  5
234
 10
0.0
 20
0.0
 30
0.0
 40
0.997736
 50
143.803151
 51
164.768277
  0
LINE
  8
TRMODEL1
  6
CONTINUOUS
 62
     7
  5
235
 10
-0.805166
 20
0.589224
 30
0.0
 11
-0.674097
 21
0.4847
 31
0.0
  0
LINE
  8
TRMODEL1
  6
CONTINUOUS
 62
     7
  5
236
 10
-0.981084
 20
-0.181524
 30
0.0
 11
-0.817644
 21
-0.14422
 31
0.0
  0
ARC
  8
TRMODEL1
  6
CONTINUOUS
 62
     7
  5
237
 10
0.0
 20
0.0
 30
0.0
 40
0.997736
 50
169.517437
 51
190.482563
  0
LINE
  8
TRMODEL1
  6
CONTINUOUS
 62
     7
  5
238
 10
-0.981084
 20
0.181524
 30
0.0
 11
-0.817644
 21
0.14422
 31
0.0
  0
LINE
  8
TRMODEL1
  6
CONTINUOUS
 62
     7
  5
239
 10
-0.805166
 20
-0.589224
 30
0.0
 11
-0.674097
 21
-0.4847
 31
0.0
  0
ARC
  8
TRMODEL1
  6
CONTINUOUS
 62
     7
  5
23A
 10
0.0
 20
0.0
 30
0.0
 40
0.997736
 50
195.231723
 51
216.196849
  0
LINE
  8
TRMODEL1
  6
CONTINUOUS
 62
     7
  5
23B
 10
-0.962687
 20
-0.262129
 30
0.0
 11
-0.799247
 21
-0.224825
 31
0.0
  0
LINE
  8
TRMODEL1
  6
CONTINUOUS
 62
     7
  5
23C
 10
-0.469775
 20
-0.880221
 30
0.0
 11
-0.397037
 21
-0.72918
 31
0.0
  0
ARC
  8
TRMODEL1
  6
CONTINUOUS
 62
     7
  5
23D
 10
0.0
 20
0.0
 30
0.0
 40
0.997736
 50
220.946009
 51
241.911134
  0
LINE
  8
TRMODEL1
  6
CONTINUOUS
 62
     7
  5
23E
 10
-0.753618
 20
-0.653864
 30
0.0
 11
-0.622549
 21
-0.54934
 31
0.0
  0
LINE
  8
TRMODEL1
  6
CONTINUOUS
 62
     7
  5
23F
 10
1.811024
 20
1.692913
 30
0.0
 11
1.811024
 21
-1.692913
 31
0.0
  0
ARC
  8
TRMODEL1
  6
CONTINUOUS
 62
     7
  5
240
 10
1.692913
 20
1.692913
 30
0.0
 40
0.11811
 50
0.0
 51
90.0
  0
LINE
  8
TRMODEL1
  6
CONTINUOUS
 62
     7
  5
241
 10
-1.692913
 20
1.811024
 30
0.0
 11
1.692913
 21
1.811024
 31
0.0
  0
ARC
  8
TRMODEL1
  6
CONTINUOUS
 62
     7
  5
242
 10
-1.692913
 20
1.692913
 30
0.0
 40
0.11811
 50
90.0
 51
180.0
  0
LINE
  8
TRMODEL1
  6
CONTINUOUS
 62
     7
  5
243
 10
-1.811024
 20
-1.692913
 30
0.0
 11
-1.811024
 21
1.692913
 31
0.0
  0
ARC
  8
TRMODEL1
  6
CONTINUOUS
 62
     7
  5
244
 10
-1.692913
 20
-1.692913
 30
0.0
 40
0.11811
 50
180.0
 51
270.0
  0
LINE
  8
TRMODEL1
  6
CONTINUOUS
 62
     7
  5
245
 10
1.692913
 20
-1.811024
 30
0.0
 11
-1.692913
 21
-1.811024
 31
0.0
  0
ARC
  8
TRMODEL1
  6
CONTINUOUS
 62
     7
  5
246
 10
1.692913
 20
-1.692913
 30
0.0
 40
0.11811
 50
270.0
 51
0.0
  0
ARC
  8
TRMODEL1
  6
CONTINUOUS
 62
     7
  5
247
 10
0.0
 20
0.0
 30
0.0
 40
1.330561
 50
66.066097
 51
88.219618
  0
LINE
  8
TRMODEL1
  6
CONTINUOUS
 62
     7
  5
248
 10
0.041339
 20
1.538815
 30
0.0
 11
0.041339
 21
1.329919
 31
0.0
  0
ARC
  8
TRMODEL1
  6
CONTINUOUS
 62
     7
  5
249
 10
0.0
 20
0.0
 30
0.0
 40
1.53937
 50
65.824533
 51
88.461182
  0
LINE
  8
TRMODEL1
  6
CONTINUOUS
 62
     7
  5
24A
 10
0.630422
 20
1.40436
 30
0.0
 11
0.539785
 21
1.216151
 31
0.0
  0
ARC
  8
TRMODEL1
  6
CONTINUOUS
 62
     7
  5
24B
 10
0.0
 20
0.0
 30
0.0
 40
1.330561
 50
40.351811
 51
62.505332
  0
LINE
  8
TRMODEL1
  6
CONTINUOUS
 62
     7
  5
24C
 10
0.704912
 20
1.368488
 30
0.0
 11
0.614275
 21
1.180279
 31
0.0
  0
ARC
  8
TRMODEL1
  6
CONTINUOUS
 62
     7
  5
24D
 10
0.0
 20
0.0
 30
0.0
 40
1.53937
 50
40.110247
 51
62.746896
  0
LINE
  8
TRMODEL1
  6
CONTINUOUS
 62
     7
  5
24E
 10
1.17732
 20
0.991755
 30
0.0
 11
1.013998
 21
0.861511
 31
0.0
  0
ARC
  8
TRMODEL1
  6
CONTINUOUS
 62
     7
  5
24F
 10
0.0
 20
0.0
 30
0.0
 40
1.330561
 50
14.637525
 51
36.791046
  0
LINE
  8
TRMODEL1
  6
CONTINUOUS
 62
     7
  5
250
 10
1.228868
 20
0.927116
 30
0.0
 11
1.065546
 21
0.796871
 31
0.0
  0
ARC
  8
TRMODEL1
  6
CONTINUOUS
 62
     7
  5
251
 10
0.0
 20
0.0
 30
0.0
 40
1.53937
 50
14.395961
 51
37.03261
  0
LINE
  8
TRMODEL1
  6
CONTINUOUS
 62
     7
  5
252
 10
1.491035
 20
0.382721
 30
0.0
 11
1.287376
 21
0.336237
 31
0.0
  0
ARC
  8
TRMODEL1
  6
CONTINUOUS
 62
     7
  5
253
 10
0.0
 20
0.0
 30
0.0
 40
1.330561
 50
348.92324
 51
11.07676
  0
LINE
  8
TRMODEL1
  6
CONTINUOUS
 62
     7
  5
254
 10
1.509432
 20
0.302116
 30
0.0
 11
1.305774
 21
0.255633
 31
0.0
  0
ARC
  8
TRMODEL1
  6
CONTINUOUS
 62
     7
  5
255
 10
0.0
 20
0.0
 30
0.0
 40
1.53937
 50
348.681676
 51
11.318324
  0
LINE
  8
TRMODEL1
  6
CONTINUOUS
 62
     7
  5
256
 10
1.509432
 20
-0.302116
 30
0.0
 11
1.305774
 21
-0.255633
 31
0.0
  0
ARC
  8
TRMODEL1
  6
CONTINUOUS
 62
     7
  5
257
 10
0.0
 20
0.0
 30
0.0
 40
1.330561
 50
323.208954
 51
345.362475
  0
LINE
  8
TRMODEL1
  6
CONTINUOUS
 62
     7
  5
258
 10
1.491035
 20
-0.382721
 30
0.0
 11
1.287376
 21
-0.336237
 31
0.0
  0
ARC
  8
TRMODEL1
  6
CONTINUOUS
 62
     7
  5
259
 10
0.0
 20
0.0
 30
0.0
 40
1.53937
 50
322.96739
 51
345.604039
  0
LINE
  8
TRMODEL1
  6
CONTINUOUS
 62
     7
  5
25A
 10
1.228868
 20
-0.927116
 30
0.0
 11
1.065546
 21
-0.796871
 31
0.0
  0
ARC
  8
TRMODEL1
  6
CONTINUOUS
 62
     7
  5
25B
 10
0.0
 20
0.0
 30
0.0
 40
1.330561
 50
297.494668
 51
319.648189
  0
LINE
  8
TRMODEL1
  6
CONTINUOUS
 62
     7
  5
25C
 10
1.17732
 20
-0.991755
 30
0.0
 11
1.013998
 21
-0.861511
 31
0.0
  0
ARC
  8
TRMODEL1
  6
CONTINUOUS
 62
     7
  5
25D
 10
0.0
 20
0.0
 30
0.0
 40
1.53937
 50
297.253104
 51
319.889753
  0
LINE
  8
TRMODEL1
  6
CONTINUOUS
 62
     7
  5
25E
 10
0.704912
 20
-1.368488
 30
0.0
 11
0.614275
 21
-1.180279
 31
0.0
  0
ARC
  8
TRMODEL1
  6
CONTINUOUS
 62
     7
  5
25F
 10
0.0
 20
0.0
 30
0.0
 40
1.330561
 50
271.780382
 51
293.933903
  0
LINE
  8
TRMODEL1
  6
CONTINUOUS
 62
     7
  5
260
 10
0.630422
 20
-1.40436
 30
0.0
 11
0.539785
 21
-1.216151
 31
0.0
  0
ARC
  8
TRMODEL1
  6
CONTINUOUS
 62
     7
  5
261
 10
0.0
 20
0.0
 30
0.0
 40
1.53937
 50
271.538818
 51
294.175467
  0
LINE
  8
TRMODEL1
  6
CONTINUOUS
 62
     7
  5
262
 10
0.041339
 20
-1.538815
 30
0.0
 11
0.041339
 21
-1.329919
 31
0.0
  0
LINE
  8
TRMODEL1
  6
CONTINUOUS
 62
     7
  5
263
 10
-0.630422
 20
1.40436
 30
0.0
 11
-0.539785
 21
1.216151
 31
0.0
  0
ARC
  8
TRMODEL1
  6
CONTINUOUS
 62
     7
  5
264
 10
0.0
 20
0.0
 30
0.0
 40
1.53937
 50
91.538818
 51
114.175467
  0
LINE
  8
TRMODEL1
  6
CONTINUOUS
 62
     7
  5
265
 10
-0.041339
 20
1.538815
 30
0.0
 11
-0.041339
 21
1.329919
 31
0.0
  0
ARC
  8
TRMODEL1
  6
CONTINUOUS
 62
     7
  5
266
 10
0.0
 20
0.0
 30
0.0
 40
1.330561
 50
91.780382
 51
113.933903
  0
LINE
  8
TRMODEL1
  6
CONTINUOUS
 62
     7
  5
267
 10
-1.17732
 20
0.991755
 30
0.0
 11
-1.013998
 21
0.861511
 31
0.0
  0
ARC
  8
TRMODEL1
  6
CONTINUOUS
 62
     7
  5
268
 10
0.0
 20
0.0
 30
0.0
 40
1.53937
 50
117.253104
 51
139.889753
  0
LINE
  8
TRMODEL1
  6
CONTINUOUS
 62
     7
  5
269
 10
-0.704912
 20
1.368488
 30
0.0
 11
-0.614275
 21
1.180279
 31
0.0
  0
ARC
  8
TRMODEL1
  6
CONTINUOUS
 62
     7
  5
26A
 10
0.0
 20
0.0
 30
0.0
 40
1.330561
 50
117.494668
 51
139.648189
  0
LINE
  8
TRMODEL1
  6
CONTINUOUS
 62
     7
  5
26B
 10
-1.491035
 20
0.382721
 30
0.0
 11
-1.287376
 21
0.336237
 31
0.0
  0
ARC
  8
TRMODEL1
  6
CONTINUOUS
 62
     7
  5
26C
 10
0.0
 20
0.0
 30
0.0
 40
1.53937
 50
142.96739
 51
165.604039
  0
LINE
  8
TRMODEL1
  6
CONTINUOUS
 62
     7
  5
26D
 10
-1.228868
 20
0.927116
 30
0.0
 11
-1.065546
 21
0.796871
 31
0.0
  0
ARC
  8
TRMODEL1
  6
CONTINUOUS
 62
     7
  5
26E
 10
0.0
 20
0.0
 30
0.0
 40
1.330561
 50
143.208954
 51
165.362475
  0
LINE
  8
TRMODEL1
  6
CONTINUOUS
 62
     7
  5
26F
 10
-1.509432
 20
-0.302116
 30
0.0
 11
-1.305774
 21
-0.255633
 31
0.0
  0
ARC
  8
TRMODEL1
  6
CONTINUOUS
 62
     7
  5
270
 10
0.0
 20
0.0
 30
0.0
 40
1.53937
 50
168.681676
 51
191.318324
  0
LINE
  8
TRMODEL1
  6
CONTINUOUS
 62
     7
  5
271
 10
-1.509432
 20
0.302116
 30
0.0
 11
-1.305774
 21
0.255633
 31
0.0
  0
ARC
  8
TRMODEL1
  6
CONTINUOUS
 62
     7
  5
272
 10
0.0
 20
0.0
 30
0.0
 40
1.330561
 50
168.92324
 51
191.07676
  0
LINE
  8
TRMODEL1
  6
CONTINUOUS
 62
     7
  5
273
 10
-1.228868
 20
-0.927116
 30
0.0
 11
-1.065546
 21
-0.796871
 31
0.0
  0
ARC
  8
TRMODEL1
  6
CONTINUOUS
 62
     7
  5
274
 10
0.0
 20
0.0
 30
0.0
 40
1.53937
 50
194.395961
 51
217.03261
  0
LINE
  8
TRMODEL1
  6
CONTINUOUS
 62
     7
  5
275
 10
-1.491035
 20
-0.382721
 30
0.0
 11
-1.287376
 21
-0.336237
 31
0.0
  0
ARC
  8
TRMODEL1
  6
CONTINUOUS
 62
     7
  5
276
 10
0.0
 20
0.0
 30
0.0
 40
1.330561
 50
194.637525
 51
216.791046
  0
LINE
  8
TRMODEL1
  6
CONTINUOUS
 62
     7
  5
277
 10
-0.704912
 20
-1.368488
 30
0.0
 11
-0.614275
 21
-1.180279
 31
0.0
  0
ARC
  8
TRMODEL1
  6
CONTINUOUS
 62
     7
  5
278
 10
0.0
 20
0.0
 30
0.0
 40
1.53937
 50
220.110247
 51
242.746896
  0
LINE
  8
TRMODEL1
  6
CONTINUOUS
 62
     7
  5
279
 10
-1.17732
 20
-0.991755
 30
0.0
 11
-1.013998
 21
-0.861511
 31
0.0
  0
ARC
  8
TRMODEL1
  6
CONTINUOUS
 62
     7
  5
27A
 10
0.0
 20
0.0
 30
0.0
 40
1.330561
 50
220.351811
 51
242.505332
  0
LINE
  8
TRMODEL1
  6
CONTINUOUS
 62
     7
  5
27B
 10
-0.041339
 20
-1.329919
 30
0.0
 11
-0.041339
 21
-1.538815
 31
0.0
  0
ARC
  8
TRMODEL1
  6
CONTINUOUS
 62
     7
  5
27C
 10
0.0
 20
0.0
 30
0.0
 40
1.53937
 50
245.824533
 51
268.461182
  0
LINE
  8
TRMODEL1
  6
CONTINUOUS
 62
     7
  5
27D
 10
-0.630422
 20
-1.40436
 30
0.0
 11
-0.539785
 21
-1.216151
 31
0.0
  0
ARC
  8
TRMODEL1
  6
CONTINUOUS
 62
     7
  5
27E
 10
0.0
 20
0.0
 30
0.0
 40
1.330561
 50
246.066097
 51
268.219618
  0
ARC
  8
TRMODEL1
  6
CONTINUOUS
 62
     7
  5
27F
 10
0.0
 20
0.0
 30
0.0
 40
1.080413
 50
220.764205
 51
242.092938
  0
LINE
  8
TRMODEL1
  6
CONTINUOUS
 62
     7
  5
280
 10
-0.578384
 20
-1.105751
 30
0.0
 11
-0.505675
 21
-0.95477
 31
0.0
  0
ARC
  8
TRMODEL1
  6
CONTINUOUS
 62
     7
  5
281
 10
0.0
 20
0.0
 30
0.0
 40
1.247884
 50
220.46981
 51
242.387333
  0
LINE
  8
TRMODEL1
  6
CONTINUOUS
 62
     7
  5
282
 10
-0.949325
 20
-0.809936
 30
0.0
 11
-0.818308
 21
-0.705453
 31
0.0
  0
ARC
  8
TRMODEL1
  6
CONTINUOUS
 62
     7
  5
283
 10
0.0
 20
0.0
 30
0.0
 40
1.080413
 50
195.049919
 51
216.378653
  0
LINE
  8
TRMODEL1
  6
CONTINUOUS
 62
     7
  5
284
 10
-1.000874
 20
-0.745296
 30
0.0
 11
-0.869857
 21
-0.640814
 31
0.0
  0
ARC
  8
TRMODEL1
  6
CONTINUOUS
 62
     7
  5
285
 10
0.0
 20
0.0
 30
0.0
 40
1.247884
 50
194.755524
 51
216.673047
  0
LINE
  8
TRMODEL1
  6
CONTINUOUS
 62
     7
  5
286
 10
-1.20673
 20
-0.31783
 30
0.0
 11
-1.043355
 21
-0.280541
 31
0.0
  0
ARC
  8
TRMODEL1
  6
CONTINUOUS
 62
     7
  5
287
 10
0.0
 20
0.0
 30
0.0
 40
1.080413
 50
169.335633
 51
190.664367
  0
LINE
  8
TRMODEL1
  6
CONTINUOUS
 62
     7
  5
288
 10
-1.225128
 20
-0.237226
 30
0.0
 11
-1.061753
 21
-0.199936
 31
0.0
  0
ARC
  8
TRMODEL1
  6
CONTINUOUS
 62
     7
  5
289
 10
0.0
 20
0.0
 30
0.0
 40
1.247884
 50
169.041239
 51
190.958761
  0
LINE
  8
TRMODEL1
  6
CONTINUOUS
 62
     7
  5
28A
 10
-1.225128
 20
0.237226
 30
0.0
 11
-1.061753
 21
0.199936
 31
0.0
  0
ARC
  8
TRMODEL1
  6
CONTINUOUS
 62
     7
  5
28B
 10
0.0
 20
0.0
 30
0.0
 40
1.080413
 50
143.621347
 51
164.950081
  0
LINE
  8
TRMODEL1
  6
CONTINUOUS
 62
     7
  5
28C
 10
-1.20673
 20
0.31783
 30
0.0
 11
-1.043355
 21
0.280541
 31
0.0
  0
ARC
  8
TRMODEL1
  6
CONTINUOUS
 62
     7
  5
28D
 10
0.0
 20
0.0
 30
0.0
 40
1.247884
 50
143.326953
 51
165.244476
  0
LINE
  8
TRMODEL1
  6
CONTINUOUS
 62
     7
  5
28E
 10
-1.000874
 20
0.745296
 30
0.0
 11
-0.869857
 21
0.640814
 31
0.0
  0
ARC
  8
TRMODEL1
  6
CONTINUOUS
 62
     7
  5
28F
 10
0.0
 20
0.0
 30
0.0
 40
1.080413
 50
117.907062
 51
139.235795
  0
LINE
  8
TRMODEL1
  6
CONTINUOUS
 62
     7
  5
290
 10
-0.949325
 20
0.809936
 30
0.0
 11
-0.818308
 21
0.705453
 31
0.0
  0
ARC
  8
TRMODEL1
  6
CONTINUOUS
 62
     7
  5
291
 10
0.0
 20
0.0
 30
0.0
 40
1.247884
 50
117.612667
 51
139.53019
  0
LINE
  8
TRMODEL1
  6
CONTINUOUS
 62
     7
  5
292
 10
-0.578384
 20
1.105751
 30
0.0
 11
-0.505675
 21
0.95477
 31
0.0
  0
ARC
  8
TRMODEL1
  6
CONTINUOUS
 62
     7
  5
293
 10
0.0
 20
0.0
 30
0.0
 40
1.080413
 50
92.192776
 51
113.52151
  0
LINE
  8
TRMODEL1
  6
CONTINUOUS
 62
     7
  5
294
 10
-0.503895
 20
1.141624
 30
0.0
 11
-0.431186
 21
0.990642
 31
0.0
  0
ARC
  8
TRMODEL1
  6
CONTINUOUS
 62
     7
  5
295
 10
0.0
 20
0.0
 30
0.0
 40
1.247884
 50
91.898382
 51
113.815904
  0
LINE
  8
TRMODEL1
  6
CONTINUOUS
 62
     7
  5
296
 10
-0.041339
 20
1.247199
 30
0.0
 11
-0.041339
 21
1.079622
 31
0.0
  0
LINE
  8
TRMODEL1
  6
CONTINUOUS
 62
     7
  5
297
 10
-0.041339
 20
-1.079622
 30
0.0
 11
-0.041339
 21
-1.247199
 31
0.0
  0
ARC
  8
TRMODEL1
  6
CONTINUOUS
 62
     7
  5
298
 10
0.0
 20
0.0
 30
0.0
 40
1.247884
 50
246.184096
 51
268.101618
  0
LINE
  8
TRMODEL1
  6
CONTINUOUS
 62
     7
  5
299
 10
-0.503895
 20
-1.141624
 30
0.0
 11
-0.431186
 21
-0.990642
 31
0.0
  0
ARC
  8
TRMODEL1
  6
CONTINUOUS
 62
     7
  5
29A
 10
0.0
 20
0.0
 30
0.0
 40
1.080413
 50
246.47849
 51
267.807224
  0
LINE
  8
TRMODEL1
  6
CONTINUOUS
 62
     7
  5
29B
 10
0.503895
 20
-1.141624
 30
0.0
 11
0.431186
 21
-0.990642
 31
0.0
  0
ARC
  8
TRMODEL1
  6
CONTINUOUS
 62
     7
  5
29C
 10
0.0
 20
0.0
 30
0.0
 40
1.247884
 50
271.898382
 51
293.815904
  0
LINE
  8
TRMODEL1
  6
CONTINUOUS
 62
     7
  5
29D
 10
0.041339
 20
-1.247199
 30
0.0
 11
0.041339
 21
-1.079622
 31
0.0
  0
ARC
  8
TRMODEL1
  6
CONTINUOUS
 62
     7
  5
29E
 10
0.0
 20
0.0
 30
0.0
 40
1.080413
 50
272.192776
 51
293.52151
  0
LINE
  8
TRMODEL1
  6
CONTINUOUS
 62
     7
  5
29F
 10
0.949325
 20
-0.809936
 30
0.0
 11
0.818308
 21
-0.705453
 31
0.0
  0
ARC
  8
TRMODEL1
  6
CONTINUOUS
 62
     7
  5
2A0
 10
0.0
 20
0.0
 30
0.0
 40
1.247884
 50
297.612667
 51
319.53019
  0
LINE
  8
TRMODEL1
  6
CONTINUOUS
 62
     7
  5
2A1
 10
0.578384
 20
-1.105751
 30
0.0
 11
0.505675
 21
-0.95477
 31
0.0
  0
ARC
  8
TRMODEL1
  6
CONTINUOUS
 62
     7
  5
2A2
 10
0.0
 20
0.0
 30
0.0
 40
1.080413
 50
297.907062
 51
319.235795
  0
LINE
  8
TRMODEL1
  6
CONTINUOUS
 62
     7
  5
2A3
 10
1.20673
 20
-0.31783
 30
0.0
 11
1.043355
 21
-0.280541
 31
0.0
  0
ARC
  8
TRMODEL1
  6
CONTINUOUS
 62
     7
  5
2A4
 10
0.0
 20
0.0
 30
0.0
 40
1.247884
 50
323.326953
 51
345.244476
  0
LINE
  8
TRMODEL1
  6
CONTINUOUS
 62
     7
  5
2A5
 10
1.000874
 20
-0.745296
 30
0.0
 11
0.869857
 21
-0.640814
 31
0.0
  0
ARC
  8
TRMODEL1
  6
CONTINUOUS
 62
     7
  5
2A6
 10
0.0
 20
0.0
 30
0.0
 40
1.080413
 50
323.621347
 51
344.950081
  0
LINE
  8
TRMODEL1
  6
CONTINUOUS
 62
     7
  5
2A7
 10
1.225128
 20
0.237226
 30
0.0
 11
1.061753
 21
0.199936
 31
0.0
  0
ARC
  8
TRMODEL1
  6
CONTINUOUS
 62
     7
  5
2A8
 10
0.0
 20
0.0
 30
0.0
 40
1.247884
 50
349.041239
 51
10.958761
  0
LINE
  8
TRMODEL1
  6
CONTINUOUS
 62
     7
  5
2A9
 10
1.225128
 20
-0.237226
 30
0.0
 11
1.061753
 21
-0.199936
 31
0.0
  0
ARC
  8
TRMODEL1
  6
CONTINUOUS
 62
     7
  5
2AA
 10
0.0
 20
0.0
 30
0.0
 40
1.080413
 50
349.335633
 51
10.664367
  0
LINE
  8
TRMODEL1
  6
CONTINUOUS
 62
     7
  5
2AB
 10
1.000874
 20
0.745296
 30
0.0
 11
0.869857
 21
0.640814
 31
0.0
  0
ARC
  8
TRMODEL1
  6
CONTINUOUS
 62
     7
  5
2AC
 10
0.0
 20
0.0
 30
0.0
 40
1.247884
 50
14.755524
 51
36.673047
  0
LINE
  8
TRMODEL1
  6
CONTINUOUS
 62
     7
  5
2AD
 10
1.20673
 20
0.31783
 30
0.0
 11
1.043355
 21
0.280541
 31
0.0
  0
ARC
  8
TRMODEL1
  6
CONTINUOUS
 62
     7
  5
2AE
 10
0.0
 20
0.0
 30
0.0
 40
1.080413
 50
15.049919
 51
36.378653
  0
LINE
  8
TRMODEL1
  6
CONTINUOUS
 62
     7
  5
2AF
 10
0.578384
 20
1.105751
 30
0.0
 11
0.505675
 21
0.95477
 31
0.0
  0
ARC
  8
TRMODEL1
  6
CONTINUOUS
 62
     7
  5
2B0
 10
0.0
 20
0.0
 30
0.0
 40
1.247884
 50
40.46981
 51
62.387333
  0
LINE
  8
TRMODEL1
  6
CONTINUOUS
 62
     7
  5
2B1
 10
0.949325
 20
0.809936
 30
0.0
 11
0.818308
 21
0.705453
 31
0.0
  0
ARC
  8
TRMODEL1
  6
CONTINUOUS
 62
     7
  5
2B2
 10
0.0
 20
0.0
 30
0.0
 40
1.080413
 50
40.764205
 51
62.092938
  0
LINE
  8
TRMODEL1
  6
CONTINUOUS
 62
     7
  5
2B3
 10
0.041339
 20
1.247199
 30
0.0
 11
0.041339
 21
1.079622
 31
0.0
  0
ARC
  8
TRMODEL1
  6
CONTINUOUS
 62
     7
  5
2B4
 10
0.0
 20
0.0
 30
0.0
 40
1.247884
 50
66.184096
 51
88.101618
  0
LINE
  8
TRMODEL1
  6
CONTINUOUS
 62
     7
  5
2B5
 10
0.503895
 20
1.141624
 30
0.0
 11
0.431186
 21
0.990642
 31
0.0
  0
ARC
  8
TRMODEL1
  6
CONTINUOUS
 62
     7
  5
2B6
 10
0.0
 20
0.0
 30
0.0
 40
1.080413
 50
66.47849
 51
87.807224
  0
LINE
  8
TRMODEL1
  6
CONTINUOUS
 62
     7
  5
2B7
 10
-2.362205
 20
-2.362205
 30
0.0
 11
-2.362205
 21
2.362205
 31
0.0
  0
LINE
  8
TRMODEL1
  6
CONTINUOUS
 62
     7
  5
2B8
 10
2.362205
 20
-2.362205
 30
0.0
 11
-2.362205
 21
-2.362205
 31
0.0
  0
LINE
  8
TRMODEL1
  6
CONTINUOUS
 62
     7
  5
2B9
 10
2.362205
 20
2.362205
 30
0.0
 11
2.362205
 21
-2.362205
 31
0.0
  0
LINE
  8
TRMODEL1
  6
CONTINUOUS
 62
     7
  5
2BA
 10
-2.362205
 20
2.362205
 30
0.0
 11
2.362205
 21
2.362205
 31
0.0
  0
ENDSEC
  0
EOF
