  0
SECTION
  2
HEADER
  9
$ACADVER
  1
AC1018
  9
$ACADMAINTVER
 70
   104
  9
$DWGCODEPAGE
  3
ANSI_932
  9
$AUTHOR
  1
SHIMPO
  9
$CUSTOMPROPERTYTAG
  1
マネージャ
  9
$CUSTOMPROPERTY
  1

  9
$CUSTOMPROPERTYTAG
  1
会社
  9
$CUSTOMPROPERTY
  1

  9
$CUSTOMPROPERTYTAG
  1
カテゴリ
  9
$CUSTOMPROPERTY
  1

  9
$CUSTOMPROPERTYTAG
  1
部品番号
  9
$CUSTOMPROPERTY
  1
VRXF-□-15~81C-S-14BP10
  9
$CUSTOMPROPERTYTAG
  1
説明
  9
$CUSTOMPROPERTY
  1

  9
$CUSTOMPROPERTYTAG
  1
プロジェクト
  9
$CUSTOMPROPERTY
  1

  9
$CUSTOMPROPERTYTAG
  1
設計者
  9
$CUSTOMPROPERTY
  1
SHIMPO
  9
$CUSTOMPROPERTYTAG
  1
エンジニア
  9
$CUSTOMPROPERTY
  1

  9
$CUSTOMPROPERTYTAG
  1
責任者
  9
$CUSTOMPROPERTY
  1

  9
$CUSTOMPROPERTYTAG
  1
コスト センター
  9
$CUSTOMPROPERTY
  1

  9
$CUSTOMPROPERTYTAG
  1
ベンダー
  9
$CUSTOMPROPERTY
  1

  9
$CUSTOMPROPERTYTAG
  1
ユーザ ステータス
  9
$CUSTOMPROPERTY
  1

  9
$CUSTOMPROPERTYTAG
  1
設計ステータス
  9
$CUSTOMPROPERTY
  1
作業中
  9
$CUSTOMPROPERTYTAG
  1
確認者
  9
$CUSTOMPROPERTY
  1

  9
$CUSTOMPROPERTYTAG
  1
エンジニアリング承認者
  9
$CUSTOMPROPERTY
  1

  9
$CUSTOMPROPERTYTAG
  1
製造承認者
  9
$CUSTOMPROPERTY
  1

  9
$INSBASE
 10
0.0
 20
0.0
 30
0.0
  9
$EXTMIN
 10
0.0
 20
0.0
 30
0.0
  9
$EXTMAX
 10
525.0
 20
371.25
 30
0.0
  9
$LIMMIN
 10
0.0
 20
0.0
  9
$LIMMAX
 10
525.0
 20
371.25
  9
$ORTHOMODE
 70
     0
  9
$REGENMODE
 70
     1
  9
$FILLMODE
 70
     1
  9
$QTEXTMODE
 70
     0
  9
$MIRRTEXT
 70
     0
  9
$LTSCALE
 40
1.25
  9
$ATTMODE
 70
     1
  9
$TEXTSIZE
 40
0.2
  9
$TRACEWID
 40
0.05
  9
$TEXTSTYLE
  7
Standard
  9
$CLAYER
  8
0
  9
$CELTYPE
  6
ByLayer
  9
$CECOLOR
 62
   256
  9
$CELTSCALE
 40
1.0
  9
$DISPSILH
 70
     0
  9
$DIMSCALE
 40
1.0
  9
$DIMASZ
 40
1.799999999999999
  9
$DIMEXO
 40
0.0625
  9
$DIMDLI
 40
0.38
  9
$DIMRND
 40
0.0
  9
$DIMDLE
 40
0.0
  9
$DIMEXE
 40
0.18
  9
$DIMTP
 40
0.0
  9
$DIMTM
 40
0.0
  9
$DIMTXT
 40
0.4499999880790711
  9
$DIMCEN
 40
0.09
  9
$DIMTSZ
 40
0.0
  9
$DIMTOL
 70
     0
  9
$DIMLIM
 70
     0
  9
$DIMTIH
 70
     1
  9
$DIMTOH
 70
     1
  9
$DIMSE1
 70
     0
  9
$DIMSE2
 70
     0
  9
$DIMTAD
 70
     0
  9
$DIMZIN
 70
     0
  9
$DIMBLK
  1

  9
$DIMASO
 70
     1
  9
$DIMSHO
 70
     1
  9
$DIMPOST
  1

  9
$DIMAPOST
  1

  9
$DIMALT
 70
     0
  9
$DIMALTD
 70
     2
  9
$DIMALTF
 40
25.4
  9
$DIMLFAC
 40
1.0
  9
$DIMTOFL
 70
     0
  9
$DIMTVP
 40
0.0
  9
$DIMTIX
 70
     0
  9
$DIMSOXD
 70
     0
  9
$DIMSAH
 70
     0
  9
$DIMBLK1
  1

  9
$DIMBLK2
  1

  9
$DIMSTYLE
  2
Standard
  9
$DIMCLRD
 70
     0
  9
$DIMCLRE
 70
     0
  9
$DIMCLRT
 70
     0
  9
$DIMTFAC
 40
1.0
  9
$DIMGAP
 40
0.09
  9
$DIMJUST
 70
     0
  9
$DIMSD1
 70
     0
  9
$DIMSD2
 70
     0
  9
$DIMTOLJ
 70
     1
  9
$DIMTZIN
 70
     0
  9
$DIMALTZ
 70
     0
  9
$DIMALTTZ
 70
     0
  9
$DIMUPT
 70
     0
  9
$DIMDEC
 70
     4
  9
$DIMTDEC
 70
     4
  9
$DIMALTU
 70
     2
  9
$DIMALTTD
 70
     2
  9
$DIMTXSTY
  7
Standard
  9
$DIMAUNIT
 70
     0
  9
$DIMADEC
 70
     0
  9
$DIMALTRND
 40
0.0
  9
$DIMAZIN
 70
     0
  9
$DIMDSEP
 70
    46
  9
$DIMATFIT
 70
     3
  9
$DIMFRAC
 70
     0
  9
$DIMLDRBLK
  1

  9
$DIMLUNIT
 70
     2
  9
$DIMLWD
 70
    -2
  9
$DIMLWE
 70
    -2
  9
$DIMTMOVE
 70
     0
  9
$LUNITS
 70
     2
  9
$LUPREC
 70
     4
  9
$SKETCHINC
 40
0.1
  9
$FILLETRAD
 40
0.0
  9
$AUNITS
 70
     0
  9
$AUPREC
 70
     0
  9
$MENU
  1
.
  9
$ELEVATION
 40
0.0
  9
$PELEVATION
 40
0.0
  9
$THICKNESS
 40
0.0
  9
$LIMCHECK
 70
     0
  9
$CHAMFERA
 40
0.0
  9
$CHAMFERB
 40
0.0
  9
$CHAMFERC
 40
0.0
  9
$CHAMFERD
 40
0.0
  9
$SKPOLY
 70
     0
  9
$TDCREATE
 40
2457365.046380197
  9
$TDUCREATE
 40
2457364.671380197
  9
$TDUPDATE
 40
2457365.046380197
  9
$TDUUPDATE
 40
2457364.671380197
  9
$TDINDWG
 40
0.0000872569
  9
$TDUSRTIMER
 40
0.0000872569
  9
$USRTIMER
 70
     1
  9
$ANGBASE
 50
0.0
  9
$ANGDIR
 70
     0
  9
$PDMODE
 70
     0
  9
$PDSIZE
 40
0.0
  9
$PLINEWID
 40
0.0
  9
$SPLFRAME
 70
     0
  9
$SPLINETYPE
 70
     6
  9
$SPLINESEGS
 70
     8
  9
$HANDSEED
  5
332
  9
$SURFTAB1
 70
     6
  9
$SURFTAB2
 70
     6
  9
$SURFTYPE
 70
     6
  9
$SURFU
 70
     6
  9
$SURFV
 70
     6
  9
$UCSBASE
  2

  9
$UCSNAME
  2

  9
$UCSORG
 10
0.0
 20
0.0
 30
0.0
  9
$UCSXDIR
 10
1.0
 20
0.0
 30
0.0
  9
$UCSYDIR
 10
0.0
 20
1.0
 30
0.0
  9
$UCSORTHOREF
  2

  9
$UCSORTHOVIEW
 70
     0
  9
$UCSORGTOP
 10
0.0
 20
0.0
 30
0.0
  9
$UCSORGBOTTOM
 10
0.0
 20
0.0
 30
0.0
  9
$UCSORGLEFT
 10
0.0
 20
0.0
 30
0.0
  9
$UCSORGRIGHT
 10
0.0
 20
0.0
 30
0.0
  9
$UCSORGFRONT
 10
0.0
 20
0.0
 30
0.0
  9
$UCSORGBACK
 10
0.0
 20
0.0
 30
0.0
  9
$PUCSBASE
  2

  9
$PUCSNAME
  2

  9
$PUCSORG
 10
0.0
 20
0.0
 30
0.0
  9
$PUCSXDIR
 10
1.0
 20
0.0
 30
0.0
  9
$PUCSYDIR
 10
0.0
 20
1.0
 30
0.0
  9
$PUCSORTHOREF
  2

  9
$PUCSORTHOVIEW
 70
     0
  9
$PUCSORGTOP
 10
0.0
 20
0.0
 30
0.0
  9
$PUCSORGBOTTOM
 10
0.0
 20
0.0
 30
0.0
  9
$PUCSORGLEFT
 10
0.0
 20
0.0
 30
0.0
  9
$PUCSORGRIGHT
 10
0.0
 20
0.0
 30
0.0
  9
$PUCSORGFRONT
 10
0.0
 20
0.0
 30
0.0
  9
$PUCSORGBACK
 10
0.0
 20
0.0
 30
0.0
  9
$USERI1
 70
     0
  9
$USERI2
 70
     0
  9
$USERI3
 70
     0
  9
$USERI4
 70
     0
  9
$USERI5
 70
     0
  9
$USERR1
 40
0.0
  9
$USERR2
 40
0.0
  9
$USERR3
 40
0.0
  9
$USERR4
 40
0.0
  9
$USERR5
 40
0.0
  9
$WORLDVIEW
 70
     1
  9
$SHADEDGE
 70
     3
  9
$SHADEDIF
 70
    70
  9
$TILEMODE
 70
     1
  9
$MAXACTVP
 70
    64
  9
$PINSBASE
 10
0.0
 20
0.0
 30
0.0
  9
$PLIMCHECK
 70
     0
  9
$PEXTMIN
 10
0.0
 20
0.0
 30
0.0
  9
$PEXTMAX
 10
525.0
 20
371.25
 30
0.0
  9
$PLIMMIN
 10
0.0
 20
0.0
  9
$PLIMMAX
 10
525.0
 20
371.25
  9
$UNITMODE
 70
     0
  9
$VISRETAIN
 70
     1
  9
$PLINEGEN
 70
     0
  9
$PSLTSCALE
 70
     1
  9
$TREEDEPTH
 70
  3020
  9
$CMLSTYLE
  2
Standard
  9
$CMLJUST
 70
     0
  9
$CMLSCALE
 40
1.0
  9
$PROXYGRAPHICS
 70
     1
  9
$MEASUREMENT
 70
     1
  9
$CELWEIGHT
370
    -1
  9
$ENDCAPS
280
     0
  9
$JOINSTYLE
280
     0
  9
$LWDISPLAY
290
     0
  9
$INSUNITS
 70
     4
  9
$HYPERLINKBASE
  1

  9
$STYLESHEET
  1

  9
$XEDIT
290
     1
  9
$CEPSNTYPE
380
     0
  9
$PSTYLEMODE
290
     1
  9
$FINGERPRINTGUID
  2
{137DA961-1B85-4732-9B44-FB56F27F7530}
  9
$VERSIONGUID
  2
{F6FCE366-507D-45BE-9D03-7E1F29D5D8F4}
  9
$EXTNAMES
290
     1
  9
$PSVPSCALE
 40
0.0
  9
$OLESTARTUP
290
     0
  9
$SORTENTS
280
   127
  9
$INDEXCTL
280
     0
  9
$HIDETEXT
280
     1
  9
$XCLIPFRAME
290
     0
  9
$HALOGAP
280
     0
  9
$OBSCOLOR
 70
   257
  9
$OBSLTYPE
280
     0
  9
$INTERSECTIONDISPLAY
280
     0
  9
$INTERSECTIONCOLOR
 70
   257
  9
$DIMASSOC
280
     1
  9
$PROJECTNAME
  1

  0
ENDSEC
  0
SECTION
  2
CLASSES
  0
CLASS
  1
ACDBDICTIONARYWDFLT
  2
AcDbDictionaryWithDefault
  3
ObjectDBX Classes
 90
        0
 91
        1
280
     0
281
     0
  0
CLASS
  1
MATERIAL
  2
AcDbMaterial
  3
ObjectDBX Classes
 90
     1153
 91
        3
280
     0
281
     0
  0
CLASS
  1
VISUALSTYLE
  2
AcDbVisualStyle
  3
ObjectDBX Classes
 90
     4095
 91
       24
280
     0
281
     0
  0
CLASS
  1
SCALE
  2
AcDbScale
  3
ObjectDBX Classes
 90
     1153
 91
       17
280
     0
281
     0
  0
CLASS
  1
TABLESTYLE
  2
AcDbTableStyle
  3
ObjectDBX Classes
 90
     4095
 91
        1
280
     0
281
     0
  0
CLASS
  1
MLEADERSTYLE
  2
AcDbMLeaderStyle
  3
ACDB_MLEADERSTYLE_CLASS
 90
     4095
 91
        1
280
     0
281
     0
  0
CLASS
  1
DICTIONARYVAR
  2
AcDbDictionaryVar
  3
ObjectDBX Classes
 90
        0
 91
        8
280
     0
281
     0
  0
CLASS
  1
CELLSTYLEMAP
  2
AcDbCellStyleMap
  3
ObjectDBX Classes
 90
     1152
 91
        1
280
     0
281
     0
  0
ENDSEC
  0
SECTION
  2
TABLES
  0
TABLE
  2
VPORT
  5
8
330
0
100
AcDbSymbolTable
 70
     1
  0
VPORT
  5
57
330
8
100
AcDbSymbolTableRecord
100
AcDbViewportTableRecord
  2
*Active
 70
     0
 10
0.0
 20
0.0
 11
1.0
 21
1.0
 12
262.5
 22
185.625
 13
0.0
 23
0.0
 14
1.0
 24
1.0
 15
0.0
 25
0.0
 16
0.0
 26
0.0
 36
1.0
 17
0.0
 27
0.0
 37
0.0
 40
371.25
 41
1.414141414141414
 42
50.0
 43
0.0
 44
0.0
 50
0.0
 51
0.0
 71
     0
 72
   100
 73
     1
 74
     1
 75
     0
 76
     0
 77
     0
 78
     0
281
     0
 65
     1
110
0.0
120
0.0
130
0.0
111
1.0
121
0.0
131
0.0
112
0.0
122
1.0
132
0.0
 79
     0
146
0.0
  0
ENDTAB
  0
TABLE
  2
LTYPE
  5
5
330
0
100
AcDbSymbolTable
 70
     1
  0
LTYPE
  5
5B
330
5
100
AcDbSymbolTableRecord
100
AcDbLinetypeTableRecord
  2
ByBlock
 70
     0
  3

 72
    65
 73
     0
 40
0.0
  0
LTYPE
  5
5C
330
5
100
AcDbSymbolTableRecord
100
AcDbLinetypeTableRecord
  2
ByLayer
 70
     0
  3

 72
    65
 73
     0
 40
0.0
  0
LTYPE
  5
5D
330
5
100
AcDbSymbolTableRecord
100
AcDbLinetypeTableRecord
  2
Continuous
 70
     0
  3
Solid line
 72
    65
 73
     0
 40
0.0
  0
ENDTAB
  0
TABLE
  2
LAYER
  5
2
330
0
100
AcDbSymbolTable
 70
    26
  0
LAYER
  5
54
330
2
100
AcDbSymbolTableRecord
100
AcDbLayerTableRecord
  2
0
 70
     0
 62
     7
  6
Continuous
370
    -3
390
F
  0
LAYER
  5
77
330
2
100
AcDbSymbolTableRecord
100
AcDbLayerTableRecord
  2
Border (ISO)
 70
     0
 62
     7
  6
Continuous
370
    70
390
F
  0
LAYER
  5
79
330
2
100
AcDbSymbolTableRecord
100
AcDbLayerTableRecord
  2
Center Mark (ISO)
 70
     0
 62
     7
  6
Continuous
370
    25
390
F
  0
LAYER
  5
7A
330
2
100
AcDbSymbolTableRecord
100
AcDbLayerTableRecord
  2
Centerline (ISO)
 70
     0
 62
     7
  6
Continuous
370
    25
390
F
  0
LAYER
  5
85
330
2
100
AcDbSymbolTableRecord
100
AcDbLayerTableRecord
  2
Title (ISO)
 70
     0
 62
     7
  6
Continuous
370
    50
390
F
  0
LAYER
  5
87
330
2
100
AcDbSymbolTableRecord
100
AcDbLayerTableRecord
  2
Visible (ISO)
 70
     0
 62
     7
  6
Continuous
370
    50
390
F
  0
LAYER
  5
88
330
2
100
AcDbSymbolTableRecord
100
AcDbLayerTableRecord
  2
Visible Narrow (ISO)
 70
     0
 62
     7
  6
Continuous
370
    35
390
F
  0
ENDTAB
  0
TABLE
  2
STYLE
  5
3
330
0
100
AcDbSymbolTable
 70
     5
  0
STYLE
  5
55
330
3
100
AcDbSymbolTableRecord
100
AcDbTextStyleTableRecord
  2
Standard
 70
     0
 40
0.0
 41
1.0
 50
0.0
 71
     0
 42
0.2
  3
tahoma.ttf
  4

1001
ACAD
1000
Tahoma
1071
      256
  0
STYLE
  5
5A
330
3
100
AcDbSymbolTableRecord
100
AcDbTextStyleTableRecord
  2
Annotative
 70
     0
 40
0.0
 41
1.0
 50
0.0
 71
     0
 42
0.2
  3
txt
  4

1001
AcadAnnotative
1000
AnnotativeData
1002
{
1070
     1
1070
     1
1002
}
  0
STYLE
  5
8D
330
3
100
AcDbSymbolTableRecord
100
AcDbTextStyleTableRecord
  2
Label Text (JIS)
 70
     0
 40
0.0
 41
1.0
 50
0.0
 71
     0
 42
0.2
  3
tahoma.ttf
  4

1001
ACAD
1000
Tahoma
1071
      256
  0
STYLE
  5
8E
330
3
100
AcDbSymbolTableRecord
100
AcDbTextStyleTableRecord
  2
Note Text (JIS)
 70
     0
 40
0.0
 41
1.0
 50
0.0
 71
     0
 42
0.2
  3
tahoma.ttf
  4

1001
ACAD
1000
Tahoma
1071
      256
  0
STYLE
  5
CC
330
3
100
AcDbSymbolTableRecord
100
AcDbTextStyleTableRecord
  2
文字スタイル12
 70
     0
 40
0.0
 41
1.0
 50
0.0
 71
     0
 42
0.2
  3
tahoma.ttf
  4

1001
ACAD
1000
Tahoma
1071
      256
  0
ENDTAB
  0
TABLE
  2
VIEW
  5
6
330
0
100
AcDbSymbolTable
 70
     0
  0
ENDTAB
  0
TABLE
  2
UCS
  5
7
330
0
100
AcDbSymbolTable
 70
     0
  0
ENDTAB
  0
TABLE
  2
APPID
  5
9
330
0
100
AcDbSymbolTable
 70
     4
  0
APPID
  5
56
330
9
100
AcDbSymbolTableRecord
100
AcDbRegAppTableRecord
  2
ACAD
 70
     0
  0
APPID
  5
5E
330
9
100
AcDbSymbolTableRecord
100
AcDbRegAppTableRecord
  2
AcadAnnotative
 70
     0
  0
APPID
  5
CF
330
9
100
AcDbSymbolTableRecord
100
AcDbRegAppTableRecord
  2
AcadAnnoPO
 70
     0
  0
APPID
  5
331
330
9
100
AcDbSymbolTableRecord
100
AcDbRegAppTableRecord
  2
ACAD_MLEADERVER
 70
     0
  0
ENDTAB
  0
TABLE
  2
DIMSTYLE
  5
A
330
0
100
AcDbSymbolTable
 70
    11
100
AcDbDimStyleTable
 71
     0
  0
DIMSTYLE
105
58
330
A
100
AcDbSymbolTableRecord
100
AcDbDimStyleTableRecord
  2
Standard
 70
     0
340
55
  0
DIMSTYLE
105
59
330
A
100
AcDbSymbolTableRecord
100
AcDbDimStyleTableRecord
  2
Annotative
 70
     0
340
55
1001
AcadAnnotative
1000
AnnotativeData
1002
{
1070
     1
1070
     1
1002
}
  0
DIMSTYLE
105
8F
330
A
100
AcDbSymbolTableRecord
100
AcDbDimStyleTableRecord
  2
Default - Method 1b (JIS)
 70
     0
 40
1.25
 41
2.5
 42
0.0
 43
5.999999999999999
 44
3.174999999999999
 45
0.00000001
 46
10.0
 73
     0
 77
     1
 78
     8
 79
     2
140
4.5
143
0.03937
147
0.8
171
     3
172
     1
176
   256
177
   256
178
   256
271
     2
272
     2
274
     3
284
     8
286
     8
340
8E
341
90
342
90
371
    -1
372
    -1
  0
DIMSTYLE
105
96
330
A
100
AcDbSymbolTableRecord
100
AcDbDimStyleTableRecord
  2
Default - Method 1b (JIS)$7
 70
     0
 40
1.25
 41
2.5
 42
0.0
 43
5.999999999999999
 44
3.174999999999999
 45
0.00000001
 46
10.0
 73
     0
 77
     1
 78
     8
 79
     2
140
4.5
143
0.03937
147
0.8
171
     3
172
     1
176
   256
177
   256
178
   256
271
     2
272
     2
274
     3
284
     8
286
     8
340
8E
341
90
342
90
371
    -1
372
    -1
  0
DIMSTYLE
105
97
330
A
100
AcDbSymbolTableRecord
100
AcDbDimStyleTableRecord
  2
Default - Method 2 (JIS)
 70
     0
 40
1.25
 41
2.5
 42
0.0
 43
5.999999999999999
 44
3.174999999999999
 45
0.00000001
 46
10.0
 77
     1
 78
     8
 79
     2
140
4.5
143
0.03937
147
0.8
171
     3
172
     1
176
   256
177
   256
178
   256
271
     2
272
     2
274
     3
284
     8
286
     8
340
8E
341
90
342
90
371
    -1
372
    -1
  0
DIMSTYLE
105
98
330
A
100
AcDbSymbolTableRecord
100
AcDbDimStyleTableRecord
  2
Default - Method 2 (JIS)$7
 70
     0
 40
1.25
 41
2.5
 42
0.0
 43
5.999999999999999
 44
3.174999999999999
 45
0.00000001
 46
10.0
 77
     1
 78
     8
 79
     2
140
4.5
143
0.03937
147
0.8
171
     3
172
     1
176
   256
177
   256
178
   256
271
     2
272
     2
274
     3
284
     8
286
     8
340
8E
341
90
342
90
371
    -1
372
    -1
  0
DIMSTYLE
105
99
330
A
100
AcDbSymbolTableRecord
100
AcDbDimStyleTableRecord
  2
Default (JIS)
 70
     0
 40
1.25
 41
2.5
 42
0.0
 43
5.999999999999999
 44
1.0
 45
0.00000001
 46
10.0
 73
     0
 74
     0
 77
     1
 78
     8
 79
     2
140
4.5
143
0.03937
146
0.7777777910232544
147
0.8
171
     3
172
     1
176
   256
177
   256
178
   256
271
     2
272
     2
274
     3
340
8E
341
90
342
90
371
    -1
372
    -1
  0
DIMSTYLE
105
9A
330
A
100
AcDbSymbolTableRecord
100
AcDbDimStyleTableRecord
  2
Default (JIS)$7
 70
     0
 40
1.25
 41
2.5
 42
0.0
 43
5.999999999999999
 44
1.0
 45
0.00000001
 46
10.0
 73
     0
 74
     0
 77
     1
 78
     8
 79
     2
140
4.5
143
0.03937
146
0.7777777910232544
147
0.8
171
     3
172
     1
176
   256
177
   256
178
   256
271
     2
272
     2
274
     3
340
8E
341
90
342
90
371
    -1
372
    -1
  0
DIMSTYLE
105
9B
330
A
100
AcDbSymbolTableRecord
100
AcDbDimStyleTableRecord
  2
Alternate (ISO)
 70
     0
 40
1.25
 41
2.5
340
55
342
9C
  0
DIMSTYLE
105
AE
330
A
100
AcDbSymbolTableRecord
100
AcDbDimStyleTableRecord
  2
Datum (ISO)
 70
     0
 40
1.25
 41
2.5
340
55
342
9C
  0
DIMSTYLE
105
BD
330
A
100
AcDbSymbolTableRecord
100
AcDbDimStyleTableRecord
  2
Large (ISO)
 70
     0
 40
1.25
 41
5.0
340
55
342
9C
  0
ENDTAB
  0
TABLE
  2
BLOCK_RECORD
  5
1
330
0
100
AcDbSymbolTable
 70
     7
  0
BLOCK_RECORD
  5
6C
330
1
100
AcDbSymbolTableRecord
100
AcDbBlockTableRecord
  2
*Model_Space
340
6F
  0
BLOCK_RECORD
  5
68
330
1
100
AcDbSymbolTableRecord
100
AcDbBlockTableRecord
  2
*Paper_Space
340
6B
  0
BLOCK_RECORD
  5
70
330
1
100
AcDbSymbolTableRecord
100
AcDbBlockTableRecord
  2
*Paper_Space0
340
73
  0
BLOCK_RECORD
  5
90
330
1
100
AcDbSymbolTableRecord
100
AcDbBlockTableRecord
  2
_Open
340
0
  0
BLOCK_RECORD
  5
9C
330
1
100
AcDbSymbolTableRecord
100
AcDbBlockTableRecord
  2
_Closed
340
0
  0
BLOCK_RECORD
  5
A3
330
1
100
AcDbSymbolTableRecord
100
AcDbBlockTableRecord
  2
DatumFilled45
340
0
  0
BLOCK_RECORD
  5
AF
330
1
100
AcDbSymbolTableRecord
100
AcDbBlockTableRecord
  2
Filled-1
340
0
  0
BLOCK_RECORD
  5
BE
330
1
100
AcDbSymbolTableRecord
100
AcDbBlockTableRecord
  2
図面枠 VR用
340
0
102
{BLKREFS
331
C5
102
}
  0
BLOCK_RECORD
  5
C6
330
1
100
AcDbSymbolTableRecord
100
AcDbBlockTableRecord
  2
表題欄 VR用
340
0
102
{BLKREFS
331
D0
102
}
  0
ENDTAB
  0
ENDSEC
  0
SECTION
  2
BLOCKS
  0
BLOCK
  5
6D
330
6C
100
AcDbEntity
  8
0
100
AcDbBlockBegin
  2
*Model_Space
 70
     0
 10
0.0
 20
0.0
 30
0.0
  3
*Model_Space
  1

  0
ENDBLK
  5
6E
330
6C
100
AcDbEntity
  8
0
100
AcDbBlockEnd
  0
BLOCK
  5
69
330
68
100
AcDbEntity
 67
     1
  8
0
100
AcDbBlockBegin
  2
*Paper_Space
 70
     0
 10
0.0
 20
0.0
 30
0.0
  3
*Paper_Space
  1

  0
ENDBLK
  5
6A
330
68
100
AcDbEntity
 67
     1
  8
0
100
AcDbBlockEnd
  0
BLOCK
  5
71
330
70
100
AcDbEntity
 67
     1
  8
0
100
AcDbBlockBegin
  2
*Paper_Space0
 70
     0
 10
0.0
 20
0.0
 30
0.0
  3
*Paper_Space0
  1

  0
ENDBLK
  5
72
330
70
100
AcDbEntity
 67
     1
  8
0
100
AcDbBlockEnd
  0
BLOCK
  5
94
330
90
100
AcDbEntity
  8
0
100
AcDbBlockBegin
  2
_Open
 70
     0
 10
0.0
 20
0.0
 30
0.0
  3
_Open
  1

  0
LINE
  5
91
330
90
100
AcDbEntity
  8
0
  6
ByBlock
 62
     0
370
    -2
100
AcDbLine
 10
-1.0
 20
0.1666666666666666
 30
0.0
 11
0.0
 21
0.0
 31
0.0
  0
LINE
  5
92
330
90
100
AcDbEntity
  8
0
  6
ByBlock
 62
     0
370
    -2
100
AcDbLine
 10
-1.0
 20
-0.1666666666666666
 30
0.0
 11
0.0
 21
0.0
 31
0.0
  0
LINE
  5
93
330
90
100
AcDbEntity
  8
0
  6
ByBlock
 62
     0
370
    -2
100
AcDbLine
 10
0.0
 20
0.0
 30
0.0
 11
-1.0
 21
0.0
 31
0.0
  0
ENDBLK
  5
95
330
90
100
AcDbEntity
  8
0
100
AcDbBlockEnd
  0
BLOCK
  5
A1
330
9C
100
AcDbEntity
  8
0
100
AcDbBlockBegin
  2
_Closed
 70
     0
 10
0.0
 20
0.0
 30
0.0
  3
_Closed
  1

  0
LINE
  5
9D
330
9C
100
AcDbEntity
  8
0
  6
ByBlock
 62
     0
370
    -2
100
AcDbLine
 10
-1.0
 20
0.1666666666666666
 30
0.0
 11
0.0
 21
0.0
 31
0.0
  0
LINE
  5
9E
330
9C
100
AcDbEntity
  8
0
  6
ByBlock
 62
     0
370
    -2
100
AcDbLine
 10
0.0
 20
0.0
 30
0.0
 11
-1.0
 21
-0.1666666666666666
 31
0.0
  0
LINE
  5
9F
330
9C
100
AcDbEntity
  8
0
  6
ByBlock
 62
     0
370
    -2
100
AcDbLine
 10
-1.0
 20
0.1666666666666666
 30
0.0
 11
-1.0
 21
-0.1666666666666666
 31
0.0
  0
LINE
  5
A0
330
9C
100
AcDbEntity
  8
0
  6
ByBlock
 62
     0
370
    -2
100
AcDbLine
 10
0.0
 20
0.0
 30
0.0
 11
-1.0
 21
0.0
 31
0.0
  0
ENDBLK
  5
A2
330
9C
100
AcDbEntity
  8
0
100
AcDbBlockEnd
  0
BLOCK
  5
A4
330
A3
100
AcDbEntity
  8
0
100
AcDbBlockBegin
  2
DatumFilled45
 70
     0
 10
0.0
 20
0.0
 30
0.0
  3
DatumFilled45
  1

  0
POLYLINE
  5
A6
330
A3
100
AcDbEntity
  8
0
 62
     0
100
AcDb2dPolyline
 66
     1
 10
0.0
 20
0.0
 30
0.0
 70
   128
  0
VERTEX
  5
A7
330
A6
100
AcDbEntity
  8
0
 62
     0
100
AcDbVertex
100
AcDb2dVertex
 10
0.0
 20
1.0
 30
0.0
  0
VERTEX
  5
A8
330
A6
100
AcDbEntity
  8
0
 62
     0
100
AcDbVertex
100
AcDb2dVertex
 10
0.0
 20
-1.0
 30
0.0
  0
VERTEX
  5
AA
330
A6
100
AcDbEntity
  8
0
 62
     0
100
AcDbVertex
100
AcDb2dVertex
 10
-1.0
 20
0.0
 30
0.0
  0
VERTEX
  5
AB
330
A6
100
AcDbEntity
  8
0
 62
     0
100
AcDbVertex
100
AcDb2dVertex
 10
0.0
 20
1.0
 30
0.0
  0
SEQEND
  5
A9
330
A6
100
AcDbEntity
  8
0
 62
     0
  0
SOLID
  5
AD
330
A3
100
AcDbEntity
  8
0
 62
     0
100
AcDbTrace
 10
0.0
 20
1.0
 30
0.0
 11
0.0
 21
-1.0
 31
0.0
 12
-1.0
 22
0.0
 32
0.0
 13
0.0
 23
1.0
 33
0.0
  0
ENDBLK
  5
A5
330
A3
100
AcDbEntity
  8
0
100
AcDbBlockEnd
  0
BLOCK
  5
B0
330
AF
100
AcDbEntity
  8
0
100
AcDbBlockBegin
  2
Filled-1
 70
     0
 10
0.0
 20
0.0
 30
0.0
  3
Filled-1
  1

  0
LINE
  5
B2
330
AF
100
AcDbEntity
  8
0
 62
     0
100
AcDbLine
 10
-1.0
 20
0.0
 30
0.0
 11
0.0
 21
0.0
 31
0.0
  0
POLYLINE
  5
B3
330
AF
100
AcDbEntity
  8
0
 62
     0
100
AcDb2dPolyline
 66
     1
 10
0.0
 20
0.0
 30
0.0
 70
   128
  0
VERTEX
  5
B4
330
B3
100
AcDbEntity
  8
0
 62
     0
100
AcDbVertex
100
AcDb2dVertex
 10
-1.0
 20
-0.1
 30
0.0
  0
VERTEX
  5
B5
330
B3
100
AcDbEntity
  8
0
 62
     0
100
AcDbVertex
100
AcDb2dVertex
 10
0.0
 20
0.0
 30
0.0
  0
VERTEX
  5
B7
330
B3
100
AcDbEntity
  8
0
 62
     0
100
AcDbVertex
100
AcDb2dVertex
 10
-1.0
 20
0.1
 30
0.0
  0
VERTEX
  5
B8
330
B3
100
AcDbEntity
  8
0
 62
     0
100
AcDbVertex
100
AcDb2dVertex
 10
-1.0
 20
-0.1
 30
0.0
  0
SEQEND
  5
B6
330
B3
100
AcDbEntity
  8
0
 62
     0
  0
SOLID
  5
B9
330
AF
100
AcDbEntity
  8
0
 62
     0
100
AcDbTrace
 10
-1.0
 20
-0.1
 30
0.0
 11
0.0
 21
0.0
 31
0.0
 12
-1.0
 22
0.1
 32
0.0
 13
-1.0
 23
-0.1
 33
0.0
  0
LINE
  5
BA
330
AF
100
AcDbEntity
  8
0
 62
     0
100
AcDbLine
 10
-1.0
 20
-0.1
 30
0.0
 11
0.0
 21
0.0
 31
0.0
  0
LINE
  5
BB
330
AF
100
AcDbEntity
  8
0
 62
     0
100
AcDbLine
 10
0.0
 20
0.0
 30
0.0
 11
-1.0
 21
0.1
 31
0.0
  0
LINE
  5
BC
330
AF
100
AcDbEntity
  8
0
 62
     0
100
AcDbLine
 10
-1.0
 20
0.1
 30
0.0
 11
-1.0
 21
-0.1
 31
0.0
  0
ENDBLK
  5
B1
330
AF
100
AcDbEntity
  8
0
100
AcDbBlockEnd
  0
BLOCK
  5
BF
330
BE
100
AcDbEntity
  8
0
100
AcDbBlockBegin
  2
図面枠 VR用
 70
     0
 10
0.0
 20
0.0
 30
0.0
  3
図面枠 VR用
  1

  0
LINE
  5
C1
330
BE
100
AcDbEntity
  8
Border (ISO)
100
AcDbLine
 10
410.0
 20
287.0
 30
0.0
 11
410.0
 21
10.0
 31
0.0
  0
LINE
  5
C2
330
BE
100
AcDbEntity
  8
Border (ISO)
100
AcDbLine
 10
10.0
 20
287.0
 30
0.0
 11
10.0
 21
10.0
 31
0.0
  0
LINE
  5
C3
330
BE
100
AcDbEntity
  8
Border (ISO)
100
AcDbLine
 10
10.0
 20
10.0
 30
0.0
 11
410.0
 21
10.0
 31
0.0
  0
LINE
  5
C4
330
BE
100
AcDbEntity
  8
Border (ISO)
100
AcDbLine
 10
10.0
 20
287.0
 30
0.0
 11
410.0
 21
287.0
 31
0.0
  0
ENDBLK
  5
C0
330
BE
100
AcDbEntity
  8
0
100
AcDbBlockEnd
  0
BLOCK
  5
C7
330
C6
100
AcDbEntity
  8
0
100
AcDbBlockBegin
  2
表題欄 VR用
 70
     2
 10
0.0
 20
0.0
 30
0.0
  3
表題欄 VR用
  1

  0
LINE
  5
C9
330
C6
100
AcDbEntity
  8
Title (ISO)
100
AcDbLine
 10
181.6756649546459
 20
100.0
 30
0.0
 11
239.9999999999999
 21
100.0
 31
0.0
  0
LINE
  5
CA
330
C6
100
AcDbEntity
  8
Title (ISO)
100
AcDbLine
 10
239.9999999999999
 20
100.0
 30
0.0
 11
-160.0
 21
100.0
 31
0.0
  0
LINE
  5
CB
330
C6
100
AcDbEntity
  8
Title (ISO)
100
AcDbLine
 10
239.9999999999999
 20
109.0000000000001
 30
0.0
 11
239.9999999999999
 21
100.0
 31
0.0
  0
ATTDEF
  5
CD
102
{ACAD_XDICTIONARY
360
2F6
102
}
330
C6
100
AcDbEntity
  8
Title (ISO)
100
AcDbText
 10
14.99492945212132
 20
102.9499999980937
 30
0.0
 40
3.100000023841857
  1
VRXF-□-15~81C-S-14BP10
  7
文字スタイル12
100
AcDbAttributeDefinition
  3
部品番号
  2
部品番号_001
 70
     0
  0
ENDBLK
  5
C8
330
C6
100
AcDbEntity
  8
0
100
AcDbBlockEnd
  0
ENDSEC
  0
SECTION
  2
ENTITIES
  0
INSERT
  5
C5
330
6C
100
AcDbEntity
  8
0
100
AcDbBlockReference
  2
図面枠 VR用
 10
0.0
 20
0.0
 30
0.0
 41
1.25
 42
1.25
 43
1.25
  0
INSERT
  5
D0
330
6C
100
AcDbEntity
  8
0
100
AcDbBlockReference
 66
     1
  2
表題欄 VR用
 10
212.5
 20
-112.5
 30
0.0
 41
1.25
 42
1.25
 43
1.25
  0
ATTRIB
  5
D3
102
{ACAD_XDICTIONARY
360
2F9
102
}
330
D0
100
AcDbEntity
  8
Title (ISO)
100
AcDbText
 10
231.2436618151517
 20
16.18749999761712
 30
0.0
 40
3.875000029802322
  1
VRXF-□-15~81C-S-14BP10
  7
文字スタイル12
100
AcDbAttribute
  2
部品番号_001
 70
     0
  0
SEQEND
  5
D2
330
D0
100
AcDbEntity
  8
0
  0
LINE
  5
D4
330
6C
100
AcDbEntity
  8
Visible (ISO)
100
AcDbLine
 10
308.0
 20
106.4571067811865
 30
0.0
 11
308.0
 21
141.0428932188134
 31
0.0
  0
LINE
  5
D5
330
6C
100
AcDbEntity
  8
Visible Narrow (ISO)
100
AcDbLine
 10
308.1464466094067
 20
141.3964466094067
 30
0.0
 11
308.1464466094067
 21
106.1035533905932
 31
0.0
  0
ARC
  5
D6
330
6C
100
AcDbEntity
  8
Visible (ISO)
100
AcDbCircle
 10
308.4999999999999
 20
106.4571067811865
 30
0.0
 40
0.5000000000000001
100
AcDbArc
 50
180.0
 51
225.0
  0
ARC
  5
D7
330
6C
100
AcDbEntity
  8
Visible (ISO)
100
AcDbCircle
 10
308.4999999999999
 20
141.0428932188134
 30
0.0
 40
0.5000000000000001
100
AcDbArc
 50
135.0
 51
180.0
  0
LINE
  5
D8
330
6C
100
AcDbEntity
  8
Visible Narrow (ISO)
100
AcDbLine
 10
309.2071067811866
 20
105.0428932188134
 30
0.0
 11
309.2071067811866
 21
142.4571067811866
 31
0.0
  0
ARC
  5
D9
330
6C
100
AcDbEntity
  8
Visible (ISO)
100
AcDbCircle
 10
308.5
 20
104.3357864376269
 30
0.0
 40
1.0
100
AcDbArc
 50
0.0
 51
45.00000000000089
  0
ARC
  5
DA
330
6C
100
AcDbEntity
  8
Visible (ISO)
100
AcDbCircle
 10
308.5
 20
143.1642135623731
 30
0.0
 40
1.0
100
AcDbArc
 50
314.9999999999991
 51
0.0
  0
LINE
  5
DB
330
6C
100
AcDbEntity
  8
Visible (ISO)
100
AcDbLine
 10
309.5
 20
94.74999999999999
 30
0.0
 11
309.5
 21
152.75
 31
0.0
  0
LINE
  5
DC
330
6C
100
AcDbEntity
  8
Visible Narrow (ISO)
100
AcDbLine
 10
311.5
 20
154.75
 30
0.0
 11
311.5
 21
92.75
 31
0.0
  0
ARC
  5
DD
330
6C
100
AcDbEntity
  8
Visible (ISO)
100
AcDbCircle
 10
311.5
 20
94.74999999999999
 30
0.0
 40
2.0
100
AcDbArc
 50
180.0
 51
270.0
  0
ARC
  5
DE
330
6C
100
AcDbEntity
  8
Visible (ISO)
100
AcDbCircle
 10
311.5
 20
152.75
 30
0.0
 40
2.0
100
AcDbArc
 50
90.0
 51
180.0
  0
LINE
  5
DF
330
6C
100
AcDbEntity
  8
Visible Narrow (ISO)
100
AcDbLine
 10
320.0
 20
92.75
 30
0.0
 11
320.0
 21
154.75
 31
0.0
  0
ARC
  5
E0
330
6C
100
AcDbEntity
  8
Visible (ISO)
100
AcDbCircle
 10
320.0
 20
90.75000000000001
 30
0.0
 40
2.0
100
AcDbArc
 50
0.0
 51
90.0
  0
ARC
  5
E1
330
6C
100
AcDbEntity
  8
Visible (ISO)
100
AcDbCircle
 10
320.0
 20
156.75
 30
0.0
 40
2.0
100
AcDbArc
 50
270.0
 51
0.0
  0
LINE
  5
E2
330
6C
100
AcDbEntity
  8
Visible (ISO)
100
AcDbLine
 10
322.0
 20
89.25
 30
0.0
 11
322.0
 21
158.25
 31
0.0
  0
LINE
  5
E3
330
6C
100
AcDbEntity
  8
Visible (ISO)
100
AcDbLine
 10
322.5
 20
158.75
 30
0.0
 11
322.5
 21
88.75
 31
0.0
  0
LINE
  5
E4
330
6C
100
AcDbEntity
  8
Visible (ISO)
100
AcDbLine
 10
322.0
 20
158.25
 30
0.0
 11
322.5
 21
158.75
 31
0.0
  0
LINE
  5
E5
330
6C
100
AcDbEntity
  8
Visible (ISO)
100
AcDbLine
 10
322.0
 20
89.25
 30
0.0
 11
322.5
 21
88.75
 31
0.0
  0
LINE
  5
E6
330
6C
100
AcDbEntity
  8
Visible Narrow (ISO)
100
AcDbLine
 10
324.5999999999999
 20
88.75
 30
0.0
 11
324.5999999999999
 21
158.75
 31
0.0
  0
ARC
  5
E7
330
6C
100
AcDbEntity
  8
Visible (ISO)
100
AcDbCircle
 10
324.5999999999999
 20
88.34999999999999
 30
0.0
 40
0.4000000000000001
100
AcDbArc
 50
0.0
 51
90.0
  0
ARC
  5
E8
330
6C
100
AcDbEntity
  8
Visible (ISO)
100
AcDbCircle
 10
324.5999999999999
 20
159.15
 30
0.0
 40
0.4000000000000001
100
AcDbArc
 50
270.0
 51
0.0
  0
LINE
  5
E9
330
6C
100
AcDbEntity
  8
Visible (ISO)
100
AcDbLine
 10
325.0
 20
85.25
 30
0.0
 11
325.0
 21
89.74999999999999
 31
0.0
  0
LINE
  5
EA
330
6C
100
AcDbEntity
  8
Visible (ISO)
100
AcDbLine
 10
325.0
 20
157.75
 30
0.0
 11
325.0
 21
89.74999999999999
 31
0.0
  0
LINE
  5
EB
330
6C
100
AcDbEntity
  8
Visible (ISO)
100
AcDbLine
 10
325.0
 20
157.75
 30
0.0
 11
325.0
 21
162.25
 31
0.0
  0
LINE
  5
EC
330
6C
100
AcDbEntity
  8
Visible (ISO)
100
AcDbLine
 10
325.0
 20
162.25
 30
0.0
 11
325.5
 21
162.75
 31
0.0
  0
LINE
  5
ED
330
6C
100
AcDbEntity
  8
Visible Narrow (ISO)
100
AcDbLine
 10
325.0
 20
157.75
 30
0.0
 11
325.5
 21
157.75
 31
0.0
  0
LINE
  5
EE
330
6C
100
AcDbEntity
  8
Visible (ISO)
100
AcDbLine
 10
325.5
 20
162.75
 30
0.0
 11
325.5
 21
157.75
 31
0.0
  0
LINE
  5
EF
330
6C
100
AcDbEntity
  8
Visible Narrow (ISO)
100
AcDbLine
 10
325.0
 20
89.74999999999999
 30
0.0
 11
325.5
 21
89.74999999999999
 31
0.0
  0
LINE
  5
F0
330
6C
100
AcDbEntity
  8
Visible (ISO)
100
AcDbLine
 10
325.5
 20
89.74999999999999
 30
0.0
 11
325.5
 21
157.75
 31
0.0
  0
LINE
  5
F1
330
6C
100
AcDbEntity
  8
Visible (ISO)
100
AcDbLine
 10
325.0
 20
85.25
 30
0.0
 11
325.5
 21
84.74999999999999
 31
0.0
  0
LINE
  5
F2
330
6C
100
AcDbEntity
  8
Visible (ISO)
100
AcDbLine
 10
325.5
 20
89.75000000000001
 30
0.0
 11
325.5
 21
84.74999999999999
 31
0.0
  0
LINE
  5
F3
330
6C
100
AcDbEntity
  8
Visible (ISO)
100
AcDbLine
 10
359.2
 20
162.75
 30
0.0
 11
325.5
 21
162.75
 31
0.0
  0
LINE
  5
F4
330
6C
100
AcDbEntity
  8
Visible (ISO)
100
AcDbLine
 10
359.2
 20
84.74999999999999
 30
0.0
 11
325.5
 21
84.74999999999999
 31
0.0
  0
LINE
  5
F5
330
6C
100
AcDbEntity
  8
Visible Narrow (ISO)
100
AcDbLine
 10
359.2
 20
89.74999999999999
 30
0.0
 11
325.5
 21
89.74999999999999
 31
0.0
  0
LINE
  5
F6
330
6C
100
AcDbEntity
  8
Visible Narrow (ISO)
100
AcDbLine
 10
359.2
 20
157.75
 30
0.0
 11
325.5
 21
157.75
 31
0.0
  0
LINE
  5
F7
330
6C
100
AcDbEntity
  8
Visible (ISO)
100
AcDbLine
 10
359.2
 20
162.75
 30
0.0
 11
359.5
 21
162.45
 31
0.0
  0
LINE
  5
F8
330
6C
100
AcDbEntity
  8
Visible (ISO)
100
AcDbLine
 10
359.5
 20
85.05
 30
0.0
 11
359.2
 21
84.74999999999999
 31
0.0
  0
LINE
  5
F9
330
6C
100
AcDbEntity
  8
Visible Narrow (ISO)
100
AcDbLine
 10
359.5
 20
89.74999999999999
 30
0.0
 11
359.2
 21
89.74999999999999
 31
0.0
  0
LINE
  5
FA
330
6C
100
AcDbEntity
  8
Visible (ISO)
100
AcDbLine
 10
359.2
 20
84.74999999999999
 30
0.0
 11
359.2
 21
89.75000000000001
 31
0.0
  0
LINE
  5
FB
330
6C
100
AcDbEntity
  8
Visible (ISO)
100
AcDbLine
 10
359.5
 20
89.74999999999999
 30
0.0
 11
359.5
 21
85.05
 31
0.0
  0
LINE
  5
FC
330
6C
100
AcDbEntity
  8
Visible Narrow (ISO)
100
AcDbLine
 10
359.5
 20
157.75
 30
0.0
 11
359.2
 21
157.75
 31
0.0
  0
LINE
  5
FD
330
6C
100
AcDbEntity
  8
Visible (ISO)
100
AcDbLine
 10
359.2
 20
157.75
 30
0.0
 11
359.2
 21
89.74999999999999
 31
0.0
  0
LINE
  5
FE
330
6C
100
AcDbEntity
  8
Visible (ISO)
100
AcDbLine
 10
359.5
 20
89.74999999999999
 30
0.0
 11
359.5
 21
157.75
 31
0.0
  0
LINE
  5
FF
330
6C
100
AcDbEntity
  8
Visible (ISO)
100
AcDbLine
 10
359.2
 20
157.75
 30
0.0
 11
359.2
 21
162.75
 31
0.0
  0
LINE
  5
100
330
6C
100
AcDbEntity
  8
Visible (ISO)
100
AcDbLine
 10
359.5
 20
162.45
 30
0.0
 11
359.5
 21
157.75
 31
0.0
  0
LINE
  5
101
330
6C
100
AcDbEntity
  8
Visible (ISO)
100
AcDbLine
 10
308.1464466094067
 20
141.3964466094067
 30
0.0
 11
309.2071067811866
 21
142.4571067811866
 31
0.0
  0
LINE
  5
102
330
6C
100
AcDbEntity
  8
Visible (ISO)
100
AcDbLine
 10
308.1464466094067
 20
106.1035533905932
 30
0.0
 11
309.2071067811866
 21
105.0428932188134
 31
0.0
  0
LINE
  5
103
330
6C
100
AcDbEntity
  8
Visible (ISO)
100
AcDbLine
 10
320.0
 20
92.75
 30
0.0
 11
311.5
 21
92.75
 31
0.0
  0
LINE
  5
104
330
6C
100
AcDbEntity
  8
Visible (ISO)
100
AcDbLine
 10
320.0
 20
154.75
 30
0.0
 11
311.5
 21
154.75
 31
0.0
  0
LINE
  5
105
330
6C
100
AcDbEntity
  8
Visible (ISO)
100
AcDbLine
 10
324.5999999999999
 20
88.75
 30
0.0
 11
322.5
 21
88.75
 31
0.0
  0
LINE
  5
106
330
6C
100
AcDbEntity
  8
Visible (ISO)
100
AcDbLine
 10
324.5999999999999
 20
158.75
 30
0.0
 11
322.5
 21
158.75
 31
0.0
  0
LINE
  5
107
330
6C
100
AcDbEntity
  8
Visible Narrow (ISO)
100
AcDbLine
 10
304.6
 20
114.25
 30
0.0
 11
304.6
 21
133.25
 31
0.0
  0
ARC
  5
108
330
6C
100
AcDbEntity
  8
Visible (ISO)
100
AcDbCircle
 10
304.6
 20
113.85
 30
0.0
 40
0.4000000000000001
100
AcDbArc
 50
0.0
 51
90.0
  0
ARC
  5
109
330
6C
100
AcDbEntity
  8
Visible (ISO)
100
AcDbCircle
 10
304.6
 20
133.65
 30
0.0
 40
0.4000000000000001
100
AcDbArc
 50
270.0
 51
0.0
  0
LINE
  5
10A
330
6C
100
AcDbEntity
  8
Visible (ISO)
100
AcDbLine
 10
305.0
 20
113.1139702342662
 30
0.0
 11
305.0
 21
134.3860297657338
 31
0.0
  0
LINE
  5
10B
330
6C
100
AcDbEntity
  8
Visible (ISO)
100
AcDbLine
 10
306.0
 20
134.75
 30
0.0
 11
306.0
 21
112.75
 31
0.0
  0
LINE
  5
10C
330
6C
100
AcDbEntity
  8
Visible (ISO)
100
AcDbLine
 10
305.0
 20
134.3860297657338
 30
0.0
 11
306.0
 21
134.75
 31
0.0
  0
LINE
  5
10D
330
6C
100
AcDbEntity
  8
Visible (ISO)
100
AcDbLine
 10
305.0
 20
113.1139702342662
 30
0.0
 11
306.0
 21
112.75
 31
0.0
  0
LINE
  5
10E
330
6C
100
AcDbEntity
  8
Visible Narrow (ISO)
100
AcDbLine
 10
276.0
 20
133.25
 30
0.0
 11
276.0
 21
114.25
 31
0.0
  0
LINE
  5
10F
330
6C
100
AcDbEntity
  8
Visible (ISO)
100
AcDbLine
 10
275.0
 20
115.25
 30
0.0
 11
275.0
 21
132.25
 31
0.0
  0
ARC
  5
110
330
6C
100
AcDbEntity
  8
Visible (ISO)
100
AcDbCircle
 10
276.0
 20
115.25
 30
0.0
 40
1.0
100
AcDbArc
 50
180.0
 51
270.0
  0
ARC
  5
111
330
6C
100
AcDbEntity
  8
Visible (ISO)
100
AcDbCircle
 10
276.0
 20
132.25
 30
0.0
 40
1.0
100
AcDbArc
 50
90.0
 51
180.0
  0
LINE
  5
112
330
6C
100
AcDbEntity
  8
Visible (ISO)
100
AcDbLine
 10
304.6
 20
114.25
 30
0.0
 11
276.0
 21
114.25
 31
0.0
  0
LINE
  5
113
330
6C
100
AcDbEntity
  8
Visible (ISO)
100
AcDbLine
 10
304.6
 20
133.25
 30
0.0
 11
276.0
 21
133.25
 31
0.0
  0
LINE
  5
114
330
6C
100
AcDbEntity
  8
Visible (ISO)
100
AcDbLine
 10
308.0
 20
112.75
 30
0.0
 11
306.0
 21
112.75
 31
0.0
  0
LINE
  5
115
330
6C
100
AcDbEntity
  8
Visible (ISO)
100
AcDbLine
 10
308.0
 20
134.75
 30
0.0
 11
306.0
 21
134.75
 31
0.0
  0
ARC
  5
116
330
6C
100
AcDbEntity
  8
Visible (ISO)
100
AcDbCircle
 10
381.5
 20
85.75000000000001
 30
0.0
 40
1.000000000000009
100
AcDbArc
 50
270.0
 51
0.0
  0
LINE
  5
117
330
6C
100
AcDbEntity
  8
Visible Narrow (ISO)
100
AcDbLine
 10
381.5
 20
89.74999999999999
 30
0.0
 11
382.5
 21
89.74999999999999
 31
0.0
  0
LINE
  5
118
330
6C
100
AcDbEntity
  8
Visible Narrow (ISO)
100
AcDbLine
 10
381.5
 20
84.74999999999999
 30
0.0
 11
381.5
 21
89.74999999999999
 31
0.0
  0
LINE
  5
119
330
6C
100
AcDbEntity
  8
Visible (ISO)
100
AcDbLine
 10
382.5
 20
89.74999999999999
 30
0.0
 11
382.5
 21
85.74999999999999
 31
0.0
  0
LINE
  5
11A
330
6C
100
AcDbEntity
  8
Visible Narrow (ISO)
100
AcDbLine
 10
381.5
 20
157.75
 30
0.0
 11
382.5
 21
157.75
 31
0.0
  0
LINE
  5
11B
330
6C
100
AcDbEntity
  8
Visible Narrow (ISO)
100
AcDbLine
 10
381.5
 20
157.75
 30
0.0
 11
381.5
 21
89.74999999999999
 31
0.0
  0
LINE
  5
11C
330
6C
100
AcDbEntity
  8
Visible (ISO)
100
AcDbLine
 10
382.5
 20
89.74999999999999
 30
0.0
 11
382.5
 21
157.75
 31
0.0
  0
ARC
  5
11D
330
6C
100
AcDbEntity
  8
Visible (ISO)
100
AcDbCircle
 10
381.5
 20
161.75
 30
0.0
 40
1.000000000000005
100
AcDbArc
 50
0.0
 51
89.99999999999745
  0
LINE
  5
11E
330
6C
100
AcDbEntity
  8
Visible Narrow (ISO)
100
AcDbLine
 10
381.5
 20
157.75
 30
0.0
 11
381.5
 21
162.75
 31
0.0
  0
LINE
  5
11F
330
6C
100
AcDbEntity
  8
Visible (ISO)
100
AcDbLine
 10
382.5
 20
161.75
 30
0.0
 11
382.5
 21
157.75
 31
0.0
  0
LINE
  5
120
330
6C
100
AcDbEntity
  8
Visible Narrow (ISO)
100
AcDbLine
 10
381.5
 20
157.75
 30
0.0
 11
359.8
 21
157.75
 31
0.0
  0
LINE
  5
121
330
6C
100
AcDbEntity
  8
Visible Narrow (ISO)
100
AcDbLine
 10
381.5
 20
89.74999999999999
 30
0.0
 11
359.8
 21
89.74999999999999
 31
0.0
  0
LINE
  5
122
330
6C
100
AcDbEntity
  8
Visible (ISO)
100
AcDbLine
 10
381.5
 20
162.75
 30
0.0
 11
359.8
 21
162.75
 31
0.0
  0
LINE
  5
123
330
6C
100
AcDbEntity
  8
Visible (ISO)
100
AcDbLine
 10
381.5
 20
84.74999999999999
 30
0.0
 11
359.8
 21
84.74999999999999
 31
0.0
  0
LINE
  5
124
330
6C
100
AcDbEntity
  8
Visible (ISO)
100
AcDbLine
 10
359.8
 20
89.74999999999999
 30
0.0
 11
359.8
 21
157.75
 31
0.0
  0
LINE
  5
125
330
6C
100
AcDbEntity
  8
Visible (ISO)
100
AcDbLine
 10
359.8
 20
162.75
 30
0.0
 11
359.8
 21
157.75
 31
0.0
  0
LINE
  5
126
330
6C
100
AcDbEntity
  8
Visible (ISO)
100
AcDbLine
 10
408.1999999999999
 20
91.25000000000001
 30
0.0
 11
408.1999999999999
 21
156.25
 31
0.0
  0
LINE
  5
127
330
6C
100
AcDbEntity
  8
Visible Narrow (ISO)
100
AcDbLine
 10
359.8
 20
157.75
 30
0.0
 11
359.5
 21
157.75
 31
0.0
  0
LINE
  5
128
330
6C
100
AcDbEntity
  8
Visible (ISO)
100
AcDbLine
 10
359.5
 20
157.75
 30
0.0
 11
359.5
 21
89.74999999999999
 31
0.0
  0
LINE
  5
129
330
6C
100
AcDbEntity
  8
Visible Narrow (ISO)
100
AcDbLine
 10
359.5
 20
89.74999999999999
 30
0.0
 11
359.8
 21
89.74999999999999
 31
0.0
  0
LINE
  5
12A
330
6C
100
AcDbEntity
  8
Visible (ISO)
100
AcDbLine
 10
359.5
 20
85.04999999999999
 30
0.0
 11
359.8
 21
84.74999999999999
 31
0.0
  0
LINE
  5
12B
330
6C
100
AcDbEntity
  8
Visible (ISO)
100
AcDbLine
 10
359.8
 20
89.74999999999999
 30
0.0
 11
359.8
 21
84.74999999999999
 31
0.0
  0
LINE
  5
12C
330
6C
100
AcDbEntity
  8
Visible (ISO)
100
AcDbLine
 10
359.5
 20
85.05
 30
0.0
 11
359.5
 21
89.74999999999999
 31
0.0
  0
LINE
  5
12D
330
6C
100
AcDbEntity
  8
Visible (ISO)
100
AcDbLine
 10
359.5
 20
162.45
 30
0.0
 11
359.8
 21
162.75
 31
0.0
  0
LINE
  5
12E
330
6C
100
AcDbEntity
  8
Visible (ISO)
100
AcDbLine
 10
359.5
 20
157.75
 30
0.0
 11
359.5
 21
162.45
 31
0.0
  0
LINE
  5
12F
330
6C
100
AcDbEntity
  8
Visible (ISO)
100
AcDbLine
 10
408.4999999999999
 20
91.54999999999999
 30
0.0
 11
408.1999999999999
 21
91.25
 31
0.0
  0
LINE
  5
130
330
6C
100
AcDbEntity
  8
Visible (ISO)
100
AcDbLine
 10
408.4999999999999
 20
155.95
 30
0.0
 11
408.1999999999999
 21
156.25
 31
0.0
  0
LINE
  5
131
330
6C
100
AcDbEntity
  8
Visible Narrow (ISO)
100
AcDbLine
 10
384.5
 20
150.5698051533946
 30
0.0
 11
384.5
 21
96.93019484660537
 31
0.0
  0
LINE
  5
132
330
6C
100
AcDbEntity
  8
Visible (ISO)
100
AcDbLine
 10
408.1999999999999
 20
91.25000000000001
 30
0.0
 11
388.5
 21
91.25000000000001
 31
0.0
  0
LINE
  5
133
330
6C
100
AcDbEntity
  8
Visible (ISO)
100
AcDbLine
 10
408.1999999999999
 20
156.25
 30
0.0
 11
388.5
 21
156.25
 31
0.0
  0
LINE
  5
134
330
6C
100
AcDbEntity
  8
Visible (ISO)
100
AcDbLine
 10
388.5
 20
96.33019484660536
 30
0.0
 11
388.5
 21
87.53019484660535
 31
0.0
  0
LINE
  5
135
330
6C
100
AcDbEntity
  8
Visible Narrow (ISO)
100
AcDbLine
 10
387.9
 20
86.93019484660537
 30
0.0
 11
387.9
 21
96.93019484660537
 31
0.0
  0
ARC
  5
136
330
6C
100
AcDbEntity
  8
Visible (ISO)
100
AcDbCircle
 10
387.9
 20
96.33019484660536
 30
0.0
 40
0.6
100
AcDbArc
 50
0.0
 51
90.0
  0
ARC
  5
137
330
6C
100
AcDbEntity
  8
Visible (ISO)
100
AcDbCircle
 10
387.9
 20
87.53019484660535
 30
0.0
 40
0.6
100
AcDbArc
 50
270.0
 51
0.0
  0
LINE
  5
138
330
6C
100
AcDbEntity
  8
Visible (ISO)
100
AcDbLine
 10
387.9
 20
86.93019484660537
 30
0.0
 11
382.5
 21
86.93019484660537
 31
0.0
  0
LINE
  5
139
330
6C
100
AcDbEntity
  8
Visible (ISO)
100
AcDbLine
 10
387.9
 20
96.93019484660537
 30
0.0
 11
382.5
 21
96.93019484660537
 31
0.0
  0
LINE
  5
13A
330
6C
100
AcDbEntity
  8
Visible (ISO)
100
AcDbLine
 10
388.5
 20
159.9698051533946
 30
0.0
 11
388.5
 21
151.1698051533946
 31
0.0
  0
LINE
  5
13B
330
6C
100
AcDbEntity
  8
Visible Narrow (ISO)
100
AcDbLine
 10
387.9
 20
150.5698051533946
 30
0.0
 11
387.9
 21
160.5698051533946
 31
0.0
  0
ARC
  5
13C
330
6C
100
AcDbEntity
  8
Visible (ISO)
100
AcDbCircle
 10
387.9
 20
159.9698051533946
 30
0.0
 40
0.6
100
AcDbArc
 50
0.0
 51
90.0
  0
ARC
  5
13D
330
6C
100
AcDbEntity
  8
Visible (ISO)
100
AcDbCircle
 10
387.9
 20
151.1698051533946
 30
0.0
 40
0.6
100
AcDbArc
 50
270.0
 51
0.0
  0
LINE
  5
13E
330
6C
100
AcDbEntity
  8
Visible (ISO)
100
AcDbLine
 10
387.9
 20
150.5698051533946
 30
0.0
 11
382.5
 21
150.5698051533946
 31
0.0
  0
LINE
  5
13F
330
6C
100
AcDbEntity
  8
Visible (ISO)
100
AcDbLine
 10
387.9
 20
160.5698051533946
 30
0.0
 11
382.5
 21
160.5698051533946
 31
0.0
  0
LINE
  5
140
330
6C
100
AcDbEntity
  8
Visible (ISO)
100
AcDbLine
 10
425.0
 20
155.95
 30
0.0
 11
425.0
 21
151.0263633939717
 31
0.0
  0
LINE
  5
141
330
6C
100
AcDbEntity
  8
Visible (ISO)
100
AcDbLine
 10
425.0
 20
96.47363660602831
 30
0.0
 11
425.0
 21
151.0263633939717
 31
0.0
  0
LINE
  5
142
330
6C
100
AcDbEntity
  8
Visible (ISO)
100
AcDbLine
 10
425.0
 20
96.47363660602827
 30
0.0
 11
425.0
 21
91.54999999999999
 31
0.0
  0
LINE
  5
143
330
6C
100
AcDbEntity
  8
Visible (ISO)
100
AcDbLine
 10
408.4999999999999
 20
91.55000000000001
 30
0.0
 11
408.4999999999999
 21
96.47363660602831
 31
0.0
  0
LINE
  5
144
330
6C
100
AcDbEntity
  8
Visible (ISO)
100
AcDbLine
 10
408.4999999999999
 20
151.0263633939717
 30
0.0
 11
408.4999999999999
 21
96.47363660602831
 31
0.0
  0
LINE
  5
145
330
6C
100
AcDbEntity
  8
Visible (ISO)
100
AcDbLine
 10
408.4999999999999
 20
151.0263633939717
 30
0.0
 11
408.4999999999999
 21
155.95
 31
0.0
  0
SPLINE
  5
146
330
6C
100
AcDbEntity
  8
Visible (ISO)
100
AcDbSpline
210
0.0
220
0.0
230
1.0
 70
    24
 71
     3
 72
     8
 73
     4
 74
     0
 42
0.0000000001
 43
0.0000000001
 40
-0.0438231200310444
 40
-0.0438231200310444
 40
-0.0438231200310444
 40
-0.0438231200310444
 40
0.0
 40
0.0
 40
0.0
 40
0.0
 10
408.4999999999999
 20
155.95
 30
0.0
 10
408.5999869361146
 20
156.0499869361147
 30
0.0
 10
408.6999878692447
 20
156.1499878692447
 30
0.0
 10
408.8
 20
156.25
 30
0.0
  0
SPLINE
  5
147
330
6C
100
AcDbEntity
  8
Visible (ISO)
100
AcDbSpline
210
0.0
220
0.0
230
1.0
 70
     8
 71
     3
 72
     8
 73
     4
 74
     0
 42
0.0000000001
 43
0.0000000001
 40
-0.0438231200309521
 40
-0.0438231200309521
 40
-0.0438231200309521
 40
-0.0438231200309521
 40
0.0
 40
0.0
 40
0.0
 40
0.0
 10
408.4999999999999
 20
151.0263633939717
 30
0.0
 10
408.5999869361147
 20
151.0630203832743
 30
0.0
 10
408.6999878692449
 20
151.0996086085658
 30
0.0
 10
408.8
 20
151.1361278752583
 30
0.0
  0
LINE
  5
148
330
6C
100
AcDbEntity
  8
Visible (ISO)
100
AcDbLine
 10
408.8
 20
156.25
 30
0.0
 11
408.8
 21
151.1361278752583
 31
0.0
  0
SPLINE
  5
149
330
6C
100
AcDbEntity
  8
Visible (ISO)
100
AcDbSpline
210
0.0
220
0.0
230
1.0
 70
     8
 71
     3
 72
     8
 73
     4
 74
     0
 42
0.0000000001
 43
0.0000000001
 40
-0.0438231200332123
 40
-0.0438231200332123
 40
-0.0438231200332123
 40
-0.0438231200332123
 40
0.0
 40
0.0
 40
0.0
 40
0.0
 10
408.4999999999999
 20
96.47363660602831
 30
0.0
 10
408.5999869361122
 20
96.43697961672657
 30
0.0
 10
408.6999878692397
 20
96.40039139143603
 30
0.0
 10
408.8
 20
96.36387212474168
 30
0.0
  0
LINE
  5
14A
330
6C
100
AcDbEntity
  8
Visible (ISO)
100
AcDbLine
 10
408.8
 20
96.36387212474168
 30
0.0
 11
408.8
 21
151.1361278752583
 31
0.0
  0
SPLINE
  5
14B
330
6C
100
AcDbEntity
  8
Visible (ISO)
100
AcDbSpline
210
0.0
220
0.0
230
1.0
 70
    24
 71
     3
 72
     8
 73
     4
 74
     0
 42
0.0000000001
 43
0.0000000001
 40
-0.0438231200331159
 40
-0.0438231200331159
 40
-0.0438231200331159
 40
-0.0438231200331159
 40
0.0
 40
0.0
 40
0.0
 40
0.0
 10
408.4999999999999
 20
91.54999999999999
 30
0.0
 10
408.5999869361123
 20
91.45001306388765
 30
0.0
 10
408.69998786924
 20
91.35001213075998
 30
0.0
 10
408.8
 20
91.25000000000001
 30
0.0
  0
LINE
  5
14C
330
6C
100
AcDbEntity
  8
Visible (ISO)
100
AcDbLine
 10
408.8
 20
96.36387212474167
 30
0.0
 11
408.8
 21
91.25000000000001
 31
0.0
  0
LINE
  5
14D
330
6C
100
AcDbEntity
  8
Visible (ISO)
100
AcDbLine
 10
424.6999999999999
 20
91.25
 30
0.0
 11
424.6999999999999
 21
96.36387212474168
 31
0.0
  0
SPLINE
  5
14E
330
6C
100
AcDbEntity
  8
Visible (ISO)
100
AcDbSpline
210
0.0
220
0.0
230
1.0
 70
    24
 71
     3
 72
     8
 73
     4
 74
     0
 42
0.0000000001
 43
0.0000000001
 40
-0.0438231200332337
 40
-0.0438231200332337
 40
-0.0438231200332337
 40
-0.0438231200332337
 40
0.0
 40
0.0
 40
0.0
 40
0.0
 10
425.0
 20
91.54999999999999
 30
0.0
 10
424.9000130638878
 20
91.45001306388778
 30
0.0
 10
424.8000121307602
 20
91.35001213076023
 30
0.0
 10
424.6999999999999
 20
91.25000000000001
 30
0.0
  0
SPLINE
  5
14F
330
6C
100
AcDbEntity
  8
Visible (ISO)
100
AcDbSpline
210
0.0
220
0.0
230
1.0
 70
     8
 71
     3
 72
     8
 73
     4
 74
     0
 42
0.0000000001
 43
0.0000000001
 40
-0.0438231200323892
 40
-0.0438231200323892
 40
-0.0438231200323892
 40
-0.0438231200323892
 40
0.0
 40
0.0
 40
0.0
 40
0.0
 10
425.0
 20
96.47363660602827
 30
0.0
 10
424.9000130638868
 20
96.43697961672623
 30
0.0
 10
424.8000121307582
 20
96.40039139143535
 30
0.0
 10
424.6999999999999
 20
96.36387212474168
 30
0.0
  0
SPLINE
  5
150
330
6C
100
AcDbEntity
  8
Visible (ISO)
100
AcDbSpline
210
0.0
220
0.0
230
1.0
 70
     8
 71
     3
 72
     8
 73
     4
 74
     0
 42
0.0000000001
 43
0.0000000001
 40
-0.0438231200337178
 40
-0.0438231200337178
 40
-0.0438231200337178
 40
-0.0438231200337178
 40
0.0
 40
0.0
 40
0.0
 40
0.0
 10
425.0
 20
151.0263633939717
 30
0.0
 10
424.9000130638883
 20
151.0630203832732
 30
0.0
 10
424.8000121307613
 20
151.0996086085635
 30
0.0
 10
424.6999999999999
 20
151.1361278752583
 30
0.0
  0
LINE
  5
151
330
6C
100
AcDbEntity
  8
Visible (ISO)
100
AcDbLine
 10
424.6999999999999
 20
151.1361278752583
 30
0.0
 11
424.6999999999999
 21
96.36387212474168
 31
0.0
  0
SPLINE
  5
152
330
6C
100
AcDbEntity
  8
Visible (ISO)
100
AcDbSpline
210
0.0
220
0.0
230
1.0
 70
    24
 71
     3
 72
     8
 73
     4
 74
     0
 42
0.0000000001
 43
0.0000000001
 40
-0.0438231200328689
 40
-0.0438231200328689
 40
-0.0438231200328689
 40
-0.0438231200328689
 40
0.0
 40
0.0
 40
0.0
 40
0.0
 10
425.0
 20
155.95
 30
0.0
 10
424.9000130638873
 20
156.0499869361126
 30
0.0
 10
424.8000121307594
 20
156.1499878692406
 30
0.0
 10
424.6999999999999
 20
156.25
 30
0.0
  0
LINE
  5
153
330
6C
100
AcDbEntity
  8
Visible (ISO)
100
AcDbLine
 10
424.6999999999999
 20
151.1361278752583
 30
0.0
 11
424.6999999999999
 21
156.25
 31
0.0
  0
LINE
  5
154
330
6C
100
AcDbEntity
  8
Visible (ISO)
100
AcDbLine
 10
424.6999999999999
 20
91.25000000000001
 30
0.0
 11
408.8
 21
91.25000000000001
 31
0.0
  0
LINE
  5
155
330
6C
100
AcDbEntity
  8
Visible (ISO)
100
AcDbLine
 10
424.6999999999999
 20
96.36387212474168
 30
0.0
 11
408.8
 21
96.36387212474168
 31
0.0
  0
LINE
  5
156
330
6C
100
AcDbEntity
  8
Visible (ISO)
100
AcDbLine
 10
424.6999999999999
 20
151.1361278752583
 30
0.0
 11
408.8
 21
151.1361278752583
 31
0.0
  0
LINE
  5
157
330
6C
100
AcDbEntity
  8
Visible (ISO)
100
AcDbLine
 10
424.6999999999999
 20
156.25
 30
0.0
 11
408.8
 21
156.25
 31
0.0
  0
LINE
  5
158
330
6C
100
AcDbEntity
  8
Visible (ISO)
100
AcDbLine
 10
410.6359999999999
 20
157.25
 30
0.0
 11
418.3639999999999
 21
157.25
 31
0.0
  0
LINE
  5
159
330
6C
100
AcDbEntity
  8
Visible (ISO)
100
AcDbLine
 10
419.3327652476222
 20
156.2504879239129
 30
0.0
 11
409.6672347523776
 21
156.2504879239129
 31
0.0
  0
LINE
  5
15A
330
6C
100
AcDbEntity
  8
Visible (ISO)
100
AcDbLine
 10
418.3639999999999
 20
157.25
 30
0.0
 11
419.3327652476222
 21
156.2504879239129
 31
0.0
  0
LINE
  5
15B
330
6C
100
AcDbEntity
  8
Visible (ISO)
100
AcDbLine
 10
410.6359999999999
 20
157.25
 30
0.0
 11
409.6672347523776
 21
156.2504879239129
 31
0.0
  0
LINE
  5
15C
330
6C
100
AcDbEntity
  8
Visible (ISO)
100
AcDbLine
 10
409.6672499999999
 20
156.25
 30
0.0
 11
409.6672347523776
 21
156.2504879239129
 31
0.0
  0
LINE
  5
15D
330
6C
100
AcDbEntity
  8
Visible (ISO)
100
AcDbLine
 10
419.3327499999999
 20
156.25
 30
0.0
 11
419.3327652476222
 21
156.2504879239129
 31
0.0
  0
LINE
  5
15E
330
6C
100
AcDbEntity
  8
Visible Narrow (ISO)
100
AcDbLine
 10
418.7514663778205
 20
156.25
 30
0.0
 11
418.7514816254427
 21
156.2504879239129
 31
0.0
  0
LINE
  5
15F
330
6C
100
AcDbEntity
  8
Visible Narrow (ISO)
100
AcDbLine
 10
410.2485183745571
 20
156.2504879239129
 30
0.0
 11
410.2485336221794
 21
156.25
 31
0.0
  0
ELLIPSE
  5
160
330
6C
100
AcDbEntity
  8
Visible Narrow (ISO)
100
AcDbEllipse
 10
145.3015151901606
 20
230.3977800207245
 30
0.0
 11
-8.629710747673589
 21
14.98573482645317
 31
0.0
210
0.0
220
0.0
230
1.0
 40
0.5780931159156393
 41
2.152392793514304
 42
7.272385167255073
  0
ELLIPSE
  5
161
330
6C
100
AcDbEntity
  8
Visible Narrow (ISO)
100
AcDbEllipse
 10
145.4050685807539
 20
230.4574124523743
 30
0.0
 11
8.806145278094437
 21
-15.2921183385343
 31
0.0
210
0.0
220
0.0
230
1.0
 40
0.5780931159156393
 41
5.4958534353594
 42
10.21210983258956
  0
SPLINE
  5
162
330
6C
100
AcDbEntity
  8
Visible (ISO)
100
AcDbSpline
210
0.0
220
0.0
230
1.0
 70
     8
 71
     3
 72
     8
 73
     4
 74
     0
 42
0.0000000001
 43
0.0000000001
 40
1.574663743640666
 40
1.574663743640666
 40
1.574663743640666
 40
1.574663743640666
 40
1.788499170523705
 40
1.788499170523705
 40
1.788499170523705
 40
1.788499170523705
 10
145.3568113750703
 20
216.0585081297911
 30
0.0
 10
144.45856966981
 20
216.5797875926676
 30
0.0
 10
143.564950100636
 20
217.2097290233142
 30
0.0
 10
142.6942898630069
 20
217.93378755261
 30
0.0
  0
SPLINE
  5
163
330
6C
100
AcDbEntity
  8
Visible (ISO)
100
AcDbSpline
210
0.0
220
0.0
230
1.0
 70
     8
 71
     3
 72
     8
 73
     4
 74
     0
 42
0.0000000001
 43
0.0000000001
 40
2.927757226707051
 40
2.927757226707051
 40
2.927757226707051
 40
2.927757226707051
 40
3.141592653590089
 40
3.141592653590089
 40
3.141592653590089
 40
3.141592653590089
 10
133.2126778429074
 20
234.3988728393708
 30
0.0
 10
133.0234489237531
 20
235.5153415668282
 30
0.0
 10
132.9271465193976
 20
236.6044274162316
 30
0.0
 10
132.9271465193978
 20
237.6429698753954
 30
0.0
  0
ELLIPSE
  5
164
330
6C
100
AcDbEntity
  8
Visible Narrow (ISO)
100
AcDbEllipse
 10
146.155068580754
 20
230.8893087281133
 30
0.0
 11
-9.335448869356985
 21
16.21126887477773
 31
0.0
210
0.0
220
0.0
230
1.0
 40
0.5780931159156394
 41
2.354260781769609
 42
7.070517178999768
  0
ELLIPSE
  5
165
330
6C
100
AcDbEntity
  8
Visible Narrow (ISO)
100
AcDbEllipse
 10
146.3621753619406
 20
231.008573591413
 30
0.0
 11
9.688317930198678
 21
-16.82403589894001
 31
0.0
210
0.0
220
0.0
230
1.0
 40
0.5780931159156396
 41
5.223712838395428
 42
10.48425042955353
  0
ELLIPSE
  5
166
330
6C
100
AcDbEntity
  8
Visible (ISO)
100
AcDbEllipse
 10
145.3015151901606
 20
230.3977800207245
 30
0.0
 11
8.272631767039344
 21
-14.3656571584586
 31
0.0
210
0.0
220
0.0
230
1.0
 40
0.5780931159156394
 41
5.32263742390153
 42
10.38532584404743
  0
ELLIPSE
  5
167
330
6C
100
AcDbEntity
  8
Visible (ISO)
100
AcDbEllipse
 10
146.0086219713472
 20
230.8049757345168
 30
0.0
 11
7.984515385346925
 21
-13.86533497832485
 31
0.0
210
0.0
220
0.0
230
1.0
 40
0.5780931159156392
 41
5.861786860782729
 42
6.66467978389929
  0
ELLIPSE
  5
168
330
6C
100
AcDbEntity
  8
Visible (ISO)
100
AcDbEllipse
 10
146.0086219713472
 20
230.8049757345168
 30
0.0
 11
-7.984515385346926
 21
13.86533497832485
 31
0.0
210
0.0
220
0.0
230
1.0
 40
0.578093115915639
 41
5.901690830459881
 42
6.704583753576442
  0
ELLIPSE
  5
169
330
6C
100
AcDbEntity
  8
Visible Narrow (ISO)
100
AcDbEllipse
 10
146.3621753619406
 20
231.008573591413
 30
0.0
 11
-14.47193413594129
 21
25.13091964821377
 31
0.0
210
0.0
220
0.0
230
1.0
 40
0.5780931159156393
 41
1.904544005141317
 42
7.520233955628062
  0
ELLIPSE
  5
16A
330
6C
100
AcDbEntity
  8
Visible Narrow (ISO)
100
AcDbEllipse
 10
147.7763889243139
 20
231.8229650189975
 30
0.0
 11
15.46999855910965
 21
-26.86408652050439
 31
0.0
210
0.0
220
0.0
230
0.9999999999999998
 40
0.5780931159156393
 41
0.0000000000000019
 42
3.141592653589794
  0
SPLINE
  5
16B
330
6C
100
AcDbEntity
  8
Visible (ISO)
100
AcDbSpline
210
0.0
220
0.0
230
1.0
 70
     8
 71
     3
 72
    16
 73
    12
 74
     0
 42
0.0000000001
 43
0.0000000001
 40
0.7873318718204814
 40
0.7873318718204814
 40
0.7873318718204814
 40
0.7873318718204814
 40
1.072058556939753
 40
1.072058556939753
 40
1.37594788634102
 40
1.37594788634102
 40
1.703034044551685
 40
1.703034044551685
 40
2.033914519672913
 40
2.033914519672913
 40
2.038084189883556
 40
2.038084189883556
 40
2.038084189883556
 40
2.038084189883556
 10
163.2463874834235
 20
204.9588784984931
 30
0.0
 10
161.5830059074666
 20
204.0010007547752
 30
0.0
 10
159.6848747784518
 20
203.4640854392271
 30
0.0
 10
155.5658297574142
 20
203.2421838209416
 30
0.0
 10
153.3328894482286
 20
203.6074498416438
 30
0.0
 10
148.6757596641702
 20
205.2266670095632
 30
0.0
 10
146.2452423215975
 20
206.5466881321189
 30
0.0
 10
141.5149814994329
 20
209.9981257902434
 30
0.0
 10
139.2175348930948
 20
212.1398741523675
 30
0.0
 10
137.0778577615185
 20
214.607328187878
 30
0.0
 10
137.0512589074232
 20
214.638081907521
 30
0.0
 10
137.0246894983174
 20
214.668881842694
 30
0.0
  0
SPLINE
  5
16C
330
6C
100
AcDbEntity
  8
Visible (ISO)
100
AcDbSpline
210
0.0
220
0.0
230
1.0
 70
     8
 71
     3
 72
    16
 73
    12
 74
     0
 42
0.0000000001
 43
0.0000000001
 40
2.678172207347199
 40
2.678172207347199
 40
2.678172207347199
 40
2.678172207347199
 40
2.691380066837214
 40
2.691380066837214
 40
3.020563168893699
 40
3.020563168893699
 40
3.351466113361328
 40
3.351466113361328
 40
3.678114993951755
 40
3.678114993951755
 40
3.928924525410274
 40
3.928924525410274
 40
3.928924525410274
 40
3.928924525410274
 10
127.5430774782179
 20
231.1339671294547
 30
0.0
 10
127.5009389523351
 20
231.2557284215399
 30
0.0
 10
127.4593497926735
 20
231.3775124893804
 30
0.0
 10
126.3955589787974
 20
234.5348974275248
 30
0.0
 10
125.7184625560117
 20
237.5777093103439
 30
0.0
 10
125.1401564285864
 20
243.4082507793506
 30
0.0
 10
125.2418651307736
 20
246.1947740414882
 30
0.0
 10
126.2743001734581
 20
251.2041321355892
 30
0.0
 10
127.1976047311279
 20
253.4389027953468
 30
0.0
 10
129.5651787797992
 20
256.6783331398569
 30
0.0
 10
130.8411537874394
 20
257.8432779114846
 30
0.0
 10
132.3063903652042
 20
258.6870515395018
 30
0.0
  0
ELLIPSE
  5
16D
330
6C
100
AcDbEntity
  8
Visible (ISO)
100
AcDbEllipse
 10
134.822330470337
 20
276.2911856435723
 30
0.0
 11
-1.226870692179712
 21
2.130495377763226
 31
0.0
210
0.0
220
0.0
230
1.0
 40
0.5780931159156393
 41
0.0
 42
6.283185307179586
  0
ELLIPSE
  5
16E
330
6C
100
AcDbEntity
  8
Visible (ISO)
100
AcDbEllipse
 10
179.8223304703304
 20
198.3490286668141
 30
0.0
 11
-1.226870692179712
 21
2.130495377763226
 31
0.0
210
0.0
220
0.0
230
1.0
 40
0.5780931159156393
 41
0.0
 42
6.283185307179586
  0
ELLIPSE
  5
16F
330
6C
100
AcDbEntity
  8
Visible (ISO)
100
AcDbEllipse
 10
179.8223304703304
 20
250.3774090992294
 30
0.0
 11
-1.226870692179712
 21
2.130495377763226
 31
0.0
210
0.0
220
0.0
230
1.0
 40
0.5780931159156393
 41
0.0
 42
6.283185307179586
  0
ELLIPSE
  5
170
330
6C
100
AcDbEntity
  8
Visible Narrow (ISO)
100
AcDbEllipse
 10
153.7867965644004
 20
235.2841285862318
 30
0.0
 11
-15.46999855910966
 21
26.86408652050439
 31
0.0
210
0.0
220
0.0
230
1.0
 40
0.5780931159156393
 41
3.141592653589793
 42
6.283185307179586
  0
ELLIPSE
  5
171
330
6C
100
AcDbEntity
  8
Visible Narrow (ISO)
100
AcDbEllipse
 10
155.2010101267737
 20
236.0985200138164
 30
0.0
 11
16.46806298227802
 21
-28.597253392795
 31
0.0
210
0.0
220
0.0
230
0.9999999999999998
 40
0.5780931159156393
 41
5.933247215848208
 42
9.774716052100757
  0
ELLIPSE
  5
172
330
6C
100
AcDbEntity
  8
Visible (ISO)
100
AcDbEllipse
 10
155.2010101267737
 20
236.0985200138164
 30
0.0
 11
-17.21661129965429
 21
29.89712854701294
 31
0.0
210
0.0
220
0.0
230
1.0
 40
0.5780931159156394
 41
2.687153556281341
 42
6.737624404488035
  0
ELLIPSE
  5
173
330
6C
100
AcDbEntity
  8
Visible (ISO)
100
AcDbEllipse
 10
155.5545635173671
 20
236.3021178707125
 30
0.0
 11
17.46612740544639
 21
-30.3304202650856
 31
0.0
210
0.0
220
0.0
230
1.0
 40
0.5780931159156393
 41
5.799942390944002
 42
9.908020877004956
  0
ELLIPSE
  5
174
330
6C
100
AcDbEntity
  8
Visible Narrow (ISO)
100
AcDbEllipse
 10
157.039487757859
 20
237.1572288696762
 30
0.0
 11
-17.46612740544639
 21
30.3304202650856
 31
0.0
210
0.0
220
0.0
230
1.0
 40
0.5780931159156393
 41
3.141592653589792
 42
6.283185307179586
  0
ELLIPSE
  5
175
330
6C
100
AcDbEntity
  8
Visible Narrow (ISO)
100
AcDbEllipse
 10
157.3223304703337
 20
237.3201071551932
 30
0.0
 11
17.66574029008006
 21
-30.67705363954371
 31
0.0
210
0.0
220
0.0
230
1.0
 40
0.5780931159156396
 41
6.119904895356361
 42
9.5880583725926
  0
LINE
  5
176
330
6C
100
AcDbEntity
  8
Visible (ISO)
100
AcDbLine
 10
133.2806999099946
 20
282.6403257305723
 30
0.0
 11
181.3639610306727
 21
254.9510171926895
 31
0.0
  0
ELLIPSE
  5
177
330
6C
100
AcDbEntity
  8
Visible (ISO)
100
AcDbEllipse
 10
133.2806999099946
 20
278.9613636687809
 30
0.0
 11
-2.24564495212882
 21
3.89962546265386
 31
0.0
210
0.0
220
0.0
230
1.0
 40
0.5780931159156394
 41
5.499720852205177
 42
7.070517179000071
  0
LINE
  5
178
330
6C
100
AcDbEntity
  8
Visible (ISO)
100
AcDbLine
 10
130.0987193946556
 20
257.0449667926894
 30
0.0
 11
130.0987193946556
 21
280.7937443808467
 31
0.0
  0
LINE
  5
179
330
6C
100
AcDbEntity
  8
Visible (ISO)
100
AcDbLine
 10
181.3639610306727
 20
191.999888579814
 30
0.0
 11
160.7356510029752
 21
203.8789422808198
 31
0.0
  0
ELLIPSE
  5
17A
330
6C
100
AcDbEntity
  8
Visible (ISO)
100
AcDbEllipse
 10
181.3639610306727
 20
195.6788506416054
 30
0.0
 11
2.24564495212882
 21
-3.89962546265386
 31
0.0
210
0.0
220
0.0
230
1.0
 40
0.5780931159156394
 41
5.499720852205171
 42
7.070517179000068
  0
LINE
  5
17B
330
6C
100
AcDbEntity
  8
Visible (ISO)
100
AcDbLine
 10
184.5459415460117
 20
249.4396744188323
 30
0.0
 11
184.5459415460117
 21
193.8464699295396
 31
0.0
  0
ELLIPSE
  5
17C
330
6C
100
AcDbEntity
  8
Visible (ISO)
100
AcDbEllipse
 10
181.3639610306727
 20
251.2720551308981
 30
0.0
 11
2.245644952128587
 21
-3.899625462653992
 31
0.0
210
0.0
220
0.0
230
0.9999999999999998
 40
0.5780931159156394
 41
0.787331871820717
 42
2.35812819861562
  0
LINE
  5
17D
330
6C
100
AcDbEntity
  8
Visible Narrow (ISO)
100
AcDbLine
 10
133.6342533005879
 20
283.2526971498898
 30
0.0
 11
133.2806999099946
 21
282.6403257305723
 31
0.0
  0
LINE
  5
17E
330
6C
100
AcDbEntity
  8
Visible Narrow (ISO)
100
AcDbLine
 10
181.3639610306727
 20
254.9510171926895
 30
0.0
 11
181.7175144212661
 21
255.563388612007
 31
0.0
  0
LINE
  5
17F
330
6C
100
AcDbEntity
  8
Visible (ISO)
100
AcDbLine
 10
181.7175144212661
 20
255.563388612007
 30
0.0
 11
133.6342533005879
 21
283.2526971498898
 31
0.0
  0
LINE
  5
180
330
6C
100
AcDbEntity
  8
Visible Narrow (ISO)
100
AcDbLine
 10
184.5459415460117
 20
249.4396744188323
 30
0.0
 11
185.2530483271983
 21
249.4396744188323
 31
0.0
  0
ELLIPSE
  5
181
330
6C
100
AcDbEntity
  8
Visible (ISO)
100
AcDbEllipse
 10
181.7175144212661
 20
251.4756529877943
 30
0.0
 11
-2.495161057921168
 21
4.332917180726356
 31
0.0
210
0.0
220
0.0
230
1.0
 40
0.5780931159156393
 41
3.928924525410026
 42
5.499720852204928
  0
LINE
  5
182
330
6C
100
AcDbEntity
  8
Visible Narrow (ISO)
100
AcDbLine
 10
184.5459415460117
 20
193.8464699295396
 30
0.0
 11
185.2530483271983
 21
193.8464699295396
 31
0.0
  0
LINE
  5
183
330
6C
100
AcDbEntity
  8
Visible (ISO)
100
AcDbLine
 10
185.2530483271983
 20
193.8464699295396
 30
0.0
 11
185.2530483271983
 21
249.4396744188323
 31
0.0
  0
LINE
  5
184
330
6C
100
AcDbEntity
  8
Visible Narrow (ISO)
100
AcDbLine
 10
181.3639610306727
 20
191.999888579814
 30
0.0
 11
181.717514421266
 21
191.7947128742889
 31
0.0
  0
ELLIPSE
  5
185
330
6C
100
AcDbEntity
  8
Visible (ISO)
100
AcDbEllipse
 10
181.7175144212661
 20
195.8824484985015
 30
0.0
 11
2.495161057920908
 21
-4.332917180726505
 31
0.0
210
0.0
220
0.0
230
1.0
 40
0.5780931159156393
 41
5.499720852205171
 42
7.070517179000076
  0
LINE
  5
186
330
6C
100
AcDbEntity
  8
Visible (ISO)
100
AcDbLine
 10
160.733849757724
 20
203.8784017003452
 30
0.0
 11
181.717514421266
 21
191.7947128742889
 31
0.0
  0
LINE
  5
187
330
6C
100
AcDbEntity
  8
Visible (ISO)
100
AcDbLine
 10
130.0987193946556
 20
280.7937443808467
 30
0.0
 11
130.0987193946557
 21
281.200940094639
 31
0.0
  0
ELLIPSE
  5
188
330
6C
100
AcDbEntity
  8
Visible (ISO)
100
AcDbEllipse
 10
133.6342533005879
 20
279.1649615256771
 30
0.0
 11
-2.495161057920908
 21
4.332917180726505
 31
0.0
210
0.0
220
0.0
230
1.0
 40
0.5780931159156393
 41
5.499720852205171
 42
7.070517179000067
  0
LINE
  5
189
330
6C
100
AcDbEntity
  8
Visible Narrow (ISO)
100
AcDbLine
 10
157.4637518265781
 20
296.9751927046894
 30
0.0
 11
133.6342533005879
 21
283.2526971498898
 31
0.0
  0
LINE
  5
18A
330
6C
100
AcDbEntity
  8
Visible Narrow (ISO)
100
AcDbLine
 10
205.5470129472563
 20
269.2858841668066
 30
0.0
 11
181.7175144212661
 21
255.563388612007
 31
0.0
  0
LINE
  5
18B
330
6C
100
AcDbEntity
  8
Visible Narrow (ISO)
100
AcDbLine
 10
209.0825468531885
 20
207.5689654843392
 30
0.0
 11
185.2530483271983
 21
193.8464699295396
 31
0.0
  0
LINE
  5
18C
330
6C
100
AcDbEntity
  8
Visible Narrow (ISO)
100
AcDbLine
 10
209.0825468531885
 20
263.1621699736319
 30
0.0
 11
185.2530483271983
 21
249.4396744188323
 31
0.0
  0
LINE
  5
18D
330
6C
100
AcDbEntity
  8
Visible (ISO)
100
AcDbLine
 10
154.9685907686572
 20
297.2203742612032
 30
0.0
 11
131.139092242667
 21
283.4978787064036
 31
0.0
  0
LINE
  5
18E
330
6C
100
AcDbEntity
  8
Visible (ISO)
100
AcDbLine
 10
208.0421740051772
 20
205.2720268725746
 30
0.0
 11
184.212675479187
 21
191.549531317775
 31
0.0
  0
ELLIPSE
  5
18F
330
6C
100
AcDbEntity
  8
Visible (ISO)
100
AcDbEllipse
 10
157.4637518265781
 20
292.8874570804767
 30
0.0
 11
-2.49516105792091
 21
4.332917180726502
 31
0.0
210
0.0
220
0.0
230
1.0
 40
0.5780931159156394
 41
5.499720852205175
 42
6.283185307179589
  0
LINE
  5
190
330
6C
100
AcDbEntity
  8
Visible (ISO)
100
AcDbLine
 10
157.4637518265781
 20
296.9751927046894
 30
0.0
 11
205.5470129472563
 21
269.2858841668066
 31
0.0
  0
ELLIPSE
  5
191
330
6C
100
AcDbEntity
  8
Visible (ISO)
100
AcDbEllipse
 10
205.5470129472563
 20
209.6049440533012
 30
0.0
 11
2.495161057920915
 21
-4.332917180726515
 31
0.0
210
0.0
220
0.0
230
1.0
 40
0.5780931159156394
 41
0.0
 42
0.787331871820471
  0
LINE
  5
192
330
6C
100
AcDbEntity
  8
Visible (ISO)
100
AcDbLine
 10
209.0825468531885
 20
263.4064874019073
 30
0.0
 11
209.0825468531885
 21
263.1621699736319
 31
0.0
  0
LINE
  5
193
330
6C
100
AcDbEntity
  8
Visible (ISO)
100
AcDbLine
 10
209.0825468531885
 20
263.1621699736319
 30
0.0
 11
209.0825468531885
 21
207.5689654843392
 31
0.0
  0
ELLIPSE
  5
194
330
6C
100
AcDbEntity
  8
Visible (ISO)
100
AcDbEllipse
 10
205.5470129472563
 20
265.1981485425939
 30
0.0
 11
2.49516105792065
 21
-4.332917180726653
 31
0.0
210
0.0
220
0.0
230
0.9999999999999998
 40
0.5780931159156394
 41
0.7873318718207179
 42
2.358128198615613
  0
ELLIPSE
  5
195
330
6C
100
AcDbEntity
  8
Visible (ISO)
100
AcDbEllipse
 10
205.7591449816122
 20
265.3203072567316
 30
0.0
 11
-2.345451394445906
 21
4.072942149882791
 31
0.0
210
0.0
220
0.0
230
1.0
 40
0.5780931159156393
 41
3.928924525410044
 42
5.495853435359173
  0
LINE
  5
196
330
6C
100
AcDbEntity
  8
Visible (ISO)
100
AcDbLine
 10
205.7719979299555
 20
269.1553484870758
 30
0.0
 11
205.5606862965576
 21
269.2779796387047
 31
0.0
  0
LINE
  5
197
330
6C
100
AcDbEntity
  8
Visible (ISO)
100
AcDbLine
 10
132.9271465193978
 20
237.6429698753954
 30
0.0
 11
132.9271465193981
 21
238.5067624268736
 31
0.0
  0
LINE
  5
198
330
6C
100
AcDbEntity
  8
Visible (ISO)
100
AcDbLine
 10
145.3568113750703
 20
216.0585081297911
 30
0.0
 11
146.1039108196667
 21
215.6249415352833
 31
0.0
  0
LINE
  5
199
330
6C
100
AcDbEntity
  8
Visible (ISO)
100
AcDbLine
 10
169.2567951235101
 20
208.4200420657274
 30
0.0
 11
163.2463874834235
 21
204.9588784984931
 31
0.0
  0
LINE
  5
19A
330
6C
100
AcDbEntity
  8
Visible (ISO)
100
AcDbLine
 10
138.3167980052907
 20
262.1482151067362
 30
0.0
 11
132.3063903652042
 21
258.6870515395018
 31
0.0
  0
LINE
  5
19B
330
6C
100
AcDbEntity
  8
Visible (ISO)
100
AcDbLine
 10
174.5056151633054
 20
206.8268086045907
 30
0.0
 11
173.0206909228134
 21
205.9716976056269
 31
0.0
  0
LINE
  5
19C
330
6C
100
AcDbEntity
  8
Visible (ISO)
100
AcDbLine
 10
139.5733603524126
 20
267.4876491347618
 30
0.0
 11
138.0884361119207
 21
266.6325381357981
 31
0.0
  0
ELLIPSE
  5
19D
330
6C
100
AcDbEntity
  8
Visible (ISO)
100
AcDbEllipse
 10
146.0086219713472
 20
230.8049757345168
 30
0.0
 11
5.48935432742605
 21
-9.532417797598391
 31
0.0
210
0.0
220
0.0
230
1.0
 40
0.5780931159156393
 41
0.0
 42
0.3635697563933942
  0
ELLIPSE
  5
19E
330
6C
100
AcDbEntity
  8
Visible (ISO)
100
AcDbEllipse
 10
146.0086219713472
 20
230.8049757345168
 30
0.0
 11
-5.489354327426015
 21
9.532417797598341
 31
0.0
210
0.0
220
0.0
230
1.0
 40
0.5780931159156394
 41
5.919615550786186
 42
6.283185307179585
  0
ELLIPSE
  5
19F
330
6C
100
AcDbEntity
  8
Visible (ISO)
100
AcDbEllipse
 10
145.3015151901606
 20
230.3977800207245
 30
0.0
 11
5.777470709118428
 21
-10.03273997773209
 31
0.0
210
0.0
220
0.0
230
1.0
 40
0.5780931159156394
 41
5.956044417460004
 42
9.751918850488959
  0
ELLIPSE
  5
1A0
330
6C
100
AcDbEntity
  8
Visible (ISO)
100
AcDbEllipse
 10
145.3015151901606
 20
230.3977800207245
 30
0.0
 11
-7.696399003654496
 21
13.36501279819108
 31
0.0
210
0.0
220
0.0
230
1.0
 40
0.5780931159156392
 41
2.234422116453999
 42
7.190355844315379
  0
ELLIPSE
  5
1A1
330
6C
100
AcDbEntity
  8
Visible (ISO)
100
AcDbEllipse
 10
146.0086219713472
 20
230.8049757345168
 30
0.0
 11
-7.984515385346918
 21
13.86533497832484
 31
0.0
210
0.0
220
0.0
230
0.9999999999999998
 40
0.5780931159156392
 41
5.90169083045988
 42
6.704583753576445
  0
ELLIPSE
  5
1A2
330
6C
100
AcDbEntity
  8
Visible (ISO)
100
AcDbEllipse
 10
146.0086219713472
 20
230.8049757345168
 30
0.0
 11
7.984515385346927
 21
-13.86533497832486
 31
0.0
210
0.0
220
0.0
230
0.9999999999999998
 40
0.5780931159156394
 41
5.861786860782729
 42
6.66467978389929
  0
LINE
  5
1A3
330
6C
100
AcDbEntity
  8
Visible (ISO)
100
AcDbLine
 10
135.118103662039
 20
240.7736906438871
 30
0.0
 11
135.4439922031923
 21
241.5693108434799
 31
0.0
  0
LINE
  5
1A4
330
6C
100
AcDbEntity
  8
Visible (ISO)
100
AcDbLine
 10
149.1643060897974
 20
216.3820660511608
 30
0.0
 11
150.0160172940018
 21
216.2645804440094
 31
0.0
  0
ELLIPSE
  5
1A5
330
6C
100
AcDbEntity
  8
Visible (ISO)
100
AcDbEllipse
 10
121.9669914110011
 20
216.9603214655795
 30
0.0
 11
-1.871370793440683
 21
3.249687885544883
 31
0.0
210
0.0
220
0.0
230
1.0
 40
0.5780931159156393
 41
0.0
 42
6.283185307179586
  0
ELLIPSE
  5
1A6
330
6C
100
AcDbEntity
  8
Visible (ISO)
100
AcDbEllipse
 10
123.5487494124035
 20
217.871195318814
 30
0.0
 11
-1.226870692179712
 21
2.130495377763227
 31
0.0
210
0.0
220
0.0
230
0.9999999999999998
 40
0.5780931159156393
 41
0.1260013179786823
 42
3.015591335611102
  0
ELLIPSE
  5
1A7
330
6C
100
AcDbEntity
  8
Visible Narrow (ISO)
100
AcDbEllipse
 10
142.8973521341259
 20
229.0133145938308
 30
0.0
 11
-4.740806010049733
 21
8.232542643380371
 31
0.0
210
0.0
220
0.0
230
1.0
 40
0.5780931159156393
 41
3.141592653589792
 42
6.283185307179585
  0
ELLIPSE
  5
1A8
330
6C
100
AcDbEntity
  8
Visible Narrow (ISO)
100
AcDbEllipse
 10
143.1801948466006
 20
229.1761928793477
 30
0.0
 11
4.940418894683408
 21
-8.579176017838499
 31
0.0
210
0.0
220
0.0
230
1.0
 40
0.5780931159156393
 41
5.997951748058068
 42
9.710011519890898
  0
ELLIPSE
  5
1A9
330
6C
100
AcDbEntity
  8
Visible (ISO)
100
AcDbEllipse
 10
143.1801948466006
 20
229.1761928793477
 30
0.0
 11
-5.307721456469334
 21
9.217007221333313
 31
0.0
210
0.0
220
0.0
230
0.9999999999999998
 40
0.5780931159156394
 41
2.675187165329235
 42
6.749590795440142
  0
ELLIPSE
  5
1AA
330
6C
100
AcDbEntity
  8
Visible (ISO)
100
AcDbEllipse
 10
143.8873016277873
 20
229.58338859314
 30
0.0
 11
5.489354327426011
 21
-9.532417797598331
 31
0.0
210
0.0
220
0.0
230
1.0
 40
0.5780931159156396
 41
6.022375548938791
 42
9.685587719010177
  0
LINE
  5
1AB
330
6C
100
AcDbEntity
  8
Visible (ISO)
100
AcDbLine
 10
136.6780041407593
 20
237.2902788017381
 30
0.0
 11
137.1626027185491
 21
237.9751425758007
 31
0.0
  0
LINE
  5
1AC
330
6C
100
AcDbEntity
  8
Visible (ISO)
100
AcDbLine
 10
146.9344485725692
 20
219.4796752935278
 30
0.0
 11
147.7700277855028
 21
219.555051347634
 31
0.0
  0
ELLIPSE
  5
1AD
330
6C
100
AcDbEntity
  8
Visible Narrow (ISO)
100
AcDbEllipse
 10
122.6740981921877
 20
217.3675171793718
 30
0.0
 11
4.740806010049735
 21
-8.232542643380378
 31
0.0
210
0.0
220
0.0
230
1.0
 40
0.5780931159156394
 41
0.0000000000000009
 42
3.141592638688632
  0
ELLIPSE
  5
1AE
330
6C
100
AcDbEntity
  8
Visible Narrow (ISO)
100
AcDbEllipse
 10
121.9669914110011
 20
216.9603214655795
 30
0.0
 11
-4.241773798465552
 21
7.365959207235072
 31
0.0
210
0.0
220
0.0
230
1.0
 40
0.5780931159156394
 41
0.0
 42
6.283185307179586
  0
SPLINE
  5
1AF
330
6C
100
AcDbEntity
  8
Visible (ISO)
100
AcDbSpline
210
0.0
220
0.0
230
1.0
 70
     8
 71
     3
 72
    26
 73
    22
 74
     0
 42
0.0000000001
 43
0.0000000001
 40
0.7873318718204815
 40
0.7873318718204815
 40
0.7873318718204815
 40
0.7873318718204815
 40
1.054760725786073
 40
1.054760725786073
 40
1.345711457256293
 40
1.345711457256293
 40
1.673820757626332
 40
1.673820757626332
 40
2.011820611153009
 40
2.011820611153009
 40
2.347319945755729
 40
2.347319945755729
 40
2.681325488773242
 40
2.681325488773242
 40
3.01664227628237
 40
3.01664227628237
 40
3.354587732628976
 40
3.354587732628976
 40
3.683917694349863
 40
3.683917694349863
 40
3.928924525410274
 40
3.928924525410274
 40
3.928924525410274
 40
3.928924525410274
 10
127.4149042022374
 20
209.1349745359914
 30
0.0
 10
126.9016861137013
 20
208.8394318945506
 30
0.0
 10
126.3206015534966
 20
208.6667053303802
 30
0.0
 10
125.0658361813207
 20
208.5662564064434
 30
0.0
 10
124.3894104954096
 20
208.6575593079197
 30
0.0
 10
122.9618354815853
 20
209.1017291189307
 30
0.0
 10
122.2096458341081
 20
209.4862802214501
 30
0.0
 10
120.7386099140421
 20
210.5092391270732
 30
0.0
 10
120.0213663221231
 20
211.155761224138
 30
0.0
 10
118.7075999814842
 20
212.6293066449992
 30
0.0
 10
118.1106377664308
 20
213.4548990630471
 30
0.0
 10
117.0887092523647
 20
215.2041409128491
 30
0.0
 10
116.6631986652966
 20
216.1269837026881
 30
0.0
 10
116.0225953488391
 20
217.9898000933105
 30
0.0
 10
115.8082124098727
 20
218.929435770004
 30
0.0
 10
115.6225317353022
 20
220.7455449125715
 30
0.0
 10
115.6524883491231
 20
221.6218179841583
 30
0.0
 10
115.9847986904461
 20
223.2069487499316
 30
0.0
 10
116.2820206563375
 20
223.9223659455904
 30
0.0
 10
117.0529579921191
 20
224.957594973337
 30
0.0
 10
117.4631038099763
 20
225.3292963469757
 30
0.0
 10
117.933292182138
 20
225.6000598227521
 30
0.0
  0
LINE
  5
1B0
330
6C
100
AcDbEntity
  8
Visible (ISO)
100
AcDbLine
 10
147.6381581441757
 20
220.7807719504504
 30
0.0
 11
127.4149042022374
 21
209.1349745359914
 31
0.0
  0
LINE
  5
1B1
330
6C
100
AcDbEntity
  8
Visible (ISO)
100
AcDbLine
 10
138.1565461240762
 20
237.2458572372111
 30
0.0
 11
117.933292182138
 21
225.6000598227521
 31
0.0
  0
LINE
  5
1B2
330
6C
100
AcDbEntity
  8
Visible (ISO)
100
AcDbLine
 10
151.4979762987732
 20
221.2725579369184
 30
0.0
 11
149.3766559552133
 21
220.0509707955416
 31
0.0
  0
LINE
  5
1B3
330
6C
100
AcDbEntity
  8
Visible (ISO)
100
AcDbLine
 10
140.5192676439212
 20
240.3373935321151
 30
0.0
 11
138.3979473003613
 21
239.1158063907383
 31
0.0
  0
ELLIPSE
  5
1B4
330
6C
100
AcDbEntity
  8
Visible Narrow (ISO)
100
AcDbEllipse
 10
173.2322330470404
 20
305.2381099974145
 30
0.0
 11
0.4990322115844249
 21
0.8665834361452098
 31
0.0
210
0.0
220
0.0
230
1.0
 40
0.5780931159158105
 41
0.0
 42
0.7834644549745633
  0
ELLIPSE
  5
1B5
330
6C
100
AcDbEntity
  8
Visible Narrow (ISO)
100
AcDbEllipse
 10
173.2322330470404
 20
301.9679214980444
 30
0.0
 11
-2.495161057920912
 21
4.332917180726505
 31
0.0
210
0.0
220
0.0
230
1.0
 40
0.5780931159156394
 41
5.499720852205161
 42
6.283185307179573
  0
ELLIPSE
  5
1B6
330
6C
100
AcDbEntity
  8
Visible Narrow (ISO)
100
AcDbEllipse
 10
224.1439212924644
 20
217.0566256156993
 30
0.0
 11
0.9999999999999978
 21
-0.0000000000000022
 31
0.0
210
0.0
220
0.0
230
1.0
 40
0.5758617009853119
 41
5.497787143782018
 42
6.283185307179596
  0
ELLIPSE
  5
1B7
330
6C
100
AcDbEntity
  8
Visible Narrow (ISO)
100
AcDbEllipse
 10
221.3154941677186
 20
218.6854084708689
 30
0.0
 11
2.495161057920925
 21
-4.332917180726536
 31
0.0
210
0.0
220
0.0
230
1.0
 40
0.5780931159156393
 41
0.0
 42
0.7873318718204772
  0
ELLIPSE
  5
1B8
330
6C
100
AcDbEntity
  8
Visible Narrow (ISO)
100
AcDbEllipse
 10
224.1439212924644
 20
272.649830104992
 30
0.0
 11
0.9999999999999978
 21
-0.0000000000000022
 31
0.0
210
0.0
220
0.0
230
1.0
 40
0.5758617009853119
 41
5.497787143782018
 42
6.283185307179596
  0
LINE
  5
1B9
330
6C
100
AcDbEntity
  8
Visible Narrow (ISO)
100
AcDbLine
 10
224.8510280736508
 20
272.2426343911996
 30
0.0
 11
224.8510280736508
 21
216.6494299019069
 31
0.0
  0
ELLIPSE
  5
1BA
330
6C
100
AcDbEntity
  8
Visible Narrow (ISO)
100
AcDbEllipse
 10
221.3154941677186
 20
277.5488014595317
 30
0.0
 11
0.4990322115844149
 21
0.8665834361452189
 31
0.0
210
0.0
220
0.0
230
0.9999999999999998
 40
0.5780931159158104
 41
0.0
 42
0.783464454974463
  0
ELLIPSE
  5
1BB
330
6C
100
AcDbEntity
  8
Visible Narrow (ISO)
100
AcDbEllipse
 10
221.3154941677186
 20
274.2786129601616
 30
0.0
 11
2.49516105792065
 21
-4.332917180726655
 31
0.0
210
0.0
220
0.0
230
1.0
 40
0.5780931159156393
 41
0.7873318718207179
 42
2.358128198615613
  0
LINE
  5
1BC
330
6C
100
AcDbEntity
  8
Visible Narrow (ISO)
100
AcDbLine
 10
173.2322330470404
 20
306.0556571222571
 30
0.0
 11
221.3154941677186
 21
278.3663485843743
 31
0.0
  0
SPLINE
  5
1BD
330
6C
100
AcDbEntity
  8
Visible (ISO)
100
AcDbSpline
210
0.0
220
0.0
230
1.0
 70
     8
 71
     3
 72
    16
 73
    12
 74
     0
 42
0.0000000001
 43
0.0000000001
 40
4.712388980384689
 40
4.712388980384689
 40
4.712388980384689
 40
4.712388980384689
 40
4.869081871379572
 40
4.869081871379572
 40
5.025774762374455
 40
5.025774762374455
 40
5.182467653369338
 40
5.182467653369338
 40
5.33916054436422
 40
5.33916054436422
 40
5.495853435359105
 40
5.495853435359105
 40
5.495853435359105
 40
5.495853435359105
 10
173.7312652586249
 20
306.1046934335597
 30
0.0
 10
173.5442342880314
 20
306.2123974064226
 30
0.0
 10
173.3525887645754
 20
306.3058724851513
 30
0.0
 10
172.9609657582806
 20
306.4598579173365
 30
0.0
 10
172.7609238590751
 20
306.5203938724335
 30
0.0
 10
172.3541013345716
 20
306.6022394356715
 30
0.0
 10
172.1471927387412
 20
306.623502038792
 30
0.0
 10
171.7318545908348
 20
306.6187024280207
 30
0.0
 10
171.5233596146253
 20
306.5924250384153
 30
0.0
 10
171.117320790674
 20
306.4862754768761
 30
0.0
 10
170.9200319091064
 20
306.4061982895067
 30
0.0
 10
170.7370719891195
 20
306.300838678771
 30
0.0
  0
SPLINE
  5
1BE
330
6C
100
AcDbEntity
  8
Visible (ISO)
100
AcDbSpline
210
0.0
220
0.0
230
1.0
 70
     8
 71
     3
 72
    16
 73
    12
 74
     0
 42
0.0000000001
 43
0.0000000001
 40
2.354260781769311
 40
2.354260781769311
 40
2.354260781769311
 40
2.354260781769311
 40
2.511727156133408
 40
2.511727156133408
 40
2.669193530497504
 40
2.669193530497504
 40
2.8266599048616
 40
2.8266599048616
 40
2.984126279225696
 40
2.984126279225696
 40
3.141592653589793
 40
3.141592653589793
 40
3.141592653589793
 40
3.141592653589793
 10
223.8106552256395
 20
214.3524912901423
 30
0.0
 10
223.994518290973
 20
214.4583709876936
 30
0.0
 10
224.16355700023
 20
214.5895842101887
 30
0.0
 10
224.4602324266154
 20
214.8893231666925
 30
0.0
 10
224.5879214902231
 20
215.0575185089647
 30
0.0
 10
224.8007721298672
 20
215.4165523910489
 30
0.0
 10
224.8861575927156
 20
215.6073407048495
 30
0.0
 10
225.0191141931544
 20
216.0026433782733
 30
0.0
 10
225.0667908545728
 20
216.2072473841388
 30
0.0
 10
225.1291897071053
 20
216.6256805780147
 30
0.0
 10
225.1439212924644
 20
216.8395791582598
 30
0.0
 10
225.1439212924644
 20
217.0566256156993
 30
0.0
  0
LINE
  5
1BF
330
6C
100
AcDbEntity
  8
Visible (ISO)
100
AcDbLine
 10
225.1439212924644
 20
217.0566256156993
 30
0.0
 11
225.1439212924644
 21
272.649830104992
 31
0.0
  0
SPLINE
  5
1C0
330
6C
100
AcDbEntity
  8
Visible (ISO)
100
AcDbSpline
210
0.0
220
0.0
230
1.0
 70
     8
 71
     3
 72
    16
 73
    12
 74
     0
 42
0.0000000001
 43
0.0000000001
 40
3.141592653589793
 40
3.141592653589793
 40
3.141592653589793
 40
3.141592653589793
 40
3.455751918948772
 40
3.455751918948772
 40
3.769911184307751
 40
3.769911184307751
 40
4.084070449666731
 40
4.084070449666731
 40
4.39822971502571
 40
4.39822971502571
 40
4.712388980384689
 40
4.712388980384689
 40
4.712388980384689
 40
4.712388980384689
 10
225.1439212924644
 20
272.649830104992
 30
0.0
 10
225.1439212924644
 20
273.082856875903
 30
0.0
 10
225.0854636544021
 20
273.5286770591601
 30
0.0
 10
224.8694538190872
 20
274.4217129197256
 30
0.0
 10
224.711610240899
 20
274.8688763198566
 30
0.0
 10
224.3118688428444
 20
275.7352020845756
 30
0.0
 10
224.0699603448338
 20
276.1542060620775
 30
0.0
 10
223.5196773764862
 20
276.9333408041372
 30
0.0
 10
223.21144677218
 20
277.2934032542845
 30
0.0
 10
222.5462688745717
 20
277.9263395669322
 30
0.0
 10
222.1895115617701
 20
278.1994452906571
 30
0.0
 10
221.814526379303
 20
278.4153848956769
 30
0.0
  0
LINE
  5
1C1
330
6C
100
AcDbEntity
  8
Visible (ISO)
100
AcDbLine
 10
221.814526379303
 20
278.4153848956769
 30
0.0
 11
173.7312652586249
 21
306.1046934335597
 31
0.0
  0
LINE
  5
1C2
330
6C
100
AcDbEntity
  8
Visible Narrow (ISO)
100
AcDbLine
 10
224.8510280736508
 20
272.2426343911996
 30
0.0
 11
209.5068109219005
 21
263.4064874019073
 31
0.0
  0
LINE
  5
1C3
330
6C
100
AcDbEntity
  8
Visible Narrow (ISO)
100
AcDbLine
 10
224.8510280736508
 20
216.6494299019069
 30
0.0
 11
209.5068109219004
 21
207.8132829126146
 31
0.0
  0
LINE
  5
1C4
330
6C
100
AcDbEntity
  8
Visible Narrow (ISO)
100
AcDbLine
 10
221.3154941677186
 20
278.3663485843743
 30
0.0
 11
205.9712770159682
 21
269.530201595082
 31
0.0
  0
LINE
  5
1C5
330
6C
100
AcDbEntity
  8
Visible Narrow (ISO)
100
AcDbLine
 10
173.2322330470404
 20
306.0556571222571
 30
0.0
 11
157.8880158952901
 21
297.2195101329648
 31
0.0
  0
LINE
  5
1C6
330
6C
100
AcDbEntity
  8
Visible (ISO)
100
AcDbLine
 10
170.7370719891195
 20
306.300838678771
 30
0.0
 11
155.3928548373692
 21
297.4646916894786
 31
0.0
  0
LINE
  5
1C7
330
6C
100
AcDbEntity
  8
Visible (ISO)
100
AcDbLine
 10
223.8106552256395
 20
214.3524912901423
 30
0.0
 11
208.4664380738892
 21
205.51634430085
 31
0.0
  0
LINE
  5
1C8
330
6C
100
AcDbEntity
  8
Visible (ISO)
100
AcDbLine
 10
209.5068109219004
 20
207.8132829126146
 30
0.0
 11
209.5068109219005
 21
263.4064874019073
 31
0.0
  0
ELLIPSE
  5
1C9
330
6C
100
AcDbEntity
  8
Visible (ISO)
100
AcDbEllipse
 10
205.9712770159682
 20
265.4424659708693
 30
0.0
 11
-2.49516105792117
 21
4.332917180726359
 31
0.0
210
0.0
220
0.0
230
1.0
 40
0.5780931159156394
 41
3.928924525410037
 42
5.499720852204935
  0
LINE
  5
1CA
330
6C
100
AcDbEntity
  8
Visible (ISO)
100
AcDbLine
 10
205.9712770159682
 20
269.530201595082
 30
0.0
 11
157.8880158952901
 21
297.2195101329648
 31
0.0
  0
ELLIPSE
  5
1CB
330
6C
100
AcDbEntity
  8
Visible (ISO)
100
AcDbEllipse
 10
157.8880158952901
 20
293.1317745087521
 30
0.0
 11
-2.495161057920924
 21
4.332917180726531
 31
0.0
210
0.0
220
0.0
230
1.0
 40
0.5780931159156393
 41
5.499720852205171
 42
6.367976078797181
  0
ELLIPSE
  5
1CC
330
6C
100
AcDbEntity
  8
Visible (ISO)
100
AcDbEllipse
 10
216.1536146650631
 20
271.1987905427103
 30
0.0
 11
-16.21854687648594
 21
28.16396167472234
 31
0.0
210
0.0
220
0.0
230
1.0
 40
0.5780931159156394
 41
3.141592653589792
 42
6.283185307179586
  0
LINE
  5
1CD
330
6C
100
AcDbEntity
  8
Visible Narrow (ISO)
100
AcDbLine
 10
209.5068109219005
 20
263.4064874019073
 30
0.0
 11
209.0825468531885
 21
263.4064874019073
 31
0.0
  0
LINE
  5
1CE
330
6C
100
AcDbEntity
  8
Visible Narrow (ISO)
100
AcDbLine
 10
209.0825468531885
 20
207.8132829126146
 30
0.0
 11
209.5068109219004
 21
207.8132829126146
 31
0.0
  0
ELLIPSE
  5
1CF
330
6C
100
AcDbEntity
  8
Visible (ISO)
100
AcDbEllipse
 10
205.9712770159682
 20
209.8492614815766
 30
0.0
 11
2.49516105792092
 21
-4.332917180726527
 31
0.0
210
0.0
220
0.0
230
1.0
 40
0.5780931159156394
 41
6.198394535561989
 42
7.070517179000063
  0
LINE
  5
1D0
330
6C
100
AcDbEntity
  8
Visible Narrow (ISO)
100
AcDbLine
 10
157.676294062947
 20
296.8527977709228
 30
0.0
 11
157.8880158952901
 21
297.2195101329648
 31
0.0
  0
LINE
  5
1D1
330
6C
100
AcDbEntity
  8
Visible Narrow (ISO)
100
AcDbLine
 10
205.7591574086015
 20
269.1628002676325
 30
0.0
 11
205.9712770159682
 21
269.530201595082
 31
0.0
  0
ELLIPSE
  5
1D2
330
6C
100
AcDbEntity
  8
Visible (ISO)
100
AcDbEllipse
 10
205.7591449816122
 20
265.3203072567316
 30
0.0
 11
2.34545139444542
 21
-4.072942149883071
 31
0.0
210
0.0
220
0.0
230
0.9999999999999998
 40
0.5780931159156394
 41
0.7873318718207214
 42
2.354260781769857
  0
ELLIPSE
  5
1D3
330
6C
100
AcDbEntity
  8
Visible (ISO)
100
AcDbEllipse
 10
216.3657466994191
 20
271.320949256848
 30
0.0
 11
-16.06883721301235
 21
27.90398664387778
 31
0.0
210
0.0
220
0.0
230
1.0
 40
0.5780931159156396
 41
3.928924525409732
 42
5.495853435359171
  0
LINE
  5
1D4
330
6C
100
AcDbEntity
  8
Visible (ISO)
100
AcDbLine
 10
239.1345850536226
 20
258.209247272725
 30
0.0
 11
239.1345850536226
 21
257.9649298444495
 31
0.0
  0
LINE
  5
1D5
330
6C
100
AcDbEntity
  8
Visible (ISO)
100
AcDbLine
 10
216.4538030689197
 20
297.5950615158016
 30
0.0
 11
216.2424914355218
 21
297.7176926674306
 31
0.0
  0
LINE
  5
1D6
330
6C
100
AcDbEntity
  8
Visible (ISO)
100
AcDbLine
 10
232.3721615415491
 20
243.034828867988
 30
0.0
 11
225.1439212924644
 21
238.8723621430208
 31
0.0
  0
LINE
  5
1D7
330
6C
100
AcDbEntity
  8
Visible (ISO)
100
AcDbLine
 10
199.9350677885772
 20
299.3627522174327
 30
0.0
 11
192.6869515596496
 21
295.1888396769044
 31
0.0
  0
ELLIPSE
  5
1D8
330
6C
100
AcDbEntity
  8
Visible Narrow (ISO)
100
AcDbEllipse
 10
179.2993470069774
 20
301.9037960411062
 30
0.0
 11
-2.495161057920913
 21
4.332917180726514
 31
0.0
210
0.0
220
0.0
230
1.0
 40
0.5780931159156394
 41
4.174667530664409
 42
6.283185307179585
  0
SPLINE
  5
1D9
330
6C
100
AcDbEntity
  8
Visible (ISO)
100
AcDbSpline
210
0.0
220
0.0
230
1.0
 70
     8
 71
     3
 72
    20
 73
    16
 74
     0
 42
0.0000000001
 43
0.0000000001
 40
4.872844408089767
 40
4.872844408089767
 40
4.872844408089767
 40
4.872844408089767
 40
5.141385691682571
 40
5.141385691682571
 40
5.479303440392285
 40
5.479303440392285
 40
5.815451470346068
 40
5.815451470346068
 40
6.153056279305294
 40
6.153056279305294
 40
6.493572669761392
 40
6.493572669761392
 40
6.823542747414373
 40
6.823542747414373
 40
7.066649762154001
 40
7.066649762154001
 40
7.066649762154001
 40
7.066649762154001
 10
182.965679643648
 20
300.7869478581955
 30
0.0
 10
182.916026212261
 20
301.1702510037052
 30
0.0
 10
182.8259689092892
 20
301.5631276014647
 30
0.0
 10
182.5409713068962
 20
302.447633924695
 30
0.0
 10
182.3247836523259
 20
302.9384491144048
 30
0.0
 10
181.8014385703053
 20
303.8677001636948
 30
0.0
 10
181.4948684601498
 20
304.3062018573568
 30
0.0
 10
180.8167320434085
 20
305.0927536321243
 30
0.0
 10
180.4451159624594
 20
305.4403697763136
 30
0.0
 10
179.6634123266301
 20
306.0088013035208
 30
0.0
 10
179.2530160225987
 20
306.2289818248286
 30
0.0
 10
178.4340374857517
 20
306.4983938995422
 30
0.0
 10
178.0237040350669
 20
306.552603727922
 30
0.0
 10
177.3375239184051
 20
306.4718043327446
 30
0.0
 10
177.0556941527987
 20
306.3815471638514
 30
0.0
 10
176.8041859490565
 20
306.2367132218327
 30
0.0
  0
LINE
  5
1DA
330
6C
100
AcDbEntity
  8
Visible (ISO)
100
AcDbLine
 10
176.8041859490565
 20
306.2367132218327
 30
0.0
 11
175.1530975707143
 21
305.2859146598038
 31
0.0
  0
ELLIPSE
  5
1DB
330
6C
100
AcDbEntity
  8
Visible Narrow (ISO)
100
AcDbEllipse
 10
224.2993470069708
 20
223.9616390643481
 30
0.0
 11
2.495161057920654
 21
-4.332917180726665
 31
0.0
210
0.0
220
0.0
230
1.0
 40
0.5780931159156394
 41
0.0
 42
2.11691417130587
  0
SPLINE
  5
1DC
330
6C
100
AcDbEntity
  8
Visible (ISO)
100
AcDbSpline
210
0.0
220
0.0
230
1.0
 70
     8
 71
     3
 72
    20
 73
    16
 74
     0
 42
0.0000000001
 43
0.0000000001
 40
0.783464454974415
 40
0.783464454974415
 40
0.783464454974415
 40
0.783464454974415
 40
1.045399918823056
 40
1.045399918823056
 40
1.331563661580275
 40
1.331563661580275
 40
1.659239661821237
 40
1.659239661821237
 40
1.999793038092779
 40
1.999793038092779
 40
2.337710786802493
 40
2.337710786802493
 40
2.673858816756276
 40
2.673858816756276
 40
2.985933766687734
 40
2.985933766687734
 40
2.985933766687734
 40
2.985933766687734
 10
226.7945080648917
 20
219.6287218836216
 30
0.0
 10
227.0654953832934
 20
219.7847731017418
 30
0.0
 10
227.2990571462734
 20
220.0031098966581
 30
0.0
 10
227.6805411917679
 20
220.5442159461964
 30
0.0
 10
227.8200988959171
 20
220.8731927355148
 30
0.0
 10
228.0031264221264
 20
221.6354071921804
 30
0.0
 10
228.0306784449675
 20
222.0780358396807
 30
0.0
 10
227.9616803446185
 20
223.0174021716524
 30
0.0
 10
227.8598100636946
 20
223.5159426707465
 30
0.0
 10
227.5409713068896
 20
224.505476947937
 30
0.0
 10
227.3247836523192
 20
224.9962921376468
 30
0.0
 10
226.8014385702986
 20
225.9255431869367
 30
0.0
 10
226.4948684601431
 20
226.3640448805987
 30
0.0
 10
225.8424280050677
 20
227.120792616306
 30
0.0
 10
225.5011191459765
 20
227.4454043694814
 30
0.0
 10
225.1439212924644
 20
227.715910351946
 30
0.0
  0
LINE
  5
1DD
330
6C
100
AcDbEntity
  8
Visible (ISO)
100
AcDbLine
 10
226.7945080648917
 20
219.6287218836216
 30
0.0
 11
225.1439212924644
 21
218.6782121772281
 31
0.0
  0
ELLIPSE
  5
1DE
330
6C
100
AcDbEntity
  8
Visible Narrow (ISO)
100
AcDbEllipse
 10
224.2993470069708
 20
275.9900194967633
 30
0.0
 11
-2.495161057920914
 21
4.332917180726513
 31
0.0
210
0.0
220
0.0
230
1.0
 40
0.5780931159156393
 41
3.141592653589789
 42
6.283185307179582
  0
SPLINE
  5
1DF
330
6C
100
AcDbEntity
  8
Visible (ISO)
100
AcDbSpline
210
0.0
220
0.0
230
1.0
 70
     8
 71
     3
 72
    26
 73
    22
 74
     0
 42
0.0000000001
 43
0.0000000001
 40
5.495853435359104
 40
5.495853435359104
 40
5.495853435359104
 40
5.495853435359104
 40
5.757788899207746
 40
5.757788899207746
 40
6.043952641964964
 40
6.043952641964964
 40
6.371628642205927
 40
6.371628642205927
 40
6.712182018477468
 40
6.712182018477468
 40
7.050099767187182
 40
7.050099767187182
 40
7.386247797140965
 40
7.386247797140965
 40
7.723852606100192
 40
7.723852606100192
 40
8.064368996556289
 40
8.064368996556289
 40
8.39433907420927
 40
8.39433907420927
 40
8.637446088948898
 40
8.637446088948898
 40
8.637446088948898
 40
8.637446088948898
 10
226.7945080648917
 20
271.6571023160368
 30
0.0
 10
227.0654953832935
 20
271.813153534157
 30
0.0
 10
227.2990571462735
 20
272.0314903290733
 30
0.0
 10
227.680541191768
 20
272.5725963786115
 30
0.0
 10
227.8200988959171
 20
272.9015731679299
 30
0.0
 10
228.0031264221265
 20
273.6637876245956
 30
0.0
 10
228.0306784449676
 20
274.1064162720959
 30
0.0
 10
227.9616803446185
 20
275.0457826040675
 30
0.0
 10
227.8598100636946
 20
275.5443231031617
 30
0.0
 10
227.5409713068896
 20
276.5338573803521
 30
0.0
 10
227.3247836523192
 20
277.0246725700619
 30
0.0
 10
226.8014385702986
 20
277.9539236193519
 30
0.0
 10
226.4948684601431
 20
278.3924253130139
 30
0.0
 10
225.8167320434019
 20
279.1789770877813
 30
0.0
 10
225.4451159624528
 20
279.5265932319707
 30
0.0
 10
224.6634123266234
 20
280.0950247591779
 30
0.0
 10
224.2530160225921
 20
280.3152052804857
 30
0.0
 10
223.434037485745
 20
280.5846173551993
 30
0.0
 10
223.0237040350603
 20
280.6388271835791
 30
0.0
 10
222.3375239183985
 20
280.5580277884017
 30
0.0
 10
222.0556941527921
 20
280.4677706195085
 30
0.0
 10
221.8041859490499
 20
280.3229366774898
 30
0.0
  0
LINE
  5
1E0
330
6C
100
AcDbEntity
  8
Visible (ISO)
100
AcDbLine
 10
226.7945080648917
 20
271.6571023160368
 30
0.0
 11
225.1439212924644
 21
270.7065926096432
 31
0.0
  0
LINE
  5
1E1
330
6C
100
AcDbEntity
  8
Visible (ISO)
100
AcDbLine
 10
221.8041859490499
 20
280.3229366774898
 30
0.0
 11
220.1530975707077
 21
279.3721381154609
 31
0.0
  0
ELLIPSE
  5
1E2
330
6C
100
AcDbEntity
  8
Visible (ISO)
100
AcDbEllipse
 10
228.033008588999
 20
278.0396785344206
 30
0.0
 11
-21.0591593288524
 21
36.56982100533158
 31
0.0
210
0.0
220
0.0
230
1.0
 40
0.5780931159156394
 41
4.631727939280399
 42
4.796917438335046
  0
LINE
  5
1E3
330
6C
100
AcDbEntity
  8
Visible (ISO)
100
AcDbLine
 10
193.5969083452157
 20
295.7128489392634
 30
0.0
 11
193.5969083452157
 21
306.732363709865
 31
0.0
  0
LINE
  5
1E4
330
6C
100
AcDbEntity
  8
Visible (ISO)
100
AcDbLine
 10
235.6530482214022
 20
233.8891135750492
 30
0.0
 11
226.0717092833748
 21
239.4066397136201
 31
0.0
  0
ELLIPSE
  5
1E5
330
6C
100
AcDbEntity
  8
Visible (ISO)
100
AcDbEllipse
 10
216.3657466994191
 20
271.320949256848
 30
0.0
 11
21.05915932885249
 21
-36.56982100533175
 31
0.0
210
0.0
220
0.0
230
1.0
 40
0.5780931159156394
 41
6.202524266075299
 42
6.367713765129942
  0
LINE
  5
1E6
330
6C
100
AcDbEntity
  8
Visible (ISO)
100
AcDbLine
 10
239.1345850536226
 20
280.5089597416349
 30
0.0
 11
239.1345850536226
 21
258.209247272725
 31
0.0
  0
LINE
  5
1E7
330
6C
100
AcDbEntity
  8
Visible (ISO)
100
AcDbLine
 10
239.1345850536226
 20
257.9649298444495
 30
0.0
 11
239.1345850536226
 21
235.9095348038311
 31
0.0
  0
ELLIPSE
  5
1E8
330
6C
100
AcDbEntity
  8
Visible (ISO)
100
AcDbEllipse
 10
216.3657466994192
 20
271.3209492568481
 30
0.0
 11
21.0591593288524
 21
-36.56982100533161
 31
0.0
210
0.0
220
0.0
230
1.0
 40
0.5780931159156393
 41
1.490135285690606
 42
1.655324784745252
  0
LINE
  5
1E9
330
6C
100
AcDbEntity
  8
Visible (ISO)
100
AcDbLine
 10
197.0784451774361
 20
308.7527849386469
 30
0.0
 11
215.9596200353193
 21
297.8798394683819
 31
0.0
  0
LINE
  5
1EA
330
6C
100
AcDbEntity
  8
Visible (ISO)
100
AcDbLine
 10
216.4097750488038
 20
297.6206124366096
 30
0.0
 11
235.6530482214022
 21
286.5391484149088
 31
0.0
  0
ELLIPSE
  5
1EB
330
6C
100
AcDbEntity
  8
Visible (ISO)
100
AcDbEllipse
 10
216.3657466994191
 20
271.320949256848
 30
0.0
 11
-21.05915932885249
 21
36.56982100533175
 31
0.0
210
0.0
220
0.0
230
1.0
 40
0.5780931159156394
 41
6.202524266075297
 42
6.367713765129941
  0
SPLINE
  5
1EC
330
6C
100
AcDbEntity
  8
Visible (ISO)
100
AcDbSpline
210
0.0
220
0.0
230
1.0
 70
    24
 71
     3
 72
     8
 73
     4
 74
     0
 42
0.0000000001
 43
0.0000000001
 40
-0.0438231200332123
 40
-0.0438231200332123
 40
-0.0438231200332123
 40
-0.0438231200332123
 40
0.0
 40
0.0
 40
0.0
 40
0.0
 10
193.5969083452157
 20
306.732363709865
 30
0.0
 10
193.5969083452157
 20
306.8437610297142
 30
0.0
 10
193.5969083452157
 20
306.9551135307932
 30
0.0
 10
193.5969083452158
 20
307.0664187742261
 30
0.0
  0
SPLINE
  5
1ED
330
6C
100
AcDbEntity
  8
Visible (ISO)
100
AcDbSpline
210
0.0
220
0.0
230
1.0
 70
     8
 71
     3
 72
     8
 73
     4
 74
     0
 42
0.0000000001
 43
0.0000000001
 40
-0.0438231200331159
 40
-0.0438231200331159
 40
-0.0438231200331159
 40
-0.0438231200331159
 40
0.0
 40
0.0
 40
0.0
 40
0.0
 10
197.0784451774361
 20
308.7527849386469
 30
0.0
 10
197.123226212278
 20
308.8901697915317
 30
0.0
 10
197.1680657680031
 20
309.0275437867502
 30
0.0
 10
197.2129620027409
 20
309.1649034165438
 30
0.0
  0
ELLIPSE
  5
1EE
330
6C
100
AcDbEntity
  8
Visible (ISO)
100
AcDbEllipse
 10
216.5778787337754
 20
271.4431079709852
 30
0.0
 11
-21.20886899232805
 21
36.82979603617588
 31
0.0
210
0.0
220
0.0
230
1.0
 40
0.5780931159156396
 41
6.199932407739462
 42
6.370305623465774
  0
SPLINE
  5
1EF
330
6C
100
AcDbEntity
  8
Visible (ISO)
100
AcDbSpline
210
0.0
220
0.0
230
1.0
 70
     8
 71
     3
 72
     8
 73
     4
 74
     0
 42
0.0000000001
 43
0.0000000001
 40
-0.0438231200310444
 40
-0.0438231200310444
 40
-0.0438231200310444
 40
-0.0438231200310444
 40
0.0
 40
0.0
 40
0.0
 40
0.0
 10
235.6530482214022
 20
286.5391484149088
 30
0.0
 10
235.7496700676727
 20
286.6466801299477
 30
0.0
 10
235.8462531878291
 20
286.7542569881416
 30
0.0
 10
235.9427954648094
 20
286.8618756401927
 30
0.0
  0
LINE
  5
1F0
330
6C
100
AcDbEntity
  8
Visible (ISO)
100
AcDbLine
 10
235.9427954648094
 20
286.8618756401927
 30
0.0
 11
197.2129620027409
 21
309.1649034165438
 31
0.0
  0
SPLINE
  5
1F1
330
6C
100
AcDbEntity
  8
Visible (ISO)
100
AcDbSpline
210
0.0
220
0.0
230
1.0
 70
     8
 71
     3
 72
     8
 73
     4
 74
     0
 42
0.0000000001
 43
0.0000000001
 40
-0.0438231200309521
 40
-0.0438231200309521
 40
-0.0438231200309521
 40
-0.0438231200309521
 40
0.0
 40
0.0
 40
0.0
 40
0.0
 10
239.1345850536226
 20
280.5089597416349
 30
0.0
 10
239.2759879347363
 20
280.5389285578446
 30
0.0
 10
239.4174106106189
 20
280.5688411562347
 30
0.0
 10
239.5588491223345
 20
280.5986973777205
 30
0.0
  0
ELLIPSE
  5
1F2
330
6C
100
AcDbEntity
  8
Visible (ISO)
100
AcDbEllipse
 10
216.5778787337748
 20
271.4431079709855
 30
0.0
 11
-21.20886899232807
 21
36.82979603617591
 31
0.0
210
0.0
220
0.0
230
1.0
 40
0.5780931159156397
 41
4.629136080944567
 42
4.79950929667088
  0
SPLINE
  5
1F3
330
6C
100
AcDbEntity
  8
Visible (ISO)
100
AcDbSpline
210
0.0
220
0.0
230
1.0
 70
     8
 71
     3
 72
     8
 73
     4
 74
     0
 42
0.0000000001
 43
0.0000000001
 40
-0.0438231200332123
 40
-0.0438231200332123
 40
-0.0438231200332123
 40
-0.0438231200332123
 40
0.0
 40
0.0
 40
0.0
 40
0.0
 10
239.1345850536226
 20
235.9095348038311
 30
0.0
 10
239.2759879347327
 20
235.879565987622
 30
0.0
 10
239.4174106106116
 20
235.8496533892326
 30
0.0
 10
239.5588491223345
 20
235.8197971677453
 30
0.0
  0
LINE
  5
1F4
330
6C
100
AcDbEntity
  8
Visible (ISO)
100
AcDbLine
 10
239.5588491223345
 20
235.8197971677453
 30
0.0
 11
239.5588491223346
 21
280.5986973777205
 31
0.0
  0
SPLINE
  5
1F5
330
6C
100
AcDbEntity
  8
Visible (ISO)
100
AcDbSpline
210
0.0
220
0.0
230
1.0
 70
     8
 71
     3
 72
     8
 73
     4
 74
     0
 42
0.0000000001
 43
0.0000000001
 40
-0.0438231200331159
 40
-0.0438231200331159
 40
-0.0438231200331159
 40
-0.0438231200331159
 40
0.0
 40
0.0
 40
0.0
 40
0.0
 10
235.6530482214022
 20
233.8891135750492
 30
0.0
 10
235.7496700676704
 20
233.8331572258047
 30
0.0
 10
235.8462531878246
 20
233.7772231332758
 30
0.0
 10
235.9427954648094
 20
233.7213125254276
 30
0.0
  0
ELLIPSE
  5
1F6
330
6C
100
AcDbEntity
  8
Visible (ISO)
100
AcDbEllipse
 10
216.5778787337749
 20
271.4431079709862
 30
0.0
 11
21.20886899232805
 21
-36.82979603617588
 31
0.0
210
0.0
220
0.0
230
1.0
 40
0.5780931159156396
 41
6.199932407739462
 42
6.370305623465773
  0
LINE
  5
1F7
330
6C
100
AcDbEntity
  8
Visible (ISO)
100
AcDbLine
 10
226.0708872898513
 20
239.4061663590314
 30
0.0
 11
235.9427954648094
 21
233.7213125254276
 31
0.0
  0
ELLIPSE
  5
1F8
330
6C
100
AcDbEntity
  8
Visible (ISO)
100
AcDbEllipse
 10
227.8208765546422
 20
277.917519820284
 30
0.0
 11
21.20886899232843
 21
-36.82979603617653
 31
0.0
210
0.0
220
0.0
230
1.0
 40
0.5780931159156393
 41
0.0
 42
0.087120316286188
  0
SPLINE
  5
1F9
330
6C
100
AcDbEntity
  8
Visible (ISO)
100
AcDbSpline
210
0.0
220
0.0
230
1.0
 70
    24
 71
     3
 72
     8
 73
     4
 74
     0
 42
0.0000000001
 43
0.0000000001
 40
-0.0438231200337178
 40
-0.0438231200337178
 40
-0.0438231200337178
 40
-0.0438231200337178
 40
0.0
 40
0.0
 40
0.0
 40
0.0
 10
250.8018469432024
 20
287.2276890192073
 30
0.0
 10
250.8018469432023
 20
287.1762293317763
 30
0.0
 10
250.8018469432023
 20
287.1247020274764
 30
0.0
 10
250.8018469432023
 20
287.0731092270176
 30
0.0
  0
LINE
  5
1FA
330
6C
100
AcDbEntity
  8
Visible (ISO)
100
AcDbLine
 10
250.8018469432023
 20
287.0731092270176
 30
0.0
 11
250.8018469432023
 21
242.2942090170425
 31
0.0
  0
SPLINE
  5
1FB
330
6C
100
AcDbEntity
  8
Visible (ISO)
100
AcDbSpline
210
0.0
220
0.0
230
1.0
 70
     8
 71
     3
 72
     8
 73
     4
 74
     0
 42
0.0000000001
 43
0.0000000001
 40
-0.0438231200328689
 40
-0.0438231200328689
 40
-0.0438231200328689
 40
-0.0438231200328689
 40
0.0
 40
0.0
 40
0.0
 40
0.0
 10
247.320310110982
 20
293.2578776924813
 30
0.0
 10
247.2755290761399
 20
293.2839809038774
 30
0.0
 10
247.2306895204147
 20
293.3101178593792
 30
0.0
 10
247.1857932856771
 20
293.3362874894898
 30
0.0
  0
ELLIPSE
  5
1FC
330
6C
100
AcDbEntity
  8
Visible (ISO)
100
AcDbEllipse
 10
227.8208765546426
 20
277.9175198202827
 30
0.0
 11
21.20886899232805
 21
-36.82979603617587
 31
0.0
210
0.0
220
0.0
230
1.0
 40
0.5780931159156394
 41
1.487543427354774
 42
1.657916643081085
  0
LINE
  5
1FD
330
6C
100
AcDbEntity
  8
Visible (ISO)
100
AcDbLine
 10
208.4559598236087
 20
315.639315265841
 30
0.0
 11
247.1857932856771
 21
293.3362874894898
 31
0.0
  0
ELLIPSE
  5
1FE
330
6C
100
AcDbEntity
  8
Visible (ISO)
100
AcDbEllipse
 10
227.8208765546441
 20
277.9175198202807
 30
0.0
 11
-21.20886899232894
 21
36.8297960361775
 31
0.0
210
0.0
220
0.0
230
1.0
 40
0.5780931159156393
 41
6.199932407739472
 42
6.283185307179591
  0
LINE
  5
1FF
330
6C
100
AcDbEntity
  8
Visible (ISO)
100
AcDbLine
 10
250.8018469432023
 20
242.2942090170425
 30
0.0
 11
239.5588491223345
 21
235.8197971677453
 31
0.0
  0
LINE
  5
200
330
6C
100
AcDbEntity
  8
Visible (ISO)
100
AcDbLine
 10
250.8018469432023
 20
287.0731092270176
 30
0.0
 11
239.5588491223346
 21
280.5986973777205
 31
0.0
  0
LINE
  5
201
330
6C
100
AcDbEntity
  8
Visible (ISO)
100
AcDbLine
 10
247.1857932856771
 20
293.3362874894898
 30
0.0
 11
235.9427954648094
 21
286.8618756401927
 31
0.0
  0
LINE
  5
202
330
6C
100
AcDbEntity
  8
Visible (ISO)
100
AcDbLine
 10
208.4559598236087
 20
315.639315265841
 30
0.0
 11
197.2129620027409
 21
309.1649034165438
 31
0.0
  0
LINE
  5
203
330
6C
100
AcDbEntity
  8
Visible (ISO)
100
AcDbLine
 10
249.0297455469707
 20
241.0877237841075
 30
0.0
 11
237.7867477261029
 21
234.6133119348103
 31
0.0
  0
LINE
  5
204
330
6C
100
AcDbEntity
  8
Visible (ISO)
100
AcDbLine
 10
206.6120075623151
 20
314.7473158564582
 30
0.0
 11
195.3690097414473
 21
308.272904007161
 31
0.0
  0
ELLIPSE
  5
205
330
6C
100
AcDbEntity
  8
Visible (ISO)
100
AcDbEllipse
 10
228.3865619795899
 20
296.6727993701104
 30
0.0
 11
-3.863999999999999
 21
0.0000000000002309
 31
0.0
210
0.0
220
0.0
230
1.0
 40
0.5758617009853117
 41
0.0
 42
6.283185307179586
  0
ELLIPSE
  5
206
330
6C
100
AcDbEntity
  8
Visible (ISO)
100
AcDbEllipse
 10
228.3865619795899
 20
295.85565114606
 30
0.0
 11
-4.832765247622278
 21
0.0000000000000014
 31
0.0
210
0.0
220
0.0
230
1.0
 40
0.5758617009853118
 41
5.531721013547661
 42
10.1762422544013
  0
LINE
  5
207
330
6C
100
AcDbEntity
  8
Visible (ISO)
100
AcDbLine
 10
231.2099480063113
 20
298.1919163534543
 30
0.0
 11
231.9178150516814
 21
297.7556345218823
 31
0.0
  0
LINE
  5
208
330
6C
100
AcDbEntity
  8
Visible (ISO)
100
AcDbLine
 10
225.5631759528686
 20
298.1919163534543
 30
0.0
 11
224.8553089074985
 21
297.7556345218823
 31
0.0
  0
LINE
  5
209
330
6C
100
AcDbEntity
  8
Visible (ISO)
100
AcDbLine
 10
225.5981743004638
 20
296.242546473057
 30
0.0
 11
226.3453205272709
 21
297.8482721449649
 31
0.0
  0
LINE
  5
20A
330
6C
100
AcDbEntity
  8
Visible (ISO)
100
AcDbLine
 10
226.3453205272709
 20
297.8482721449649
 30
0.0
 11
229.1337082063971
 21
298.2785250420184
 31
0.0
  0
LINE
  5
20B
330
6C
100
AcDbEntity
  8
Visible (ISO)
100
AcDbLine
 10
229.1337082063971
 20
298.2785250420184
 30
0.0
 11
231.1749496587161
 21
297.1030522671638
 31
0.0
  0
LINE
  5
20C
330
6C
100
AcDbEntity
  8
Visible (ISO)
100
AcDbLine
 10
231.1749496587161
 20
297.1030522671638
 30
0.0
 11
230.427803431909
 21
295.4973265952559
 31
0.0
  0
LINE
  5
20D
330
6C
100
AcDbEntity
  8
Visible (ISO)
100
AcDbLine
 10
230.427803431909
 20
295.4973265952559
 30
0.0
 11
227.6394157527828
 21
295.0670736982025
 31
0.0
  0
LINE
  5
20E
330
6C
100
AcDbEntity
  8
Visible (ISO)
100
AcDbLine
 10
227.6394157527828
 20
295.0670736982025
 30
0.0
 11
225.5981743004638
 21
296.242546473057
 31
0.0
  0
LINE
  5
20F
330
6C
100
AcDbEntity
  8
Visible (ISO)
100
AcDbLine
 10
226.3453205272709
 20
295.812293576003
 30
0.0
 11
226.3453205272709
 21
297.8482721449649
 31
0.0
  0
SPLINE
  5
210
330
6C
100
AcDbEntity
  8
Visible (ISO)
100
AcDbSpline
210
0.0
220
0.0
230
1.0
 70
    12
 71
     2
 72
     6
 73
     3
 74
     0
 42
0.0000000001
 43
0.0000000001
 40
0.0
 40
0.0
 40
0.0
 40
0.058103514446059
 40
0.058103514446059
 40
0.058103514446059
 10
229.1337082063971
 20
295.4171101050695
 30
0.0
 41
1.0
 10
228.8230466446883
 20
295.2932702859779
 30
0.0
 41
1.030771540432901
 10
228.539622449545
 20
295.2059771018176
 30
0.0
 41
1.049301524236021
  0
LINE
  5
211
330
6C
100
AcDbEntity
  8
Visible (ISO)
100
AcDbLine
 10
229.1337082063971
 20
295.4171101050695
 30
0.0
 11
229.1337082063971
 21
298.2785250420184
 31
0.0
  0
SPLINE
  5
212
330
6C
100
AcDbEntity
  8
Visible (ISO)
100
AcDbSpline
210
0.0
220
0.0
230
1.0
 70
    12
 71
     2
 72
     6
 73
     3
 74
     0
 42
0.0000000001
 43
0.0000000001
 40
0.2777031406804476
 40
0.2777031406804476
 40
0.2777031406804476
 40
0.2921090345194801
 40
0.2921090345194801
 40
0.2921090345194801
 10
229.2475299622281
 20
295.3152084187029
 30
0.0
 41
1.014506172702379
 10
229.1913885936131
 20
295.3646426453115
 30
0.0
 41
1.007629341339608
 10
229.1337082063971
 20
295.4171101050695
 30
0.0
 41
1.0
  0
LINE
  5
213
330
6C
100
AcDbEntity
  8
Visible (ISO)
100
AcDbLine
 10
223.5549829011242
 20
295.7939935211619
 30
0.0
 11
223.5549676571962
 21
295.7943922286791
 31
0.0
  0
LINE
  5
214
330
6C
100
AcDbEntity
  8
Visible (ISO)
100
AcDbLine
 10
233.2181410580557
 20
295.7939935211619
 30
0.0
 11
233.2181563019837
 21
295.7943922286791
 31
0.0
  0
CIRCLE
  5
215
330
6C
100
AcDbEntity
  8
Visible Narrow (ISO)
100
AcDbCircle
 10
174.9999999999875
 20
123.75
 30
0.0
 40
17.29289321881345
  0
CIRCLE
  5
216
330
6C
100
AcDbEntity
  8
Visible Narrow (ISO)
100
AcDbCircle
 10
174.9999999999876
 20
123.75
 30
0.0
 40
17.64644660940673
  0
CIRCLE
  5
217
330
6C
100
AcDbEntity
  8
Visible Narrow (ISO)
100
AcDbCircle
 10
174.9999999999879
 20
123.75
 30
0.0
 40
18.70710678118656
  0
CIRCLE
  5
218
330
6C
100
AcDbEntity
  8
Visible Narrow (ISO)
100
AcDbCircle
 10
174.999999999988
 20
123.75
 30
0.0
 40
19.4142135623731
  0
CIRCLE
  5
219
330
6C
100
AcDbEntity
  8
Visible (ISO)
100
AcDbCircle
 10
174.9999999999875
 20
123.75
 30
0.0
 40
16.57735026918962
  0
CIRCLE
  5
21A
330
6C
100
AcDbEntity
  8
Visible (ISO)
100
AcDbCircle
 10
174.9999999999878
 20
123.75
 30
0.0
 40
16.0
  0
CIRCLE
  5
21B
330
6C
100
AcDbEntity
  8
Visible Narrow (ISO)
100
AcDbCircle
 10
174.999999999988
 20
123.75
 30
0.0
 40
29.0
  0
CIRCLE
  5
21C
330
6C
100
AcDbEntity
  8
Visible (ISO)
100
AcDbCircle
 10
174.9999999999886
 20
123.75
 30
0.0
 40
31.00000000000001
  0
CIRCLE
  5
21D
330
6C
100
AcDbEntity
  8
Visible (ISO)
100
AcDbCircle
 10
143.1801948465979
 20
155.5698051533946
 30
0.0
 40
2.458499999999999
  0
CIRCLE
  5
21E
330
6C
100
AcDbEntity
  8
Visible (ISO)
100
AcDbCircle
 10
143.1801948465979
 20
91.93019484660537
 30
0.0
 40
2.458499999999999
  0
CIRCLE
  5
21F
330
6C
100
AcDbEntity
  8
Visible (ISO)
100
AcDbCircle
 10
206.8198051533872
 20
91.93019484660537
 30
0.0
 40
2.458499999999999
  0
CIRCLE
  5
220
330
6C
100
AcDbEntity
  8
Visible Narrow (ISO)
100
AcDbCircle
 10
143.1801948465979
 20
155.5698051533946
 30
0.0
 40
3.0
  0
CIRCLE
  5
221
330
6C
100
AcDbEntity
  8
Visible Narrow (ISO)
100
AcDbCircle
 10
143.1801948465979
 20
91.93019484660537
 30
0.0
 40
3.0
  0
CIRCLE
  5
222
330
6C
100
AcDbEntity
  8
Visible Narrow (ISO)
100
AcDbCircle
 10
206.8198051533872
 20
91.93019484660537
 30
0.0
 40
3.0
  0
CIRCLE
  5
223
330
6C
100
AcDbEntity
  8
Visible (ISO)
100
AcDbCircle
 10
206.8198051533872
 20
155.5698051533946
 30
0.0
 40
2.458499999999999
  0
CIRCLE
  5
224
330
6C
100
AcDbEntity
  8
Visible Narrow (ISO)
100
AcDbCircle
 10
174.9999999999917
 20
123.75
 30
0.0
 40
33.00000000000001
  0
CIRCLE
  5
225
330
6C
100
AcDbEntity
  8
Visible (ISO)
100
AcDbCircle
 10
174.9999999999917
 20
123.75
 30
0.0
 40
34.5
  0
CIRCLE
  5
226
330
6C
100
AcDbEntity
  8
Visible (ISO)
100
AcDbCircle
 10
174.9999999999918
 20
123.75
 30
0.0
 40
35.0
  0
CIRCLE
  5
227
330
6C
100
AcDbEntity
  8
Visible Narrow (ISO)
100
AcDbCircle
 10
174.9999999999926
 20
123.75
 30
0.0
 40
35.40000000000001
  0
LINE
  5
228
330
6C
100
AcDbEntity
  8
Visible (ISO)
100
AcDbLine
 10
140.9999999999925
 20
162.25
 30
0.0
 11
208.9999999999926
 21
162.25
 31
0.0
  0
ARC
  5
229
330
6C
100
AcDbEntity
  8
Visible (ISO)
100
AcDbCircle
 10
140.9999999999925
 20
157.75
 30
0.0
 40
4.499999999999997
100
AcDbArc
 50
89.99999999999971
 51
180.0
  0
LINE
  5
22A
330
6C
100
AcDbEntity
  8
Visible (ISO)
100
AcDbLine
 10
136.4999999999926
 20
89.74999999999999
 30
0.0
 11
136.4999999999926
 21
157.75
 31
0.0
  0
ARC
  5
22B
330
6C
100
AcDbEntity
  8
Visible (ISO)
100
AcDbCircle
 10
140.9999999999925
 20
89.74999999999999
 30
0.0
 40
4.499999999999997
100
AcDbArc
 50
180.0
 51
270.0
  0
LINE
  5
22C
330
6C
100
AcDbEntity
  8
Visible (ISO)
100
AcDbLine
 10
208.9999999999926
 20
85.25
 30
0.0
 11
140.9999999999925
 21
85.25
 31
0.0
  0
ARC
  5
22D
330
6C
100
AcDbEntity
  8
Visible (ISO)
100
AcDbCircle
 10
208.9999999999926
 20
89.74999999999999
 30
0.0
 40
4.499999999999997
100
AcDbArc
 50
270.0
 51
0.0
  0
LINE
  5
22E
330
6C
100
AcDbEntity
  8
Visible (ISO)
100
AcDbLine
 10
213.4999999999926
 20
157.75
 30
0.0
 11
213.4999999999926
 21
89.74999999999999
 31
0.0
  0
ARC
  5
22F
330
6C
100
AcDbEntity
  8
Visible (ISO)
100
AcDbCircle
 10
208.9999999999926
 20
157.75
 30
0.0
 40
4.499999999999997
100
AcDbArc
 50
0.0
 51
90.0
  0
LINE
  5
230
330
6C
100
AcDbEntity
  8
Visible Narrow (ISO)
100
AcDbLine
 10
140.9999999999927
 20
162.75
 30
0.0
 11
140.9999999999925
 21
162.25
 31
0.0
  0
LINE
  5
231
330
6C
100
AcDbEntity
  8
Visible Narrow (ISO)
100
AcDbLine
 10
208.9999999999926
 20
162.25
 30
0.0
 11
208.9999999999927
 21
162.75
 31
0.0
  0
LINE
  5
232
330
6C
100
AcDbEntity
  8
Visible (ISO)
100
AcDbLine
 10
208.9999999999927
 20
162.75
 30
0.0
 11
140.9999999999927
 21
162.75
 31
0.0
  0
LINE
  5
233
330
6C
100
AcDbEntity
  8
Visible Narrow (ISO)
100
AcDbLine
 10
213.4999999999926
 20
157.75
 30
0.0
 11
213.9999999999927
 21
157.75
 31
0.0
  0
ARC
  5
234
330
6C
100
AcDbEntity
  8
Visible (ISO)
100
AcDbCircle
 10
208.9999999999927
 20
157.75
 30
0.0
 40
4.999999999999991
100
AcDbArc
 50
0.0
 51
90.00000000000047
  0
LINE
  5
235
330
6C
100
AcDbEntity
  8
Visible Narrow (ISO)
100
AcDbLine
 10
213.4999999999926
 20
89.74999999999999
 30
0.0
 11
213.9999999999927
 21
89.74999999999999
 31
0.0
  0
LINE
  5
236
330
6C
100
AcDbEntity
  8
Visible (ISO)
100
AcDbLine
 10
213.9999999999927
 20
89.74999999999999
 30
0.0
 11
213.9999999999927
 21
157.75
 31
0.0
  0
LINE
  5
237
330
6C
100
AcDbEntity
  8
Visible Narrow (ISO)
100
AcDbLine
 10
208.9999999999926
 20
85.25
 30
0.0
 11
208.9999999999927
 21
84.74999999999999
 31
0.0
  0
ARC
  5
238
330
6C
100
AcDbEntity
  8
Visible (ISO)
100
AcDbCircle
 10
208.9999999999927
 20
89.74999999999999
 30
0.0
 40
4.999999999999991
100
AcDbArc
 50
270.0
 51
0.0
  0
LINE
  5
239
330
6C
100
AcDbEntity
  8
Visible Narrow (ISO)
100
AcDbLine
 10
140.9999999999925
 20
85.25
 30
0.0
 11
140.9999999999927
 21
84.74999999999999
 31
0.0
  0
LINE
  5
23A
330
6C
100
AcDbEntity
  8
Visible (ISO)
100
AcDbLine
 10
140.9999999999927
 20
84.74999999999999
 30
0.0
 11
208.9999999999927
 21
84.74999999999999
 31
0.0
  0
LINE
  5
23B
330
6C
100
AcDbEntity
  8
Visible Narrow (ISO)
100
AcDbLine
 10
136.4999999999926
 20
89.74999999999999
 30
0.0
 11
135.9999999999927
 21
89.74999999999999
 31
0.0
  0
ARC
  5
23C
330
6C
100
AcDbEntity
  8
Visible (ISO)
100
AcDbCircle
 10
140.9999999999927
 20
89.74999999999999
 30
0.0
 40
4.999999999999991
100
AcDbArc
 50
180.0
 51
270.0000000000002
  0
LINE
  5
23D
330
6C
100
AcDbEntity
  8
Visible Narrow (ISO)
100
AcDbLine
 10
136.4999999999926
 20
157.75
 30
0.0
 11
135.9999999999927
 21
157.75
 31
0.0
  0
LINE
  5
23E
330
6C
100
AcDbEntity
  8
Visible (ISO)
100
AcDbLine
 10
135.9999999999927
 20
157.75
 30
0.0
 11
135.9999999999927
 21
89.74999999999999
 31
0.0
  0
ARC
  5
23F
330
6C
100
AcDbEntity
  8
Visible (ISO)
100
AcDbCircle
 10
140.9999999999927
 20
157.75
 30
0.0
 40
4.999999999999991
100
AcDbArc
 50
90.0
 51
180.0
  0
CIRCLE
  5
240
330
6C
100
AcDbEntity
  8
Visible Narrow (ISO)
100
AcDbCircle
 10
206.8198051533872
 20
155.5698051533946
 30
0.0
 40
3.0
  0
CIRCLE
  5
241
330
6C
100
AcDbEntity
  8
Visible (ISO)
100
AcDbCircle
 10
174.9999999999875
 20
123.75
 30
0.0
 40
11.57735026918963
  0
CIRCLE
  5
242
330
6C
100
AcDbEntity
  8
Visible (ISO)
100
AcDbCircle
 10
174.9999999999875
 20
123.75
 30
0.0
 40
15.42264973081037
  0
CIRCLE
  5
243
330
6C
100
AcDbEntity
  8
Visible (ISO)
100
AcDbCircle
 10
174.9999999999878
 20
123.75
 30
0.0
 40
16.0
  0
CIRCLE
  5
244
330
6C
100
AcDbEntity
  8
Visible (ISO)
100
AcDbCircle
 10
174.9999999999777
 20
123.75
 30
0.0
 40
3.749999999999999
  0
CIRCLE
  5
245
330
6C
100
AcDbEntity
  8
Visible (ISO)
100
AcDbCircle
 10
174.9999999999784
 20
123.75
 30
0.0
 40
2.458499999999999
  0
CIRCLE
  5
246
330
6C
100
AcDbEntity
  8
Visible Narrow (ISO)
100
AcDbCircle
 10
174.9999999999866
 20
123.75
 30
0.0
 40
9.900000000000002
  0
CIRCLE
  5
247
330
6C
100
AcDbEntity
  8
Visible (ISO)
100
AcDbCircle
 10
174.9999999999866
 20
123.75
 30
0.0
 40
10.6360297657338
  0
CIRCLE
  5
248
330
6C
100
AcDbEntity
  8
Visible (ISO)
100
AcDbCircle
 10
174.9999999999869
 20
123.75
 30
0.0
 40
11.0
  0
CIRCLE
  5
249
330
6C
100
AcDbEntity
  8
Visible (ISO)
100
AcDbCircle
 10
174.999999999978
 20
123.75
 30
0.0
 40
9.500000000000001
  0
CIRCLE
  5
24A
330
6C
100
AcDbEntity
  8
Visible Narrow (ISO)
100
AcDbCircle
 10
174.9999999999777
 20
123.75
 30
0.0
 40
8.500000000000001
  0
CIRCLE
  5
24B
330
6C
100
AcDbEntity
  8
Visible Narrow (ISO)
100
AcDbCircle
 10
174.9999999999781
 20
123.75
 30
0.0
 40
3.0
  0
LINE
  5
24C
330
6C
100
AcDbEntity
  8
Visible (ISO)
100
AcDbLine
 10
308.0
 20
230.2071067811866
 30
0.0
 11
308.0
 21
264.7928932188134
 31
0.0
  0
LINE
  5
24D
330
6C
100
AcDbEntity
  8
Visible Narrow (ISO)
100
AcDbLine
 10
308.1464466094067
 20
265.1464466094067
 30
0.0
 11
308.1464466094067
 21
229.8535533905933
 31
0.0
  0
ARC
  5
24E
330
6C
100
AcDbEntity
  8
Visible (ISO)
100
AcDbCircle
 10
308.4999999999999
 20
230.2071067811866
 30
0.0
 40
0.5000000000000001
100
AcDbArc
 50
180.0
 51
225.0
  0
ARC
  5
24F
330
6C
100
AcDbEntity
  8
Visible (ISO)
100
AcDbCircle
 10
308.4999999999999
 20
264.7928932188134
 30
0.0
 40
0.5000000000000001
100
AcDbArc
 50
135.0
 51
180.0
  0
LINE
  5
250
330
6C
100
AcDbEntity
  8
Visible Narrow (ISO)
100
AcDbLine
 10
309.2071067811866
 20
228.7928932188135
 30
0.0
 11
309.2071067811866
 21
266.2071067811865
 31
0.0
  0
ARC
  5
251
330
6C
100
AcDbEntity
  8
Visible (ISO)
100
AcDbCircle
 10
308.5
 20
228.0857864376269
 30
0.0
 40
1.0
100
AcDbArc
 50
0.0
 51
44.99999999999999
  0
ARC
  5
252
330
6C
100
AcDbEntity
  8
Visible (ISO)
100
AcDbCircle
 10
308.5
 20
266.9142135623731
 30
0.0
 40
1.0
100
AcDbArc
 50
315.0
 51
0.0
  0
LINE
  5
253
330
6C
100
AcDbEntity
  8
Visible (ISO)
100
AcDbLine
 10
309.5
 20
218.5
 30
0.0
 11
309.5
 21
276.5
 31
0.0
  0
LINE
  5
254
330
6C
100
AcDbEntity
  8
Visible Narrow (ISO)
100
AcDbLine
 10
311.5
 20
278.5
 30
0.0
 11
311.5
 21
216.5
 31
0.0
  0
ARC
  5
255
330
6C
100
AcDbEntity
  8
Visible (ISO)
100
AcDbCircle
 10
311.5
 20
218.5
 30
0.0
 40
2.0
100
AcDbArc
 50
180.0
 51
270.0
  0
ARC
  5
256
330
6C
100
AcDbEntity
  8
Visible (ISO)
100
AcDbCircle
 10
311.5
 20
276.5
 30
0.0
 40
2.0
100
AcDbArc
 50
90.0
 51
180.0
  0
LINE
  5
257
330
6C
100
AcDbEntity
  8
Visible Narrow (ISO)
100
AcDbLine
 10
320.0
 20
216.5
 30
0.0
 11
320.0
 21
278.5
 31
0.0
  0
ARC
  5
258
330
6C
100
AcDbEntity
  8
Visible (ISO)
100
AcDbCircle
 10
320.0
 20
214.5
 30
0.0
 40
2.0
100
AcDbArc
 50
0.0
 51
90.0
  0
ARC
  5
259
330
6C
100
AcDbEntity
  8
Visible (ISO)
100
AcDbCircle
 10
320.0
 20
280.5
 30
0.0
 40
2.0
100
AcDbArc
 50
270.0
 51
0.0
  0
LINE
  5
25A
330
6C
100
AcDbEntity
  8
Visible (ISO)
100
AcDbLine
 10
322.0
 20
213.0
 30
0.0
 11
322.0
 21
282.0
 31
0.0
  0
LINE
  5
25B
330
6C
100
AcDbEntity
  8
Visible (ISO)
100
AcDbLine
 10
322.5
 20
282.5
 30
0.0
 11
322.5
 21
212.5
 31
0.0
  0
LINE
  5
25C
330
6C
100
AcDbEntity
  8
Visible (ISO)
100
AcDbLine
 10
322.0
 20
282.0
 30
0.0
 11
322.5
 21
282.5
 31
0.0
  0
LINE
  5
25D
330
6C
100
AcDbEntity
  8
Visible (ISO)
100
AcDbLine
 10
322.0
 20
213.0
 30
0.0
 11
322.5
 21
212.5
 31
0.0
  0
LINE
  5
25E
330
6C
100
AcDbEntity
  8
Visible Narrow (ISO)
100
AcDbLine
 10
324.5999999999999
 20
212.5
 30
0.0
 11
324.5999999999999
 21
282.5
 31
0.0
  0
ARC
  5
25F
330
6C
100
AcDbEntity
  8
Visible (ISO)
100
AcDbCircle
 10
324.5999999999999
 20
212.1
 30
0.0
 40
0.4000000000000001
100
AcDbArc
 50
0.0
 51
90.0
  0
ARC
  5
260
330
6C
100
AcDbEntity
  8
Visible (ISO)
100
AcDbCircle
 10
324.5999999999999
 20
282.9
 30
0.0
 40
0.4000000000000001
100
AcDbArc
 50
270.0
 51
0.0
  0
LINE
  5
261
330
6C
100
AcDbEntity
  8
Visible (ISO)
100
AcDbLine
 10
325.0
 20
281.5000000000114
 30
0.0
 11
325.0
 21
213.5000000000114
 31
0.0
  0
LINE
  5
262
330
6C
100
AcDbEntity
  8
Visible (ISO)
100
AcDbLine
 10
325.0
 20
281.5000000000114
 30
0.0
 11
325.0
 21
286.0000000000101
 31
0.0
  0
LINE
  5
263
330
6C
100
AcDbEntity
  8
Visible (ISO)
100
AcDbLine
 10
325.0
 20
209.0000000000101
 30
0.0
 11
325.0
 21
213.5000000000114
 31
0.0
  0
LINE
  5
264
330
6C
100
AcDbEntity
  8
Visible Narrow (ISO)
100
AcDbLine
 10
325.5
 20
281.5000000000116
 30
0.0
 11
325.0
 21
281.5000000000114
 31
0.0
  0
LINE
  5
265
330
6C
100
AcDbEntity
  8
Visible Narrow (ISO)
100
AcDbLine
 10
325.0
 20
213.5000000000114
 30
0.0
 11
325.5
 21
213.5000000000116
 31
0.0
  0
LINE
  5
266
330
6C
100
AcDbEntity
  8
Visible (ISO)
100
AcDbLine
 10
325.5
 20
213.5000000000116
 30
0.0
 11
325.5
 21
281.5000000000116
 31
0.0
  0
LINE
  5
267
330
6C
100
AcDbEntity
  8
Visible (ISO)
100
AcDbLine
 10
325.0
 20
209.0000000000101
 30
0.0
 11
325.5
 21
208.5000000000101
 31
0.0
  0
LINE
  5
268
330
6C
100
AcDbEntity
  8
Visible (ISO)
100
AcDbLine
 10
325.5
 20
213.5000000000116
 30
0.0
 11
325.5
 21
208.5000000000101
 31
0.0
  0
LINE
  5
269
330
6C
100
AcDbEntity
  8
Visible (ISO)
100
AcDbLine
 10
325.0
 20
286.0000000000101
 30
0.0
 11
325.5
 21
286.5000000000101
 31
0.0
  0
LINE
  5
26A
330
6C
100
AcDbEntity
  8
Visible (ISO)
100
AcDbLine
 10
325.5
 20
286.5000000000101
 30
0.0
 11
325.5
 21
281.5000000000116
 31
0.0
  0
LINE
  5
26B
330
6C
100
AcDbEntity
  8
Visible (ISO)
100
AcDbLine
 10
359.2
 20
286.5000000000101
 30
0.0
 11
325.5
 21
286.5000000000101
 31
0.0
  0
LINE
  5
26C
330
6C
100
AcDbEntity
  8
Visible Narrow (ISO)
100
AcDbLine
 10
359.2
 20
281.5000000000116
 30
0.0
 11
325.5
 21
281.5000000000116
 31
0.0
  0
LINE
  5
26D
330
6C
100
AcDbEntity
  8
Visible Narrow (ISO)
100
AcDbLine
 10
359.2
 20
213.5000000000116
 30
0.0
 11
325.5
 21
213.5000000000116
 31
0.0
  0
LINE
  5
26E
330
6C
100
AcDbEntity
  8
Visible (ISO)
100
AcDbLine
 10
359.2
 20
208.5000000000101
 30
0.0
 11
325.5
 21
208.5000000000101
 31
0.0
  0
LINE
  5
26F
330
6C
100
AcDbEntity
  8
Visible (ISO)
100
AcDbLine
 10
359.2
 20
281.5000000000117
 30
0.0
 11
359.2
 21
286.5000000000101
 31
0.0
  0
LINE
  5
270
330
6C
100
AcDbEntity
  8
Visible (ISO)
100
AcDbLine
 10
359.2
 20
281.5000000000116
 30
0.0
 11
359.2
 21
213.5000000000116
 31
0.0
  0
LINE
  5
271
330
6C
100
AcDbEntity
  8
Visible Narrow (ISO)
100
AcDbLine
 10
359.2
 20
213.5000000000116
 30
0.0
 11
359.5
 21
213.5000000000115
 31
0.0
  0
LINE
  5
272
330
6C
100
AcDbEntity
  8
Visible (ISO)
100
AcDbLine
 10
359.5
 20
213.5000000000115
 30
0.0
 11
359.5
 21
281.5000000000115
 31
0.0
  0
LINE
  5
273
330
6C
100
AcDbEntity
  8
Visible Narrow (ISO)
100
AcDbLine
 10
359.5
 20
281.5000000000115
 30
0.0
 11
359.2
 21
281.5000000000116
 31
0.0
  0
LINE
  5
274
330
6C
100
AcDbEntity
  8
Visible (ISO)
100
AcDbLine
 10
359.5
 20
286.2000000000101
 30
0.0
 11
359.2
 21
286.5000000000101
 31
0.0
  0
LINE
  5
275
330
6C
100
AcDbEntity
  8
Visible (ISO)
100
AcDbLine
 10
359.5
 20
286.2000000000102
 30
0.0
 11
359.5
 21
281.5000000000115
 31
0.0
  0
LINE
  5
276
330
6C
100
AcDbEntity
  8
Visible (ISO)
100
AcDbLine
 10
359.5
 20
208.8000000000101
 30
0.0
 11
359.2
 21
208.5000000000101
 31
0.0
  0
LINE
  5
277
330
6C
100
AcDbEntity
  8
Visible (ISO)
100
AcDbLine
 10
359.2
 20
208.5000000000101
 30
0.0
 11
359.2
 21
213.5000000000116
 31
0.0
  0
LINE
  5
278
330
6C
100
AcDbEntity
  8
Visible (ISO)
100
AcDbLine
 10
359.5
 20
213.5000000000115
 30
0.0
 11
359.5
 21
208.8000000000101
 31
0.0
  0
LINE
  5
279
330
6C
100
AcDbEntity
  8
Visible (ISO)
100
AcDbLine
 10
308.1464466094067
 20
265.1464466094067
 30
0.0
 11
309.2071067811866
 21
266.2071067811865
 31
0.0
  0
LINE
  5
27A
330
6C
100
AcDbEntity
  8
Visible (ISO)
100
AcDbLine
 10
308.1464466094067
 20
229.8535533905933
 30
0.0
 11
309.2071067811866
 21
228.7928932188135
 31
0.0
  0
LINE
  5
27B
330
6C
100
AcDbEntity
  8
Visible (ISO)
100
AcDbLine
 10
320.0
 20
216.5
 30
0.0
 11
311.5
 21
216.5
 31
0.0
  0
LINE
  5
27C
330
6C
100
AcDbEntity
  8
Visible (ISO)
100
AcDbLine
 10
320.0
 20
278.5
 30
0.0
 11
311.5
 21
278.5
 31
0.0
  0
LINE
  5
27D
330
6C
100
AcDbEntity
  8
Visible (ISO)
100
AcDbLine
 10
324.5999999999999
 20
212.5
 30
0.0
 11
322.5
 21
212.5
 31
0.0
  0
LINE
  5
27E
330
6C
100
AcDbEntity
  8
Visible (ISO)
100
AcDbLine
 10
324.5999999999999
 20
282.5
 30
0.0
 11
322.5
 21
282.5
 31
0.0
  0
LINE
  5
27F
330
6C
100
AcDbEntity
  8
Visible Narrow (ISO)
100
AcDbLine
 10
304.6
 20
238.0
 30
0.0
 11
304.6
 21
257.0
 31
0.0
  0
ARC
  5
280
330
6C
100
AcDbEntity
  8
Visible (ISO)
100
AcDbCircle
 10
304.6
 20
237.6
 30
0.0
 40
0.4000000000000001
100
AcDbArc
 50
0.0
 51
90.0
  0
ARC
  5
281
330
6C
100
AcDbEntity
  8
Visible (ISO)
100
AcDbCircle
 10
304.6
 20
257.4
 30
0.0
 40
0.4000000000000001
100
AcDbArc
 50
270.0
 51
0.0
  0
LINE
  5
282
330
6C
100
AcDbEntity
  8
Visible (ISO)
100
AcDbLine
 10
305.0
 20
236.8639702342662
 30
0.0
 11
305.0
 21
258.1360297657338
 31
0.0
  0
LINE
  5
283
330
6C
100
AcDbEntity
  8
Visible (ISO)
100
AcDbLine
 10
306.0
 20
258.5
 30
0.0
 11
306.0
 21
236.5
 31
0.0
  0
LINE
  5
284
330
6C
100
AcDbEntity
  8
Visible (ISO)
100
AcDbLine
 10
305.0
 20
258.1360297657338
 30
0.0
 11
306.0
 21
258.5
 31
0.0
  0
LINE
  5
285
330
6C
100
AcDbEntity
  8
Visible (ISO)
100
AcDbLine
 10
305.0
 20
236.8639702342662
 30
0.0
 11
306.0
 21
236.5
 31
0.0
  0
LINE
  5
286
330
6C
100
AcDbEntity
  8
Visible Narrow (ISO)
100
AcDbLine
 10
276.0
 20
257.0
 30
0.0
 11
276.0
 21
238.0
 31
0.0
  0
LINE
  5
287
330
6C
100
AcDbEntity
  8
Visible (ISO)
100
AcDbLine
 10
275.0
 20
239.0
 30
0.0
 11
275.0
 21
256.0
 31
0.0
  0
ARC
  5
288
330
6C
100
AcDbEntity
  8
Visible (ISO)
100
AcDbCircle
 10
276.0
 20
239.0
 30
0.0
 40
1.0
100
AcDbArc
 50
180.0
 51
270.0
  0
ARC
  5
289
330
6C
100
AcDbEntity
  8
Visible (ISO)
100
AcDbCircle
 10
276.0
 20
256.0
 30
0.0
 40
1.0
100
AcDbArc
 50
90.0
 51
180.0
  0
LINE
  5
28A
330
6C
100
AcDbEntity
  8
Visible (ISO)
100
AcDbLine
 10
304.6
 20
238.0
 30
0.0
 11
276.0
 21
238.0
 31
0.0
  0
LINE
  5
28B
330
6C
100
AcDbEntity
  8
Visible (ISO)
100
AcDbLine
 10
304.6
 20
257.0
 30
0.0
 11
276.0
 21
257.0
 31
0.0
  0
LINE
  5
28C
330
6C
100
AcDbEntity
  8
Visible (ISO)
100
AcDbLine
 10
308.0
 20
236.5
 30
0.0
 11
306.0
 21
236.5
 31
0.0
  0
LINE
  5
28D
330
6C
100
AcDbEntity
  8
Visible (ISO)
100
AcDbLine
 10
308.0
 20
258.5
 30
0.0
 11
306.0
 21
258.5
 31
0.0
  0
LINE
  5
28E
330
6C
100
AcDbEntity
  8
Visible Narrow (ISO)
100
AcDbLine
 10
382.5
 20
281.5000000000113
 30
0.0
 11
381.5
 21
281.5000000000117
 31
0.0
  0
LINE
  5
28F
330
6C
100
AcDbEntity
  8
Visible (ISO)
100
AcDbLine
 10
382.5
 20
285.5000000000101
 30
0.0
 11
382.5
 21
281.5000000000113
 31
0.0
  0
ARC
  5
290
330
6C
100
AcDbEntity
  8
Visible (ISO)
100
AcDbCircle
 10
381.5
 20
285.5000000000101
 30
0.0
 40
1.000000000000005
100
AcDbArc
 50
0.0
 51
89.99999999999745
  0
LINE
  5
291
330
6C
100
AcDbEntity
  8
Visible Narrow (ISO)
100
AcDbLine
 10
381.5
 20
281.5000000000116
 30
0.0
 11
381.5
 21
286.5000000000101
 31
0.0
  0
ARC
  5
292
330
6C
100
AcDbEntity
  8
Visible (ISO)
100
AcDbCircle
 10
381.5
 20
209.5000000000101
 30
0.0
 40
1.000000000000009
100
AcDbArc
 50
270.0000000000025
 51
0.0
  0
LINE
  5
293
330
6C
100
AcDbEntity
  8
Visible Narrow (ISO)
100
AcDbLine
 10
381.5
 20
213.5000000000116
 30
0.0
 11
382.5
 21
213.5000000000113
 31
0.0
  0
LINE
  5
294
330
6C
100
AcDbEntity
  8
Visible Narrow (ISO)
100
AcDbLine
 10
381.5
 20
208.5000000000101
 30
0.0
 11
381.5
 21
213.5000000000115
 31
0.0
  0
LINE
  5
295
330
6C
100
AcDbEntity
  8
Visible (ISO)
100
AcDbLine
 10
382.5
 20
213.5000000000113
 30
0.0
 11
382.5
 21
209.5000000000101
 31
0.0
  0
LINE
  5
296
330
6C
100
AcDbEntity
  8
Visible Narrow (ISO)
100
AcDbLine
 10
381.5
 20
281.5000000000116
 30
0.0
 11
381.5
 21
213.5000000000116
 31
0.0
  0
LINE
  5
297
330
6C
100
AcDbEntity
  8
Visible (ISO)
100
AcDbLine
 10
382.5
 20
213.5000000000113
 30
0.0
 11
382.5
 21
281.5000000000113
 31
0.0
  0
LINE
  5
298
330
6C
100
AcDbEntity
  8
Visible (ISO)
100
AcDbLine
 10
381.5
 20
208.5000000000101
 30
0.0
 11
359.8
 21
208.5000000000101
 31
0.0
  0
LINE
  5
299
330
6C
100
AcDbEntity
  8
Visible Narrow (ISO)
100
AcDbLine
 10
381.5
 20
213.5000000000116
 30
0.0
 11
359.8
 21
213.5000000000116
 31
0.0
  0
LINE
  5
29A
330
6C
100
AcDbEntity
  8
Visible Narrow (ISO)
100
AcDbLine
 10
381.5
 20
281.5000000000116
 30
0.0
 11
359.8
 21
281.5000000000116
 31
0.0
  0
LINE
  5
29B
330
6C
100
AcDbEntity
  8
Visible (ISO)
100
AcDbLine
 10
381.5
 20
286.5000000000101
 30
0.0
 11
359.8
 21
286.5000000000101
 31
0.0
  0
LINE
  5
29C
330
6C
100
AcDbEntity
  8
Visible (ISO)
100
AcDbLine
 10
359.8
 20
213.5000000000115
 30
0.0
 11
359.8
 21
208.5000000000101
 31
0.0
  0
LINE
  5
29D
330
6C
100
AcDbEntity
  8
Visible (ISO)
100
AcDbLine
 10
359.8
 20
213.5000000000116
 30
0.0
 11
359.8
 21
281.5000000000116
 31
0.0
  0
LINE
  5
29E
330
6C
100
AcDbEntity
  8
Visible (ISO)
100
AcDbLine
 10
359.8
 20
286.5000000000101
 30
0.0
 11
359.8
 21
281.5000000000116
 31
0.0
  0
LINE
  5
29F
330
6C
100
AcDbEntity
  8
Visible (ISO)
100
AcDbLine
 10
408.1999999999999
 20
215.0
 30
0.0
 11
408.1999999999999
 21
280.0
 31
0.0
  0
LINE
  5
2A0
330
6C
100
AcDbEntity
  8
Visible (ISO)
100
AcDbLine
 10
359.8
 20
208.5000000000101
 30
0.0
 11
359.5
 21
208.8000000000101
 31
0.0
  0
LINE
  5
2A1
330
6C
100
AcDbEntity
  8
Visible (ISO)
100
AcDbLine
 10
359.5
 20
286.2000000000102
 30
0.0
 11
359.8
 21
286.5000000000101
 31
0.0
  0
LINE
  5
2A2
330
6C
100
AcDbEntity
  8
Visible Narrow (ISO)
100
AcDbLine
 10
359.5
 20
281.5000000000115
 30
0.0
 11
359.8
 21
281.5000000000116
 31
0.0
  0
LINE
  5
2A3
330
6C
100
AcDbEntity
  8
Visible (ISO)
100
AcDbLine
 10
359.5
 20
281.5000000000115
 30
0.0
 11
359.5
 21
286.2000000000102
 31
0.0
  0
LINE
  5
2A4
330
6C
100
AcDbEntity
  8
Visible Narrow (ISO)
100
AcDbLine
 10
359.5
 20
213.5000000000115
 30
0.0
 11
359.8
 21
213.5000000000116
 31
0.0
  0
LINE
  5
2A5
330
6C
100
AcDbEntity
  8
Visible (ISO)
100
AcDbLine
 10
359.5
 20
281.5000000000115
 30
0.0
 11
359.5
 21
213.5000000000115
 31
0.0
  0
LINE
  5
2A6
330
6C
100
AcDbEntity
  8
Visible (ISO)
100
AcDbLine
 10
359.5
 20
208.80000000001
 30
0.0
 11
359.5
 21
213.5000000000115
 31
0.0
  0
LINE
  5
2A7
330
6C
100
AcDbEntity
  8
Visible (ISO)
100
AcDbLine
 10
408.4999999999999
 20
215.3
 30
0.0
 11
408.1999999999999
 21
215.0
 31
0.0
  0
LINE
  5
2A8
330
6C
100
AcDbEntity
  8
Visible (ISO)
100
AcDbLine
 10
408.4999999999999
 20
279.7
 30
0.0
 11
408.1999999999999
 21
280.0
 31
0.0
  0
LINE
  5
2A9
330
6C
100
AcDbEntity
  8
Visible Narrow (ISO)
100
AcDbLine
 10
384.5
 20
274.3198051534001
 30
0.0
 11
384.5
 21
220.6801948466108
 31
0.0
  0
LINE
  5
2AA
330
6C
100
AcDbEntity
  8
Visible (ISO)
100
AcDbLine
 10
408.1999999999999
 20
215.0
 30
0.0
 11
388.5
 21
215.0
 31
0.0
  0
LINE
  5
2AB
330
6C
100
AcDbEntity
  8
Visible (ISO)
100
AcDbLine
 10
408.1999999999999
 20
280.0
 30
0.0
 11
388.5
 21
280.0
 31
0.0
  0
LINE
  5
2AC
330
6C
100
AcDbEntity
  8
Visible (ISO)
100
AcDbLine
 10
388.5
 20
283.7198051534041
 30
0.0
 11
388.5
 21
274.9198051534041
 31
0.0
  0
LINE
  5
2AD
330
6C
100
AcDbEntity
  8
Visible Narrow (ISO)
100
AcDbLine
 10
387.9
 20
274.3198051534041
 30
0.0
 11
387.9
 21
284.3198051534041
 31
0.0
  0
ARC
  5
2AE
330
6C
100
AcDbEntity
  8
Visible (ISO)
100
AcDbCircle
 10
387.9
 20
283.7198051534041
 30
0.0
 40
0.6
100
AcDbArc
 50
0.0
 51
90.0
  0
ARC
  5
2AF
330
6C
100
AcDbEntity
  8
Visible (ISO)
100
AcDbCircle
 10
387.9
 20
274.9198051534041
 30
0.0
 40
0.6
100
AcDbArc
 50
270.0
 51
0.0
  0
LINE
  5
2B0
330
6C
100
AcDbEntity
  8
Visible (ISO)
100
AcDbLine
 10
387.9
 20
274.3198051534041
 30
0.0
 11
382.5
 21
274.3198051534041
 31
0.0
  0
LINE
  5
2B1
330
6C
100
AcDbEntity
  8
Visible (ISO)
100
AcDbLine
 10
387.9
 20
284.3198051534041
 30
0.0
 11
382.5
 21
284.3198051534041
 31
0.0
  0
LINE
  5
2B2
330
6C
100
AcDbEntity
  8
Visible (ISO)
100
AcDbLine
 10
388.5
 20
220.0801948466148
 30
0.0
 11
388.5
 21
211.2801948466148
 31
0.0
  0
LINE
  5
2B3
330
6C
100
AcDbEntity
  8
Visible Narrow (ISO)
100
AcDbLine
 10
387.9
 20
210.6801948466148
 30
0.0
 11
387.9
 21
220.6801948466148
 31
0.0
  0
ARC
  5
2B4
330
6C
100
AcDbEntity
  8
Visible (ISO)
100
AcDbCircle
 10
387.9
 20
220.0801948466148
 30
0.0
 40
0.6
100
AcDbArc
 50
0.0
 51
90.0
  0
ARC
  5
2B5
330
6C
100
AcDbEntity
  8
Visible (ISO)
100
AcDbCircle
 10
387.9
 20
211.2801948466148
 30
0.0
 40
0.6
100
AcDbArc
 50
270.0
 51
0.0
  0
LINE
  5
2B6
330
6C
100
AcDbEntity
  8
Visible (ISO)
100
AcDbLine
 10
387.9
 20
210.6801948466148
 30
0.0
 11
382.5
 21
210.6801948466148
 31
0.0
  0
LINE
  5
2B7
330
6C
100
AcDbEntity
  8
Visible (ISO)
100
AcDbLine
 10
387.9
 20
220.6801948466148
 30
0.0
 11
382.5
 21
220.6801948466148
 31
0.0
  0
LINE
  5
2B8
330
6C
100
AcDbEntity
  8
Visible (ISO)
100
AcDbLine
 10
425.0
 20
279.700000000008
 30
0.0
 11
425.0
 21
274.7763633939813
 31
0.0
  0
LINE
  5
2B9
330
6C
100
AcDbEntity
  8
Visible (ISO)
100
AcDbLine
 10
425.0
 20
220.2236366060378
 30
0.0
 11
425.0
 21
274.7763633939813
 31
0.0
  0
LINE
  5
2BA
330
6C
100
AcDbEntity
  8
Visible (ISO)
100
AcDbLine
 10
425.0
 20
220.2236366060378
 30
0.0
 11
425.0
 21
215.3000000000081
 31
0.0
  0
LINE
  5
2BB
330
6C
100
AcDbEntity
  8
Visible (ISO)
100
AcDbLine
 10
408.4999999999999
 20
215.3000000000081
 30
0.0
 11
408.4999999999999
 21
220.2236366060378
 31
0.0
  0
LINE
  5
2BC
330
6C
100
AcDbEntity
  8
Visible (ISO)
100
AcDbLine
 10
408.4999999999999
 20
274.7763633939813
 30
0.0
 11
408.4999999999999
 21
220.2236366060378
 31
0.0
  0
LINE
  5
2BD
330
6C
100
AcDbEntity
  8
Visible (ISO)
100
AcDbLine
 10
408.4999999999999
 20
274.7763633939813
 30
0.0
 11
408.4999999999999
 21
279.7000000000081
 31
0.0
  0
SPLINE
  5
2BE
330
6C
100
AcDbEntity
  8
Visible (ISO)
100
AcDbSpline
210
0.0
220
0.0
230
1.0
 70
    24
 71
     3
 72
     8
 73
     4
 74
     0
 42
0.0000000001
 43
0.0000000001
 40
-0.0438231200332123
 40
-0.0438231200332123
 40
-0.0438231200332123
 40
-0.0438231200332123
 40
0.0
 40
0.0
 40
0.0
 40
0.0
 10
408.4999999999999
 20
279.7000000000081
 30
0.0
 10
408.5999869361122
 20
279.7999869361203
 30
0.0
 10
408.6999878692397
 20
279.8999878692479
 30
0.0
 10
408.8
 20
280.0000000000082
 30
0.0
  0
SPLINE
  5
2BF
330
6C
100
AcDbEntity
  8
Visible (ISO)
100
AcDbSpline
210
0.0
220
0.0
230
1.0
 70
     8
 71
     3
 72
     8
 73
     4
 74
     0
 42
0.0000000001
 43
0.0000000001
 40
-0.0438231200331159
 40
-0.0438231200331159
 40
-0.0438231200331159
 40
-0.0438231200331159
 40
0.0
 40
0.0
 40
0.0
 40
0.0
 10
408.4999999999999
 20
274.7763633939813
 30
0.0
 10
408.5999869361123
 20
274.8130203832831
 30
0.0
 10
408.69998786924
 20
274.8496086085737
 30
0.0
 10
408.8
 20
274.886127875268
 30
0.0
  0
LINE
  5
2C0
330
6C
100
AcDbEntity
  8
Visible (ISO)
100
AcDbLine
 10
408.8
 20
280.0000000000082
 30
0.0
 11
408.8
 21
274.886127875268
 31
0.0
  0
SPLINE
  5
2C1
330
6C
100
AcDbEntity
  8
Visible (ISO)
100
AcDbSpline
210
0.0
220
0.0
230
1.0
 70
     8
 71
     3
 72
     8
 73
     4
 74
     0
 42
0.0000000001
 43
0.0000000001
 40
-0.0438231200310444
 40
-0.0438231200310444
 40
-0.0438231200310444
 40
-0.0438231200310444
 40
0.0
 40
0.0
 40
0.0
 40
0.0
 10
408.4999999999999
 20
220.2236366060378
 30
0.0
 10
408.5999869361146
 20
220.1869796167353
 30
0.0
 10
408.6999878692447
 20
220.1503913914439
 30
0.0
 10
408.8
 20
220.1138721247513
 30
0.0
  0
LINE
  5
2C2
330
6C
100
AcDbEntity
  8
Visible (ISO)
100
AcDbLine
 10
408.8
 20
220.1138721247513
 30
0.0
 11
408.8
 21
274.886127875268
 31
0.0
  0
SPLINE
  5
2C3
330
6C
100
AcDbEntity
  8
Visible (ISO)
100
AcDbSpline
210
0.0
220
0.0
230
1.0
 70
    24
 71
     3
 72
     8
 73
     4
 74
     0
 42
0.0000000001
 43
0.0000000001
 40
-0.0438231200309521
 40
-0.0438231200309521
 40
-0.0438231200309521
 40
-0.0438231200309521
 40
0.0
 40
0.0
 40
0.0
 40
0.0
 10
408.4999999999999
 20
215.3000000000081
 30
0.0
 10
408.5999869361147
 20
215.2000130638933
 30
0.0
 10
408.6999878692449
 20
215.1000121307632
 30
0.0
 10
408.8
 20
215.0000000000081
 30
0.0
  0
LINE
  5
2C4
330
6C
100
AcDbEntity
  8
Visible (ISO)
100
AcDbLine
 10
408.8
 20
220.1138721247513
 30
0.0
 11
408.8
 21
215.0000000000081
 31
0.0
  0
SPLINE
  5
2C5
330
6C
100
AcDbEntity
  8
Visible (ISO)
100
AcDbSpline
210
0.0
220
0.0
230
1.0
 70
    24
 71
     3
 72
     8
 73
     4
 74
     0
 42
0.0000000001
 43
0.0000000001
 40
-0.0438231202515215
 40
-0.0438231202515215
 40
-0.0438231202515215
 40
-0.0438231202515215
 40
0.0
 40
0.0
 40
0.0
 40
0.0
 10
424.6999999999999
 20
280.0000000000082
 30
0.0
 10
424.8000121307602
 20
279.8999878692479
 30
0.0
 10
424.9000130638878
 20
279.7999869361203
 30
0.0
 10
425.0
 20
279.7000000000081
 30
0.0
  0
SPLINE
  5
2C6
330
6C
100
AcDbEntity
  8
Visible (ISO)
100
AcDbSpline
210
0.0
220
0.0
230
1.0
 70
    24
 71
     3
 72
     8
 73
     4
 74
     0
 42
0.0000000001
 43
0.0000000001
 40
-0.0438231200337178
 40
-0.0438231200337178
 40
-0.0438231200337178
 40
-0.0438231200337178
 40
0.0
 40
0.0
 40
0.0
 40
0.0
 10
425.0
 20
215.3000000000081
 30
0.0
 10
424.9000130638883
 20
215.2000130638964
 30
0.0
 10
424.8000121307613
 20
215.1000121307695
 30
0.0
 10
424.6999999999999
 20
215.0000000000081
 30
0.0
  0
SPLINE
  5
2C7
330
6C
100
AcDbEntity
  8
Visible (ISO)
100
AcDbSpline
210
0.0
220
0.0
230
1.0
 70
     8
 71
     3
 72
     8
 73
     4
 74
     0
 42
0.0000000001
 43
0.0000000001
 40
-0.0438231200328689
 40
-0.0438231200328689
 40
-0.0438231200328689
 40
-0.0438231200328689
 40
0.0
 40
0.0
 40
0.0
 40
0.0
 10
425.0
 20
220.2236366060378
 30
0.0
 10
424.9000130638873
 20
220.186979616736
 30
0.0
 10
424.8000121307594
 20
220.1503913914454
 30
0.0
 10
424.6999999999999
 20
220.1138721247513
 30
0.0
  0
LINE
  5
2C8
330
6C
100
AcDbEntity
  8
Visible (ISO)
100
AcDbLine
 10
424.6999999999999
 20
215.0000000000082
 30
0.0
 11
424.6999999999999
 21
220.1138721247513
 31
0.0
  0
SPLINE
  5
2C9
330
6C
100
AcDbEntity
  8
Visible (ISO)
100
AcDbSpline
210
0.0
220
0.0
230
1.0
 70
     8
 71
     3
 72
     8
 73
     4
 74
     0
 42
0.0000000001
 43
0.0000000001
 40
-0.0438231200332337
 40
-0.0438231200332337
 40
-0.0438231200332337
 40
-0.0438231200332337
 40
0.0
 40
0.0
 40
0.0
 40
0.0
 10
425.0
 20
274.7763633939813
 30
0.0
 10
424.9000130638878
 20
274.8130203832831
 30
0.0
 10
424.8000121307602
 20
274.8496086085736
 30
0.0
 10
424.6999999999999
 20
274.886127875268
 30
0.0
  0
LINE
  5
2CA
330
6C
100
AcDbEntity
  8
Visible (ISO)
100
AcDbLine
 10
424.6999999999999
 20
274.886127875268
 30
0.0
 11
424.6999999999999
 21
220.1138721247513
 31
0.0
  0
LINE
  5
2CB
330
6C
100
AcDbEntity
  8
Visible (ISO)
100
AcDbLine
 10
424.6999999999999
 20
274.886127875268
 30
0.0
 11
424.6999999999999
 21
280.0000000000082
 31
0.0
  0
LINE
  5
2CC
330
6C
100
AcDbEntity
  8
Visible (ISO)
100
AcDbLine
 10
424.6999999999999
 20
280.0000000000082
 30
0.0
 11
408.8
 21
280.0000000000082
 31
0.0
  0
LINE
  5
2CD
330
6C
100
AcDbEntity
  8
Visible (ISO)
100
AcDbLine
 10
424.6999999999999
 20
215.0000000000081
 30
0.0
 11
408.8
 21
215.0000000000081
 31
0.0
  0
LINE
  5
2CE
330
6C
100
AcDbEntity
  8
Visible (ISO)
100
AcDbLine
 10
424.6999999999999
 20
220.1138721247513
 30
0.0
 11
408.8
 21
220.1138721247513
 31
0.0
  0
LINE
  5
2CF
330
6C
100
AcDbEntity
  8
Visible (ISO)
100
AcDbLine
 10
424.6999999999999
 20
274.886127875268
 30
0.0
 11
408.8
 21
274.886127875268
 31
0.0
  0
CIRCLE
  5
2D0
330
6C
100
AcDbEntity
  8
Visible Narrow (ISO)
100
AcDbCircle
 10
414.4999999999999
 20
236.5000000000097
 30
0.0
 40
4.845657006448431
  0
CIRCLE
  5
2D1
330
6C
100
AcDbEntity
  8
Visible (ISO)
100
AcDbCircle
 10
414.4999999999999
 20
236.50000000001
 30
0.0
 40
3.863999999999999
  0
CIRCLE
  5
2D2
330
6C
100
AcDbEntity
  8
Visible (ISO)
100
AcDbCircle
 10
414.4999999999999
 20
236.5000000000097
 30
0.0
 40
4.832765247622278
  0
LINE
  5
2D3
330
6C
100
AcDbEntity
  8
Visible (ISO)
100
AcDbLine
 10
411.9999999999999
 20
237.943375672984
 30
0.0
 11
414.4999999999999
 21
239.3867513459581
 31
0.0
  0
LINE
  5
2D4
330
6C
100
AcDbEntity
  8
Visible (ISO)
100
AcDbLine
 10
414.4999999999999
 20
239.3867513459581
 30
0.0
 11
417.0
 21
237.943375672984
 31
0.0
  0
LINE
  5
2D5
330
6C
100
AcDbEntity
  8
Visible (ISO)
100
AcDbLine
 10
417.0
 20
237.943375672984
 30
0.0
 11
417.0
 21
235.0566243270359
 31
0.0
  0
LINE
  5
2D6
330
6C
100
AcDbEntity
  8
Visible (ISO)
100
AcDbLine
 10
417.0
 20
235.0566243270359
 30
0.0
 11
414.4999999999999
 21
233.6132486540618
 31
0.0
  0
LINE
  5
2D7
330
6C
100
AcDbEntity
  8
Visible (ISO)
100
AcDbLine
 10
414.4999999999999
 20
233.6132486540618
 30
0.0
 11
411.9999999999999
 21
235.0566243270359
 31
0.0
  0
LINE
  5
2D8
330
6C
100
AcDbEntity
  8
Visible (ISO)
100
AcDbLine
 10
411.9999999999999
 20
235.0566243270359
 30
0.0
 11
411.9999999999999
 21
237.943375672984
 31
0.0
  0
LINE
  5
2D9
330
6C
100
AcDbEntity
  8
Center Mark (ISO)
100
AcDbLine
 10
213.1249999999918
 20
123.75
 30
0.0
 11
136.8749999999918
 21
123.75
 31
0.0
  0
LINE
  5
2DA
330
6C
100
AcDbEntity
  8
Center Mark (ISO)
100
AcDbLine
 10
174.9999999999918
 20
161.875
 30
0.0
 11
174.9999999999918
 21
85.625
 31
0.0
  0
LINE
  5
2DB
330
6C
100
AcDbEntity
  8
Center Mark (ISO)
100
AcDbLine
 10
147.128325559353
 20
95.87832555936044
 30
0.0
 11
139.2320641338429
 21
87.98206413385029
 31
0.0
  0
LINE
  5
2DC
330
6C
100
AcDbEntity
  8
Center Mark (ISO)
100
AcDbLine
 10
147.128325559353
 20
151.6216744406395
 30
0.0
 11
139.2320641338429
 21
159.5179358661497
 31
0.0
  0
LINE
  5
2DD
330
6C
100
AcDbEntity
  8
Center Mark (ISO)
100
AcDbLine
 10
202.8716744406321
 20
95.87832555936046
 30
0.0
 11
210.7679358661423
 21
87.98206413385027
 31
0.0
  0
LINE
  5
2DE
330
6C
100
AcDbEntity
  8
Center Mark (ISO)
100
AcDbLine
 10
210.7679358661423
 20
159.5179358661497
 30
0.0
 11
202.8716744406321
 21
151.6216744406395
 31
0.0
  0
CIRCLE
  5
2DF
330
6C
100
AcDbEntity
  8
Centerline (ISO)
100
AcDbCircle
 10
174.9999999999926
 20
123.75
 30
0.0
 40
44.99999999999999
  0
LINE
  5
2E0
330
6C
100
AcDbEntity
  8
Center Mark (ISO)
100
AcDbLine
 10
144.1249999999927
 20
89.74999999999999
 30
0.0
 11
132.8749999999927
 21
89.74999999999999
 31
0.0
  0
LINE
  5
2E1
330
6C
100
AcDbEntity
  8
Center Mark (ISO)
100
AcDbLine
 10
140.9999999999927
 20
92.87499999999999
 30
0.0
 11
140.9999999999927
 21
81.62499999999999
 31
0.0
  0
LINE
  5
2E2
330
6C
100
AcDbEntity
  8
Center Mark (ISO)
100
AcDbLine
 10
144.1249999999927
 20
157.75
 30
0.0
 11
132.8749999999927
 21
157.75
 31
0.0
  0
LINE
  5
2E3
330
6C
100
AcDbEntity
  8
Center Mark (ISO)
100
AcDbLine
 10
140.9999999999927
 20
165.875
 30
0.0
 11
140.9999999999927
 21
154.625
 31
0.0
  0
LINE
  5
2E4
330
6C
100
AcDbEntity
  8
Center Mark (ISO)
100
AcDbLine
 10
217.1249999999927
 20
89.74999999999999
 30
0.0
 11
205.8749999999927
 21
89.74999999999999
 31
0.0
  0
LINE
  5
2E5
330
6C
100
AcDbEntity
  8
Center Mark (ISO)
100
AcDbLine
 10
208.9999999999927
 20
92.87499999999999
 30
0.0
 11
208.9999999999927
 21
81.62499999999999
 31
0.0
  0
LINE
  5
2E6
330
6C
100
AcDbEntity
  8
Center Mark (ISO)
100
AcDbLine
 10
217.1249999999927
 20
157.75
 30
0.0
 11
205.8749999999927
 21
157.75
 31
0.0
  0
LINE
  5
2E7
330
6C
100
AcDbEntity
  8
Center Mark (ISO)
100
AcDbLine
 10
208.9999999999927
 20
165.875
 30
0.0
 11
208.9999999999927
 21
154.625
 31
0.0
  0
ENDSEC
  0
SECTION
  2
OBJECTS
  0
DICTIONARY
  5
C
330
0
100
AcDbDictionary
281
     1
  3
ACAD_CIP_PREVIOUS_PRODUCT_INFO
350
2E8
  3
ACAD_COLOR
350
63
  3
ACAD_GROUP
350
D
  3
ACAD_LAYOUT
350
62
  3
ACAD_MATERIAL
350
10
  3
ACAD_MLEADERSTYLE
350
66
  3
ACAD_MLINESTYLE
350
5F
  3
ACAD_PLOTSETTINGS
350
61
  3
ACAD_PLOTSTYLENAME
350
E
  3
ACAD_SCALELIST
350
42
  3
ACAD_TABLESTYLE
350
64
  3
ACAD_VISUALSTYLE
350
29
  3
ACDB_RECOMPOSE_DATA
350
2FC
  3
AcDbVariableDictionary
350
2E9
  0
DICTIONARY
  5
2F6
330
CD
100
AcDbDictionary
280
     1
281
     1
  3
ACAD_MLATT
360
2F8
  3
ACAD_XREC_ROUNDTRIP
360
2F7
  0
DICTIONARY
  5
2F9
330
D3
100
AcDbDictionary
280
     1
281
     1
  3
ACAD_MLATT
360
2FB
  3
ACAD_XREC_ROUNDTRIP
360
2FA
  0
XRECORD
  5
2E8
102
{ACAD_REACTORS
330
C
102
}
330
C
100
AcDbXrecord
280
     1
300
INVPROSA
300
2012
300
85768INVNTOR_2012_0F
  0
DICTIONARY
  5
63
102
{ACAD_REACTORS
330
C
102
}
330
C
100
AcDbDictionary
281
     1
  0
DICTIONARY
  5
D
102
{ACAD_REACTORS
330
C
102
}
330
C
100
AcDbDictionary
281
     1
  0
DICTIONARY
  5
62
102
{ACAD_REACTORS
330
C
102
}
330
C
100
AcDbDictionary
281
     1
  3
Layout1
350
6B
  3
Layout2
350
73
  3
Model
350
6F
  0
DICTIONARY
  5
10
102
{ACAD_REACTORS
330
C
102
}
330
C
100
AcDbDictionary
281
     1
  3
ByBlock
350
19
  3
ByLayer
350
11
  3
Global
350
21
  0
DICTIONARY
  5
66
102
{ACAD_REACTORS
330
C
102
}
330
C
100
AcDbDictionary
281
     1
  3
Standard
350
67
  0
DICTIONARY
  5
5F
102
{ACAD_REACTORS
330
C
102
}
330
C
100
AcDbDictionary
281
     1
  3
Standard
350
60
  0
DICTIONARY
  5
61
102
{ACAD_REACTORS
330
C
102
}
330
C
100
AcDbDictionary
281
     1
  0
ACDBDICTIONARYWDFLT
  5
E
102
{ACAD_REACTORS
330
C
102
}
330
C
100
AcDbDictionary
281
     1
  3
Normal
350
F
100
AcDbDictionaryWithDefault
340
F
  0
DICTIONARY
  5
42
102
{ACAD_REACTORS
330
C
102
}
330
C
100
AcDbDictionary
281
     1
  3
A0
350
43
  3
A1
350
44
  3
A2
350
45
  3
A3
350
46
  3
A4
350
47
  3
A5
350
48
  3
A6
350
49
  3
A7
350
4A
  3
A8
350
4B
  3
A9
350
4C
  3
B0
350
4D
  3
B1
350
4E
  3
B2
350
4F
  3
B3
350
50
  3
B4
350
51
  3
B5
350
52
  3
B6
350
53
  0
DICTIONARY
  5
64
102
{ACAD_REACTORS
330
C
102
}
330
C
100
AcDbDictionary
281
     1
  3
Standard
350
65
  0
DICTIONARY
  5
29
102
{ACAD_REACTORS
330
C
102
}
330
C
100
AcDbDictionary
281
     1
  3
2dWireframe
350
2F
  3
Basic
350
2E
  3
Brighten
350
35
  3
ColorChange
350
39
  3
Conceptual
350
32
  3
Dim
350
34
  3
EdgeColorOff
350
41
  3
Facepattern
350
38
  3
Flat
350
2A
  3
FlatWithEdges
350
2B
  3
Gouraud
350
2C
  3
GouraudWithEdges
350
2D
  3
Hidden
350
31
  3
JitterOff
350
3F
  3
Linepattern
350
37
  3
OverhangOff
350
40
  3
Realistic
350
33
  3
Shaded
350
3E
  3
Shaded with edges
350
3D
  3
Shades of Gray
350
3A
  3
Sketchy
350
3B
  3
Thicken
350
36
  3
Wireframe
350
30
  3
X-Ray
350
3C
  0
XRECORD
  5
2FC
102
{ACAD_REACTORS
330
C
102
}
330
C
100
AcDbXrecord
280
     1
 90
        1
330
65
330
CD
330
D3
  0
DICTIONARY
  5
2E9
102
{ACAD_REACTORS
330
C
102
}
330
C
100
AcDbDictionary
281
     1
  3
CANNOSCALE
350
2ED
  3
CMLEADERSTYLE
350
2EB
  3
CTABLESTYLE
350
2EA
  3
LAYEREVAL
350
2EF
  3
LAYERNOTIFY
350
2F0
  3
LIGHTINGUNITS
350
2EE
  3
MSLTSCALE
350
2EC
  3
XCLIPFRAME
350
2F1
  0
XRECORD
  5
2F8
102
{ACAD_REACTORS
330
2F6
102
}
330
2F6
100
AcDbXrecord
280
     1
 70
     4
 70
     0
 70
     0
 40
1.0
  2
部品番号
  1
Embedded Object
 10
39.99999999999993
 20
104.5
 30
0.0
 40
3.100000023841857
 41
52.04190794399206
 46
0.0
 71
     5
 72
     5
  1
VRXF-□-15~81C-S-14BP10
  7
文字スタイル12
 73
     1
 44
1.0
  0
XRECORD
  5
2F7
102
{ACAD_REACTORS
330
2F6
102
}
330
2F6
100
AcDbXrecord
280
     1
102
ACAD_MATT_HEIGHT
140
3.100000023841857
  0
XRECORD
  5
2FB
102
{ACAD_REACTORS
330
2F9
102
}
330
2F9
100
AcDbXrecord
280
     1
 70
     2
 70
     0
 70
     0
 40
1.0
  2
部品番号
  1
Embedded Object
 10
262.5
 20
18.12499999999999
 30
0.0
 40
3.875000029802322
 41
65.05238492999009
 46
0.0
 71
     5
 72
     5
  1
VRXF-□-15~81C-S-14BP10
  7
文字スタイル12
 73
     1
 44
1.0
  0
XRECORD
  5
2FA
102
{ACAD_REACTORS
330
2F9
102
}
330
2F9
100
AcDbXrecord
280
     1
102
ACAD_MATT_HEIGHT
140
3.875000029802322
  0
LAYOUT
  5
6B
102
{ACAD_REACTORS
330
62
102
}
330
62
100
AcDbPlotSettings
  1

  2

  4

  6

 40
0.0
 41
0.0
 42
0.0
 43
0.0
 44
0.0
 45
0.0
 46
0.0
 47
0.0
 48
0.0
 49
0.0
140
0.0
141
0.0
142
1.0
143
1.0
 70
   688
 72
     0
 73
     0
 74
     5
  7

 75
    16
147
1.0
 76
     0
 77
     2
 78
   300
148
0.0
149
0.0
100
AcDbLayout
  1
Layout1
 70
     1
 71
     1
 10
0.0
 20
0.0
 11
12.0
 21
9.0
 12
0.0
 22
0.0
 32
0.0
 14
0.0
 24
0.0
 34
0.0
 15
0.0
 25
0.0
 35
0.0
146
0.0
 13
0.0
 23
0.0
 33
0.0
 16
1.0
 26
0.0
 36
0.0
 17
0.0
 27
1.0
 37
0.0
 76
     0
330
68
  0
LAYOUT
  5
73
102
{ACAD_REACTORS
330
62
102
}
330
62
100
AcDbPlotSettings
  1

  2

  4

  6

 40
0.0
 41
0.0
 42
0.0
 43
0.0
 44
0.0
 45
0.0
 46
0.0
 47
0.0
 48
0.0
 49
0.0
140
0.0
141
0.0
142
1.0
143
1.0
 70
   688
 72
     0
 73
     0
 74
     5
  7

 75
    16
147
1.0
 76
     0
 77
     2
 78
   300
148
0.0
149
0.0
100
AcDbLayout
  1
Layout2
 70
     1
 71
     2
 10
0.0
 20
0.0
 11
12.0
 21
9.0
 12
0.0
 22
0.0
 32
0.0
 14
0.0
 24
0.0
 34
0.0
 15
0.0
 25
0.0
 35
0.0
146
0.0
 13
0.0
 23
0.0
 33
0.0
 16
1.0
 26
0.0
 36
0.0
 17
0.0
 27
1.0
 37
0.0
 76
     0
330
70
  0
LAYOUT
  5
6F
102
{ACAD_REACTORS
330
62
102
}
330
62
100
AcDbPlotSettings
  1

  2

  4

  6

 40
0.0
 41
0.0
 42
0.0
 43
0.0
 44
0.0
 45
0.0
 46
0.0
 47
0.0
 48
0.0
 49
0.0
140
0.0
141
0.0
142
1.0
143
1.0
 70
  1712
 72
     0
 73
     0
 74
     0
  7

 75
     0
147
1.0
 76
     0
 77
     2
 78
   300
148
0.0
149
0.0
100
AcDbLayout
  1
Model
 70
     1
 71
     0
 10
0.0
 20
0.0
 11
12.0
 21
9.0
 12
0.0
 22
0.0
 32
0.0
 14
0.0
 24
0.0
 34
0.0
 15
0.0
 25
0.0
 35
0.0
146
0.0
 13
0.0
 23
0.0
 33
0.0
 16
1.0
 26
0.0
 36
0.0
 17
0.0
 27
1.0
 37
0.0
 76
     0
330
6C
  0
MATERIAL
  5
19
102
{ACAD_XDICTIONARY
360
1A
102
}
102
{ACAD_REACTORS
330
10
102
}
330
10
100
AcDbMaterial
  1
ByBlock
 72
     0
 43
0.0208333333333333
 43
0.0
 43
0.0
 43
0.0
 43
0.0
 43
0.0208333333333333
 43
0.0
 43
0.0
 43
0.0
 43
0.0
 43
1.0
 43
0.0
 43
0.0
 43
0.0
 43
0.0
 43
1.0
 77
     0
 47
0.0208333333333333
 47
0.0
 47
0.0
 47
0.0
 47
0.0
 47
0.0208333333333333
 47
0.0
 47
0.0
 47
0.0
 47
0.0
 47
1.0
 47
0.0
 47
0.0
 47
0.0
 47
0.0
 47
1.0
171
     0
 49
0.0208333333333333
 49
0.0
 49
0.0
 49
0.0
 49
0.0
 49
0.0208333333333333
 49
0.0
 49
0.0
 49
0.0
 49
0.0
 49
1.0
 49
0.0
 49
0.0
 49
0.0
 49
0.0
 49
1.0
175
     0
142
0.0208333333333333
142
0.0
142
0.0
142
0.0
142
0.0
142
0.0208333333333333
142
0.0
142
0.0
142
0.0
142
0.0
142
1.0
142
0.0
142
0.0
142
0.0
142
0.0
142
1.0
179
     0
144
0.0208333333333333
144
0.0
144
0.0
144
0.0
144
0.0
144
0.0208333333333333
144
0.0
144
0.0
144
0.0
144
0.0
144
1.0
144
0.0
144
0.0
144
0.0
144
0.0
144
1.0
147
0.0208333333333333
147
0.0
147
0.0
147
0.0
147
0.0
147
0.0208333333333333
147
0.0
147
0.0
147
0.0
147
0.0
147
1.0
147
0.0
147
0.0
147
0.0
147
0.0
147
1.0
  0
MATERIAL
  5
11
102
{ACAD_XDICTIONARY
360
12
102
}
102
{ACAD_REACTORS
330
10
102
}
330
10
100
AcDbMaterial
  1
ByLayer
 72
     0
 43
0.0208333333333333
 43
0.0
 43
0.0
 43
0.0
 43
0.0
 43
0.0208333333333333
 43
0.0
 43
0.0
 43
0.0
 43
0.0
 43
1.0
 43
0.0
 43
0.0
 43
0.0
 43
0.0
 43
1.0
 77
     0
 47
0.0208333333333333
 47
0.0
 47
0.0
 47
0.0
 47
0.0
 47
0.0208333333333333
 47
0.0
 47
0.0
 47
0.0
 47
0.0
 47
1.0
 47
0.0
 47
0.0
 47
0.0
 47
0.0
 47
1.0
171
     0
 49
0.0208333333333333
 49
0.0
 49
0.0
 49
0.0
 49
0.0
 49
0.0208333333333333
 49
0.0
 49
0.0
 49
0.0
 49
0.0
 49
1.0
 49
0.0
 49
0.0
 49
0.0
 49
0.0
 49
1.0
175
     0
142
0.0208333333333333
142
0.0
142
0.0
142
0.0
142
0.0
142
0.0208333333333333
142
0.0
142
0.0
142
0.0
142
0.0
142
1.0
142
0.0
142
0.0
142
0.0
142
0.0
142
1.0
179
     0
144
0.0208333333333333
144
0.0
144
0.0
144
0.0
144
0.0
144
0.0208333333333333
144
0.0
144
0.0
144
0.0
144
0.0
144
1.0
144
0.0
144
0.0
144
0.0
144
0.0
144
1.0
147
0.0208333333333333
147
0.0
147
0.0
147
0.0
147
0.0
147
0.0208333333333333
147
0.0
147
0.0
147
0.0
147
0.0
147
1.0
147
0.0
147
0.0
147
0.0
147
0.0
147
1.0
  0
MATERIAL
  5
21
102
{ACAD_XDICTIONARY
360
22
102
}
102
{ACAD_REACTORS
330
10
102
}
330
10
100
AcDbMaterial
  1
Global
 72
     0
 43
0.0208333333333333
 43
0.0
 43
0.0
 43
0.0
 43
0.0
 43
0.0208333333333333
 43
0.0
 43
0.0
 43
0.0
 43
0.0
 43
1.0
 43
0.0
 43
0.0
 43
0.0
 43
0.0
 43
1.0
 77
     0
 47
0.0208333333333333
 47
0.0
 47
0.0
 47
0.0
 47
0.0
 47
0.0208333333333333
 47
0.0
 47
0.0
 47
0.0
 47
0.0
 47
1.0
 47
0.0
 47
0.0
 47
0.0
 47
0.0
 47
1.0
171
     0
 49
0.0208333333333333
 49
0.0
 49
0.0
 49
0.0
 49
0.0
 49
0.0208333333333333
 49
0.0
 49
0.0
 49
0.0
 49
0.0
 49
1.0
 49
0.0
 49
0.0
 49
0.0
 49
0.0
 49
1.0
175
     0
142
0.0208333333333333
142
0.0
142
0.0
142
0.0
142
0.0
142
0.0208333333333333
142
0.0
142
0.0
142
0.0
142
0.0
142
1.0
142
0.0
142
0.0
142
0.0
142
0.0
142
1.0
179
     0
144
0.0208333333333333
144
0.0
144
0.0
144
0.0
144
0.0
144
0.0208333333333333
144
0.0
144
0.0
144
0.0
144
0.0
144
1.0
144
0.0
144
0.0
144
0.0
144
0.0
144
1.0
147
0.0208333333333333
147
0.0
147
0.0
147
0.0
147
0.0
147
0.0208333333333333
147
0.0
147
0.0
147
0.0
147
0.0
147
1.0
147
0.0
147
0.0
147
0.0
147
0.0
147
1.0
  0
MLEADERSTYLE
  5
67
102
{ACAD_XDICTIONARY
360
2F4
102
}
102
{ACAD_REACTORS
330
66
102
}
330
66
100
AcDbMLeaderStyle
170
     2
171
     1
172
     0
 90
        2
 40
0.0
 41
0.0
173
     1
 91
-1056964608
340
5B
 92
       -2
290
     1
 42
0.09
291
     1
 43
0.36
  3
Standard
 44
0.18
300

342
55
174
     1
178
     6
175
     1
176
     0
 93
-1056964608
 45
0.18
292
     0
297
     0
 46
0.18
 94
-1056964608
 47
1.0
 49
1.0
140
1.0
293
     1
141
0.0
294
     1
177
     0
142
1.0
295
     0
296
     0
143
0.125
1001
ACAD_MLEADERVER
1070
     2
  0
MLINESTYLE
  5
60
102
{ACAD_REACTORS
330
5F
102
}
330
5F
100
AcDbMlineStyle
  2
STANDARD
 70
     0
  3

 62
   256
 51
90.0
 52
90.0
 71
     2
 49
0.5
 62
   256
  6
BYLAYER
 49
-0.5
 62
   256
  6
BYLAYER
  0
ACDBPLACEHOLDER
  5
F
102
{ACAD_REACTORS
330
E
102
}
330
E
  0
SCALE
  5
43
102
{ACAD_REACTORS
330
42
102
}
330
42
100
AcDbScale
 70
     0
300
1:1
140
1.0
141
1.0
290
     1
  0
SCALE
  5
44
102
{ACAD_REACTORS
330
42
102
}
330
42
100
AcDbScale
 70
     0
300
1/128" = 1'-0"
140
0.0078125
141
12.0
290
     0
  0
SCALE
  5
45
102
{ACAD_REACTORS
330
42
102
}
330
42
100
AcDbScale
 70
     0
300
1/64" = 1'-0"
140
0.015625
141
12.0
290
     0
  0
SCALE
  5
46
102
{ACAD_REACTORS
330
42
102
}
330
42
100
AcDbScale
 70
     0
300
1/32" = 1'-0"
140
0.03125
141
12.0
290
     0
  0
SCALE
  5
47
102
{ACAD_REACTORS
330
42
102
}
330
42
100
AcDbScale
 70
     0
300
1/16" = 1'-0"
140
0.0625
141
12.0
290
     0
  0
SCALE
  5
48
102
{ACAD_REACTORS
330
42
102
}
330
42
100
AcDbScale
 70
     0
300
3/32" = 1'-0"
140
0.09375
141
12.0
290
     0
  0
SCALE
  5
49
102
{ACAD_REACTORS
330
42
102
}
330
42
100
AcDbScale
 70
     0
300
1/8" = 1'-0"
140
0.125
141
12.0
290
     0
  0
SCALE
  5
4A
102
{ACAD_REACTORS
330
42
102
}
330
42
100
AcDbScale
 70
     0
300
3/16" = 1'-0"
140
0.1875
141
12.0
290
     0
  0
SCALE
  5
4B
102
{ACAD_REACTORS
330
42
102
}
330
42
100
AcDbScale
 70
     0
300
1/4" = 1'-0"
140
0.25
141
12.0
290
     0
  0
SCALE
  5
4C
102
{ACAD_REACTORS
330
42
102
}
330
42
100
AcDbScale
 70
     0
300
3/8" = 1'-0"
140
0.375
141
12.0
290
     0
  0
SCALE
  5
4D
102
{ACAD_REACTORS
330
42
102
}
330
42
100
AcDbScale
 70
     0
300
1/2" = 1'-0"
140
0.5
141
12.0
290
     0
  0
SCALE
  5
4E
102
{ACAD_REACTORS
330
42
102
}
330
42
100
AcDbScale
 70
     0
300
3/4" = 1'-0"
140
0.75
141
12.0
290
     0
  0
SCALE
  5
4F
102
{ACAD_REACTORS
330
42
102
}
330
42
100
AcDbScale
 70
     0
300
1" = 1'-0"
140
1.0
141
12.0
290
     0
  0
SCALE
  5
50
102
{ACAD_REACTORS
330
42
102
}
330
42
100
AcDbScale
 70
     0
300
1-1/2" = 1'-0"
140
1.5
141
12.0
290
     0
  0
SCALE
  5
51
102
{ACAD_REACTORS
330
42
102
}
330
42
100
AcDbScale
 70
     0
300
3" = 1'-0"
140
3.0
141
12.0
290
     0
  0
SCALE
  5
52
102
{ACAD_REACTORS
330
42
102
}
330
42
100
AcDbScale
 70
     0
300
6" = 1'-0"
140
6.0
141
12.0
290
     0
  0
SCALE
  5
53
102
{ACAD_REACTORS
330
42
102
}
330
42
100
AcDbScale
 70
     0
300
1'-0" = 1'-0"
140
12.0
141
12.0
290
     0
  0
TABLESTYLE
  5
65
102
{ACAD_XDICTIONARY
360
2F2
102
}
102
{ACAD_REACTORS
330
64
102
}
330
64
100
AcDbTableStyle
  3
Standard
 70
     0
 71
     0
 40
0.06
 41
0.06
280
     0
281
     0
  7
Standard
140
0.18
170
     2
 62
     0
 63
     7
283
     0
274
    -2
284
     1
 64
     0
275
    -2
285
     1
 65
     0
276
    -2
286
     1
 66
     0
277
    -2
287
     1
 67
     0
278
    -2
288
     1
 68
     0
279
    -2
289
     1
 69
     0
  7
Standard
140
0.25
170
     5
 62
     0
 63
     7
283
     0
274
    -2
284
     1
 64
     0
275
    -2
285
     1
 65
     0
276
    -2
286
     1
 66
     0
277
    -2
287
     1
 67
     0
278
    -2
288
     1
 68
     0
279
    -2
289
     1
 69
     0
  7
Standard
140
0.18
170
     5
 62
     0
 63
     7
283
     0
274
    -2
284
     1
 64
     0
275
    -2
285
     1
 65
     0
276
    -2
286
     1
 66
     0
277
    -2
287
     1
 67
     0
278
    -2
288
     1
 68
     0
279
    -2
289
     1
 69
     0
  0
VISUALSTYLE
  5
2F
102
{ACAD_XDICTIONARY
360
30A
102
}
102
{ACAD_REACTORS
330
29
102
}
330
29
100
AcDbVisualStyle
  2
2dWireframe
 70
     4
 71
     0
 72
     2
 73
     0
 90
        0
 40
-0.6
 41
-30.0
 62
     5
 63
     7
421
 16777215
 74
     1
 91
        4
 64
     7
 65
   257
 75
     1
175
     1
 42
1.0
 92
        0
 66
   257
 43
1.0
 76
     1
 77
     6
 78
     2
 67
     7
 79
     5
170
     0
171
     0
290
     0
174
     0
 93
        1
 44
0.0
173
     0
291
     0
 45
0.0
1001
ACAD
1000
AcDbSavedByObjectVersion
1070
     0
  0
VISUALSTYLE
  5
2E
102
{ACAD_XDICTIONARY
360
308
102
}
102
{ACAD_REACTORS
330
29
102
}
330
29
100
AcDbVisualStyle
  2
Basic
 70
     7
 71
     1
 72
     0
 73
     1
 90
        0
 40
-0.6
 41
-30.0
 62
     5
 63
     7
421
 16777215
 74
     0
 91
        4
 64
     7
 65
   257
 75
     1
175
     1
 42
1.0
 92
        8
 66
     7
 43
1.0
 76
     1
 77
     6
 78
     2
 67
     7
 79
     5
170
     0
171
     0
290
     0
174
     0
 93
        1
 44
0.0
173
     0
291
     1
 45
0.0
1001
ACAD
1000
AcDbSavedByObjectVersion
1070
     0
  0
VISUALSTYLE
  5
35
102
{ACAD_XDICTIONARY
360
316
102
}
102
{ACAD_REACTORS
330
29
102
}
330
29
100
AcDbVisualStyle
  2
Brighten
 70
    12
 71
     2
 72
     2
 73
     0
 90
        0
 40
-0.6
 41
-30.0
 62
     5
 63
     7
421
 16777215
 74
     1
 91
        4
 64
     7
 65
   257
 75
     1
175
     1
 42
1.0
 92
        8
 66
     7
 43
1.0
 76
     1
 77
     6
 78
     2
 67
     7
 79
     5
170
     0
171
     0
290
     0
174
     0
 93
        1
 44
50.0
173
     0
291
     1
 45
0.0
1001
ACAD
1000
AcDbSavedByObjectVersion
1070
     0
  0
VISUALSTYLE
  5
39
102
{ACAD_XDICTIONARY
360
31E
102
}
102
{ACAD_REACTORS
330
29
102
}
330
29
100
AcDbVisualStyle
  2
ColorChange
 70
    16
 71
     2
 72
     2
 73
     3
 90
        0
 40
-0.6
 41
-30.0
 62
     5
 63
     8
421
  8421504
 74
     1
 91
        4
 64
     7
 65
   257
 75
     1
175
     1
 42
1.0
 92
        8
 66
     8
424
  8421504
 43
1.0
 76
     1
 77
     6
 78
     2
 67
     7
 79
     5
170
     0
171
     0
290
     0
174
     0
 93
        1
 44
0.0
173
     0
291
     1
 45
0.0
1001
ACAD
1000
AcDbSavedByObjectVersion
1070
     0
  0
VISUALSTYLE
  5
32
102
{ACAD_XDICTIONARY
360
310
102
}
102
{ACAD_REACTORS
330
29
102
}
330
29
100
AcDbVisualStyle
  2
Conceptual
 70
     9
 71
     3
 72
     2
 73
     0
 90
        0
 40
-0.6
 41
-30.0
 62
     5
 63
     7
421
 16777215
 74
     2
 91
        2
 64
     7
 65
   257
 75
     1
175
     1
 42
179.0
 92
        8
 66
     7
 43
1.0
 76
     1
 77
     6
 78
     2
 67
     7
 79
     3
170
     0
171
     0
290
     0
174
     0
 93
        1
 44
0.0
173
     0
291
     0
 45
0.0
1001
ACAD
1000
AcDbSavedByObjectVersion
1070
     0
  0
VISUALSTYLE
  5
34
102
{ACAD_XDICTIONARY
360
314
102
}
102
{ACAD_REACTORS
330
29
102
}
330
29
100
AcDbVisualStyle
  2
Dim
 70
    11
 71
     2
 72
     2
 73
     0
 90
        0
 40
-0.6
 41
-30.0
 62
     5
 63
     7
421
 16777215
 74
     1
 91
        4
 64
     7
 65
   257
 75
     1
175
     1
 42
1.0
 92
        8
 66
     7
 43
1.0
 76
     1
 77
     6
 78
     2
 67
     7
 79
     5
170
     0
171
     0
290
     0
174
     0
 93
        1
 44
-50.0
173
     0
291
     1
 45
0.0
1001
ACAD
1000
AcDbSavedByObjectVersion
1070
     0
  0
VISUALSTYLE
  5
41
102
{ACAD_XDICTIONARY
360
32E
102
}
102
{ACAD_REACTORS
330
29
102
}
330
29
100
AcDbVisualStyle
  2
EdgeColorOff
 70
    22
 71
     2
 72
     2
 73
     0
 90
        0
 40
-0.6
 41
-30.0
 62
     5
 63
     7
421
 16777215
 74
     1
 91
        4
 64
     7
 65
   257
 75
     1
175
     1
 42
1.0
 92
        8
 66
     7
 43
1.0
 76
     1
 77
     6
 78
     2
 67
     7
 79
     5
170
     0
171
     0
290
     0
174
     0
 93
        1
 44
0.0
173
     0
291
     1
 45
0.0
1001
ACAD
1000
AcDbSavedByObjectVersion
1070
     0
  0
VISUALSTYLE
  5
38
102
{ACAD_XDICTIONARY
360
31C
102
}
102
{ACAD_REACTORS
330
29
102
}
330
29
100
AcDbVisualStyle
  2
Facepattern
 70
    15
 71
     2
 72
     2
 73
     0
 90
        0
 40
-0.6
 41
-30.0
 62
     5
 63
     7
421
 16777215
 74
     1
 91
        4
 64
     7
 65
   257
 75
     1
175
     1
 42
1.0
 92
        8
 66
     7
 43
1.0
 76
     1
 77
     6
 78
     2
 67
     7
 79
     5
170
     0
171
     0
290
     0
174
     0
 93
        1
 44
0.0
173
     0
291
     1
 45
0.0
1001
ACAD
1000
AcDbSavedByObjectVersion
1070
     0
  0
VISUALSTYLE
  5
2A
102
{ACAD_XDICTIONARY
360
300
102
}
102
{ACAD_REACTORS
330
29
102
}
330
29
100
AcDbVisualStyle
  2
Flat
 70
     0
 71
     2
 72
     1
 73
     1
 90
        2
 40
-0.6
 41
30.0
 62
     5
 63
     7
421
 16777215
 74
     0
 91
        0
 64
     7
 65
   257
 75
     1
175
     1
 42
1.0
 92
        8
 66
     7
 43
1.0
 76
     1
 77
     6
 78
     2
 67
     7
 79
     5
170
     0
171
     0
290
     0
174
     0
 93
       13
 44
0.0
173
     0
291
     1
 45
0.0
1001
ACAD
1000
AcDbSavedByObjectVersion
1070
     0
  0
VISUALSTYLE
  5
2B
102
{ACAD_XDICTIONARY
360
302
102
}
102
{ACAD_REACTORS
330
29
102
}
330
29
100
AcDbVisualStyle
  2
FlatWithEdges
 70
     1
 71
     2
 72
     1
 73
     1
 90
        2
 40
-0.6
 41
30.0
 62
     5
 63
     7
421
 16777215
 74
     1
 91
        0
 64
     7
 65
   257
 75
     1
175
     1
 42
1.0
 92
        0
 66
   257
 43
1.0
 76
     1
 77
     6
 78
     2
 67
     7
 79
     5
170
     0
171
     0
290
     0
174
     0
 93
       13
 44
0.0
173
     0
291
     1
 45
0.0
1001
ACAD
1000
AcDbSavedByObjectVersion
1070
     0
  0
VISUALSTYLE
  5
2C
102
{ACAD_XDICTIONARY
360
304
102
}
102
{ACAD_REACTORS
330
29
102
}
330
29
100
AcDbVisualStyle
  2
Gouraud
 70
     2
 71
     2
 72
     2
 73
     1
 90
        2
 40
-0.6
 41
30.0
 62
     5
 63
     7
421
 16777215
 74
     0
 91
        0
 64
     7
 65
   257
 75
     1
175
     1
 42
1.0
 92
        0
 66
     7
 43
1.0
 76
     1
 77
     6
 78
     2
 67
     7
 79
     5
170
     0
171
     0
290
     0
174
     0
 93
       13
 44
0.0
173
     0
291
     1
 45
0.0
1001
ACAD
1000
AcDbSavedByObjectVersion
1070
     0
  0
VISUALSTYLE
  5
2D
102
{ACAD_XDICTIONARY
360
306
102
}
102
{ACAD_REACTORS
330
29
102
}
330
29
100
AcDbVisualStyle
  2
GouraudWithEdges
 70
     3
 71
     2
 72
     2
 73
     1
 90
        2
 40
-0.6
 41
30.0
 62
     5
 63
     7
421
 16777215
 74
     1
 91
        0
 64
     7
 65
   257
 75
     1
175
     1
 42
1.0
 92
        0
 66
   257
 43
1.0
 76
     1
 77
     6
 78
     2
 67
     7
 79
     5
170
     0
171
     0
290
     0
174
     0
 93
       13
 44
0.0
173
     0
291
     1
 45
0.0
1001
ACAD
1000
AcDbSavedByObjectVersion
1070
     0
  0
VISUALSTYLE
  5
31
102
{ACAD_XDICTIONARY
360
30E
102
}
102
{ACAD_REACTORS
330
29
102
}
330
29
100
AcDbVisualStyle
  2
Hidden
 70
     6
 71
     1
 72
     2
 73
     2
 90
        0
 40
-0.6
 41
-30.0
 62
     5
 63
     7
421
 16777215
 74
     2
 91
        2
 64
     7
 65
   257
 75
     2
175
     1
 42
40.0
 92
        0
 66
   257
 43
1.0
 76
     1
 77
     6
 78
     2
 67
     7
 79
     3
170
     0
171
     0
290
     0
174
     0
 93
        1
 44
0.0
173
     0
291
     0
 45
0.0
1001
ACAD
1000
AcDbSavedByObjectVersion
1070
     0
  0
VISUALSTYLE
  5
3F
102
{ACAD_XDICTIONARY
360
32A
102
}
102
{ACAD_REACTORS
330
29
102
}
330
29
100
AcDbVisualStyle
  2
JitterOff
 70
    20
 71
     2
 72
     2
 73
     0
 90
        0
 40
-0.6
 41
-30.0
 62
     5
 63
     7
421
 16777215
 74
     1
 91
        4
 64
     7
 65
   257
 75
     1
175
     1
 42
1.0
 92
       10
 66
     7
 43
1.0
 76
     1
 77
     6
 78
     2
 67
     7
 79
     5
170
     0
171
     0
290
     0
174
     0
 93
        1
 44
0.0
173
     0
291
     1
 45
0.0
1001
ACAD
1000
AcDbSavedByObjectVersion
1070
     0
  0
VISUALSTYLE
  5
37
102
{ACAD_XDICTIONARY
360
31A
102
}
102
{ACAD_REACTORS
330
29
102
}
330
29
100
AcDbVisualStyle
  2
Linepattern
 70
    14
 71
     2
 72
     2
 73
     0
 90
        0
 40
-0.6
 41
-30.0
 62
     5
 63
     7
421
 16777215
 74
     1
 91
        4
 64
     7
 65
   257
 75
     7
175
     7
 42
1.0
 92
        8
 66
     7
 43
1.0
 76
     1
 77
     6
 78
     2
 67
     7
 79
     5
170
     0
171
     0
290
     0
174
     0
 93
        1
 44
0.0
173
     0
291
     1
 45
0.0
1001
ACAD
1000
AcDbSavedByObjectVersion
1070
     0
  0
VISUALSTYLE
  5
40
102
{ACAD_XDICTIONARY
360
32C
102
}
102
{ACAD_REACTORS
330
29
102
}
330
29
100
AcDbVisualStyle
  2
OverhangOff
 70
    21
 71
     2
 72
     2
 73
     0
 90
        0
 40
-0.6
 41
-30.0
 62
     5
 63
     7
421
 16777215
 74
     1
 91
        4
 64
     7
 65
   257
 75
     1
175
     1
 42
1.0
 92
        9
 66
     7
 43
1.0
 76
     1
 77
     6
 78
     2
 67
     7
 79
     5
170
     0
171
     0
290
     0
174
     0
 93
        1
 44
0.0
173
     0
291
     1
 45
0.0
1001
ACAD
1000
AcDbSavedByObjectVersion
1070
     0
  0
VISUALSTYLE
  5
33
102
{ACAD_XDICTIONARY
360
312
102
}
102
{ACAD_REACTORS
330
29
102
}
330
29
100
AcDbVisualStyle
  2
Realistic
 70
     8
 71
     2
 72
     3
 73
     0
 90
        2
 40
-0.6
 41
30.0
 62
     5
 63
     7
421
 16777215
 74
     0
 91
        0
 64
     7
 65
   257
 75
     1
175
     1
 42
1.0
 92
        8
 66
   257
 43
1.0
 76
     1
 77
     6
 78
     2
 67
     7
 79
     3
170
     0
171
     0
290
     0
174
     0
 93
       13
 44
0.0
173
     0
291
     0
 45
0.0
1001
ACAD
1000
AcDbSavedByObjectVersion
1070
     0
  0
VISUALSTYLE
  5
3E
102
{ACAD_XDICTIONARY
360
328
102
}
102
{ACAD_REACTORS
330
29
102
}
330
29
100
AcDbVisualStyle
  2
Shaded
 70
    27
 71
     2
 72
     2
 73
     1
 90
        2
 40
-0.6
 41
30.0
 62
     5
 63
     7
421
 16777215
 74
     0
 91
        4
 64
     7
 65
   257
 75
     1
175
     1
 42
1.0
 92
        8
 66
   257
 43
1.0
 76
     1
 77
     6
 78
     2
 67
     8
425
  7895160
 79
     3
170
     0
171
     0
290
     0
174
     0
 93
        5
 44
0.0
173
     0
291
     0
 45
0.0
1001
ACAD
1000
AcDbSavedByObjectVersion
1070
     0
  0
VISUALSTYLE
  5
3D
102
{ACAD_XDICTIONARY
360
326
102
}
102
{ACAD_REACTORS
330
29
102
}
330
29
100
AcDbVisualStyle
  2
Shaded with edges
 70
    26
 71
     2
 72
     2
 73
     1
 90
        2
 40
-0.6
 41
30.0
 62
     5
 63
     7
421
 16777215
 74
     1
 91
       10
 64
     7
 65
   257
 75
     2
175
     1
 42
1.0
 92
        8
 66
   257
 43
1.0
 76
     1
 77
     6
 78
     2
 67
     7
 79
     3
170
     0
171
     0
290
     0
174
     0
 93
        5
 44
0.0
173
     0
291
     0
 45
0.0
1001
ACAD
1000
AcDbSavedByObjectVersion
1070
     0
  0
VISUALSTYLE
  5
3A
102
{ACAD_XDICTIONARY
360
320
102
}
102
{ACAD_REACTORS
330
29
102
}
330
29
100
AcDbVisualStyle
  2
Shades of Gray
 70
    23
 71
     2
 72
     2
 73
     3
 90
        0
 40
-0.6
 41
-30.0
 62
     5
 63
     7
421
 16777215
 74
     2
 91
        2
 64
     7
 65
     7
 75
     1
175
     1
 42
40.0
 92
        8
 66
     7
 43
1.0
 76
     1
 77
     6
 78
     2
 67
     7
 79
     3
170
     0
171
     0
290
     0
174
     0
 93
        1
 44
0.0
173
     0
291
     0
 45
0.0
1001
ACAD
1000
AcDbSavedByObjectVersion
1070
     0
  0
VISUALSTYLE
  5
3B
102
{ACAD_XDICTIONARY
360
322
102
}
102
{ACAD_REACTORS
330
29
102
}
330
29
100
AcDbVisualStyle
  2
Sketchy
 70
    24
 71
     1
 72
     2
 73
     2
 90
        0
 40
-0.6
 41
-30.0
 62
     5
 63
     7
421
 16777215
 74
     2
 91
        2
 64
     7
 65
     7
 75
     1
175
     1
 42
40.0
 92
       11
 66
     7
 43
1.0
 76
     1
 77
     6
 78
     2
 67
     7
 79
     6
170
     0
171
     0
290
     0
174
     0
 93
        1
 44
0.0
173
     0
291
     0
 45
0.0
1001
ACAD
1000
AcDbSavedByObjectVersion
1070
     0
  0
VISUALSTYLE
  5
36
102
{ACAD_XDICTIONARY
360
318
102
}
102
{ACAD_REACTORS
330
29
102
}
330
29
100
AcDbVisualStyle
  2
Thicken
 70
    13
 71
     2
 72
     2
 73
     0
 90
        0
 40
-0.6
 41
-30.0
 62
     5
 63
     7
421
 16777215
 74
     1
 91
        4
 64
     7
 65
   257
 75
     1
175
     1
 42
1.0
 92
       12
 66
     7
 43
1.0
 76
     1
 77
     6
 78
     2
 67
     7
 79
     5
170
     0
171
     0
290
     0
174
     0
 93
        1
 44
0.0
173
     0
291
     1
 45
0.0
1001
ACAD
1000
AcDbSavedByObjectVersion
1070
     0
  0
VISUALSTYLE
  5
30
102
{ACAD_XDICTIONARY
360
30C
102
}
102
{ACAD_REACTORS
330
29
102
}
330
29
100
AcDbVisualStyle
  2
Wireframe
 70
     5
 71
     0
 72
     2
 73
     0
 90
        0
 40
-0.6
 41
-30.0
 62
     5
 63
     7
421
 16777215
 74
     1
 91
        4
 64
     7
 65
   257
 75
     1
175
     1
 42
1.0
 92
        0
 66
   257
 43
1.0
 76
     1
 77
     6
 78
     2
 67
     7
 79
     3
170
     0
171
     0
290
     0
174
     0
 93
        1
 44
0.0
173
     0
291
     0
 45
0.0
1001
ACAD
1000
AcDbSavedByObjectVersion
1070
     0
  0
VISUALSTYLE
  5
3C
102
{ACAD_XDICTIONARY
360
324
102
}
102
{ACAD_REACTORS
330
29
102
}
330
29
100
AcDbVisualStyle
  2
X-Ray
 70
    25
 71
     2
 72
     2
 73
     1
 90
        1
 40
0.5
 41
-30.0
 62
     5
 63
     7
421
 16777215
 74
     1
 91
        0
 64
     7
 65
   257
 75
     1
175
     1
 42
1.0
 92
        8
 66
     7
 43
1.0
 76
     1
 77
     6
 78
     2
 67
     7
 79
     3
170
     0
171
     0
290
     0
174
     0
 93
       13
 44
0.0
173
     0
291
     0
 45
0.0
1001
ACAD
1000
AcDbSavedByObjectVersion
1070
     0
  0
DICTIONARYVAR
  5
2ED
102
{ACAD_REACTORS
330
2E9
102
}
330
2E9
100
DictionaryVariables
280
     0
  1
1:1
  0
DICTIONARYVAR
  5
2EB
102
{ACAD_REACTORS
330
2E9
102
}
330
2E9
100
DictionaryVariables
280
     0
  1
STANDARD
  0
DICTIONARYVAR
  5
2EA
102
{ACAD_REACTORS
330
2E9
102
}
330
2E9
100
DictionaryVariables
280
     0
  1
STANDARD
  0
DICTIONARYVAR
  5
2EF
102
{ACAD_REACTORS
330
2E9
102
}
330
2E9
100
DictionaryVariables
280
     0
  1
0
  0
DICTIONARYVAR
  5
2F0
102
{ACAD_REACTORS
330
2E9
102
}
330
2E9
100
DictionaryVariables
280
     0
  1
0
  0
DICTIONARYVAR
  5
2EE
102
{ACAD_REACTORS
330
2E9
102
}
330
2E9
100
DictionaryVariables
280
     0
  1
2
  0
DICTIONARYVAR
  5
2EC
102
{ACAD_REACTORS
330
2E9
102
}
330
2E9
100
DictionaryVariables
280
     0
  1
1
  0
DICTIONARYVAR
  5
2F1
102
{ACAD_REACTORS
330
2E9
102
}
330
2E9
100
DictionaryVariables
280
     0
  1
2
  0
DICTIONARY
  5
1A
330
19
100
AcDbDictionary
280
     1
281
     1
  3
ACAD_XREC_ROUNDTRIP
360
2FE
  3
BUMPTILE
360
1C
  3
DIFFUSETILE
360
1B
  3
OPACITYTILE
360
1F
  3
REFLECTIONTILE
360
1E
  3
REFRACTIONTILE
360
20
  3
SPECULARTILE
360
1D
  0
DICTIONARY
  5
12
330
11
100
AcDbDictionary
280
     1
281
     1
  3
ACAD_XREC_ROUNDTRIP
360
2FD
  3
BUMPTILE
360
14
  3
DIFFUSETILE
360
13
  3
FBXASSET
360
AC
  3
OPACITYTILE
360
17
  3
REFLECTIONTILE
360
16
  3
REFRACTIONTILE
360
18
  3
SPECULARTILE
360
15
  0
DICTIONARY
  5
22
330
21
100
AcDbDictionary
280
     1
281
     1
  3
ACAD_XREC_ROUNDTRIP
360
2FF
  3
BUMPTILE
360
24
  3
DIFFUSETILE
360
23
  3
OPACITYTILE
360
27
  3
REFLECTIONTILE
360
26
  3
REFRACTIONTILE
360
28
  3
SPECULARTILE
360
25
  0
DICTIONARY
  5
2F4
330
67
100
AcDbDictionary
280
     1
281
     1
  3
ACAD_XREC_ROUNDTRIP
360
2F5
  0
DICTIONARY
  5
2F2
330
65
100
AcDbDictionary
280
     1
281
     1
  3
ACAD_ROUNDTRIP_2008_TABLESTYLE_CELLSTYLEMAP
360
2F3
  3
ACAD_XREC_ROUNDTRIP
360
330
  0
DICTIONARY
  5
30A
330
2F
100
AcDbDictionary
280
     1
281
     1
  3
ACAD_XREC_ROUNDTRIP
360
30B
  0
DICTIONARY
  5
308
330
2E
100
AcDbDictionary
280
     1
281
     1
  3
ACAD_XREC_ROUNDTRIP
360
309
  0
DICTIONARY
  5
316
330
35
100
AcDbDictionary
280
     1
281
     1
  3
ACAD_XREC_ROUNDTRIP
360
317
  0
DICTIONARY
  5
31E
330
39
100
AcDbDictionary
280
     1
281
     1
  3
ACAD_XREC_ROUNDTRIP
360
31F
  0
DICTIONARY
  5
310
330
32
100
AcDbDictionary
280
     1
281
     1
  3
ACAD_XREC_ROUNDTRIP
360
311
  0
DICTIONARY
  5
314
330
34
100
AcDbDictionary
280
     1
281
     1
  3
ACAD_XREC_ROUNDTRIP
360
315
  0
DICTIONARY
  5
32E
330
41
100
AcDbDictionary
280
     1
281
     1
  3
ACAD_XREC_ROUNDTRIP
360
32F
  0
DICTIONARY
  5
31C
330
38
100
AcDbDictionary
280
     1
281
     1
  3
ACAD_XREC_ROUNDTRIP
360
31D
  0
DICTIONARY
  5
300
330
2A
100
AcDbDictionary
280
     1
281
     1
  3
ACAD_XREC_ROUNDTRIP
360
301
  0
DICTIONARY
  5
302
330
2B
100
AcDbDictionary
280
     1
281
     1
  3
ACAD_XREC_ROUNDTRIP
360
303
  0
DICTIONARY
  5
304
330
2C
100
AcDbDictionary
280
     1
281
     1
  3
ACAD_XREC_ROUNDTRIP
360
305
  0
DICTIONARY
  5
306
330
2D
100
AcDbDictionary
280
     1
281
     1
  3
ACAD_XREC_ROUNDTRIP
360
307
  0
DICTIONARY
  5
30E
330
31
100
AcDbDictionary
280
     1
281
     1
  3
ACAD_XREC_ROUNDTRIP
360
30F
  0
DICTIONARY
  5
32A
330
3F
100
AcDbDictionary
280
     1
281
     1
  3
ACAD_XREC_ROUNDTRIP
360
32B
  0
DICTIONARY
  5
31A
330
37
100
AcDbDictionary
280
     1
281
     1
  3
ACAD_XREC_ROUNDTRIP
360
31B
  0
DICTIONARY
  5
32C
330
40
100
AcDbDictionary
280
     1
281
     1
  3
ACAD_XREC_ROUNDTRIP
360
32D
  0
DICTIONARY
  5
312
330
33
100
AcDbDictionary
280
     1
281
     1
  3
ACAD_XREC_ROUNDTRIP
360
313
  0
DICTIONARY
  5
328
330
3E
100
AcDbDictionary
280
     1
281
     1
  3
ACAD_XREC_ROUNDTRIP
360
329
  0
DICTIONARY
  5
326
330
3D
100
AcDbDictionary
280
     1
281
     1
  3
ACAD_XREC_ROUNDTRIP
360
327
  0
DICTIONARY
  5
320
330
3A
100
AcDbDictionary
280
     1
281
     1
  3
ACAD_XREC_ROUNDTRIP
360
321
  0
DICTIONARY
  5
322
330
3B
100
AcDbDictionary
280
     1
281
     1
  3
ACAD_XREC_ROUNDTRIP
360
323
  0
DICTIONARY
  5
318
330
36
100
AcDbDictionary
280
     1
281
     1
  3
ACAD_XREC_ROUNDTRIP
360
319
  0
DICTIONARY
  5
30C
330
30
100
AcDbDictionary
280
     1
281
     1
  3
ACAD_XREC_ROUNDTRIP
360
30D
  0
DICTIONARY
  5
324
330
3C
100
AcDbDictionary
280
     1
281
     1
  3
ACAD_XREC_ROUNDTRIP
360
325
  0
XRECORD
  5
2FE
102
{ACAD_REACTORS
330
1A
102
}
330
1A
100
AcDbXrecord
280
     1
102
MATERIAL
148
0.0
149
0.0
149
0.0
 93
        0
 94
      127
282
     0
 72
     0
 77
     0
171
     0
175
     0
179
     0
273
     0
  0
XRECORD
  5
1C
102
{ACAD_REACTORS
330
1A
102
}
330
1A
100
AcDbXrecord
280
     1
270
     1
271
     1
  0
XRECORD
  5
1B
102
{ACAD_REACTORS
330
1A
102
}
330
1A
100
AcDbXrecord
280
     1
270
     1
271
     1
  0
XRECORD
  5
1F
102
{ACAD_REACTORS
330
1A
102
}
330
1A
100
AcDbXrecord
280
     1
270
     1
271
     1
  0
XRECORD
  5
1E
102
{ACAD_REACTORS
330
1A
102
}
330
1A
100
AcDbXrecord
280
     1
270
     1
271
     1
  0
XRECORD
  5
20
102
{ACAD_REACTORS
330
1A
102
}
330
1A
100
AcDbXrecord
280
     1
270
     1
271
     1
  0
XRECORD
  5
1D
102
{ACAD_REACTORS
330
1A
102
}
330
1A
100
AcDbXrecord
280
     1
270
     1
271
     1
  0
XRECORD
  5
2FD
102
{ACAD_REACTORS
330
12
102
}
330
12
100
AcDbXrecord
280
     1
102
MATERIAL
148
0.0
149
0.0
149
0.0
 93
        0
 94
      127
282
     0
 72
     0
 77
     0
171
     0
175
     0
179
     0
273
     0
  0
XRECORD
  5
14
102
{ACAD_REACTORS
330
12
102
}
330
12
100
AcDbXrecord
280
     1
270
     1
271
     1
  0
XRECORD
  5
13
102
{ACAD_REACTORS
330
12
102
}
330
12
100
AcDbXrecord
280
     1
270
     1
271
     1
  0
XRECORD
  5
AC
102
{ACAD_REACTORS
330
12
102
}
330
12
100
AcDbXrecord
280
     1
 70
     1
 90
1959938040
 71
     1
  1
1DBC788A-43F7-4775-9781-8B05B5528714
311
504B03040A0000080000D90888473DEE336E79000000790000001B0000006175746F6465736B2D64657369676E2D7061636B6167652E786D6C3C3F786D6C2076657273696F6E3D22312E302220656E636F64696E673D227574662D3822203F3E3C666F726D6174733E3C666F726D61743E687474703A2F2F736368656D612E
311
6175746F6465736B2E636F6D2F64657369676E2D7061636B6167652F323030393C2F666F726D61743E3C2F666F726D6174733E504B0304140006080800D9088847D486FD9CA0000000F4000000130000005B436F6E74656E745F54797065735D2E786D6C7D8EC10E82300C865F65E91D8A1E8C310C0EEA1BF002731658846E
311
D98AC1B77784ABF1D8FE5FBFBF75BBCE937A534CCEB38643598122B6FEE978D0B0485F9C41B54DDD7D022595594E1A469170414C76A4D9A4D207E29CF43ECE46F218070CC6BECC4078ACAA135ACF422C856C0E68EA1BF5669944DDD7BCDE7B1F8E415D77AECB980613C2E4AC91FC167A2B244592486606FC29C8FD7F045B9A
311
EF7053A7E60B504B0304140006080800D90888474E8DFBF2EC0000007C01000008000000636F72652E786D6C8D90416EC3201045AF82665BE18063278E85894C9B9CA01740401C94182C03558F5F9C3852BBEB6A467FFE9B197D76FC1EEFE8CBCCC17AD7012D0820E394D7D60D1DA478C10DA02367B3F7F1970D9093A3E960
311
9181B361F6695A25E55D342E66D5796D56518660222075CF4D07415DCD280B996276845B314975938329E8ABCB704A56A3E711ABF33E7BB166065EF76227C47B8DFBFD698FABEA54E2469C05EE9BF3073D5051896DCD360BCC59B4E3EBBE9A8D8C46032F09AD312D31693E096DC9AEADE91B39B484B0CD62FF03A549FF134A
311
D6C56DB9BEFBC402709A1F790C38DB2C59E4F2082AD72537FE03504B0304140006080800D908884755019EA25F0000007C00000007000000636E782E786D6C4DCB3B0E80201045D1AD90E915ED2CF8AC45050C11660C8261F98AB1B07AC9C97D42D718D865D3E909258CFD00CCE24AC6E326A164D74DC0B4128928FF326038
311
472BA13128B1252AC747C6BAB984FC68F0B87FE8960A5C09FE86CFB69FBA01504B0304140006080800D90888479FDDA8CC68010000020300000C0000006662782F636F72652E786D6C8D52D18E823010FC95A6AF17688BA2686A8DDCE917DC0F54A85C23B4A6B4C4CFBF45309C17630C49696676766707F8F6DAD4A853AED5
311
D66C308B2946CA14B6D4A6DAE0E04F5186D1567067ADFF538691918DDAE01EC68257CE86CB0815D678653CA0C6966A0465DB2A8F5151C36583DBE247353296C143457B8E2FB238CB4AC52C061AEA046FBD03036818D29F589C8E574E065CF0107439B2BA8469FAA495C322DDE58B3CFF4CA3DD72BF8CE6F37D1265F9218F76
311
D9E18BAD583ECF672927BD5870AF9BBBBBC229E955894542591AB124A2D937656BBA58A7EC83AED69472D2973F88C2A57C5314B4F1B364B43BC85A2C1818B911FFB685883C6A65077E88E0A40F115EB7841F83864020642F8FF57D8F33409D2ABC7573604A1B26AA9375503095A2DBC3C9C042E75B03D8EC699FE4459FD73D
311
E0034A538135E9E17A0CBE9FCE87A9631417E5A2CE5F91B1AE91F5646EB0389DD3A0A7F2C2D6D6BDA326E3AA640C93F47FAFF805504B0304140006080800D90888471717F8287D0000009D0000000B0000006662782F636E782E786D6C4DCCD10AC2201886E15B91FFDC96E9FC0BD4E188EE63343724A7611A5D7E5BECA0A3
311
0F1E3E5ED57D9640DE2EBF7C8A1AD8E108C4C57B1A7D9C35D432D13390CEA89C52F9BB0189C3E2346C0C46CD39D5E74EA39B861ACAAAC1C7C78EC84E56088BB4952DA7A247462F8223C5DB15A5E5564ADB436354F32BADBB85CD17504B0304140006080800D9088847A2EB03502B01000015020000310000006662782F3731
311
3241343441372D353635332D344237312D393433372D3746443736413341363641422F636F72652E786D6C8D515B6EC32010BC0AE22B55850D7E4012612247554FD00B38401294182C1E558E5F5C3B52FB1721B168766676C4F2C363BC836FED8371B683A4C010682B9D32F6D2C114CF680BC14170EF5CFC4383C00EA3EEE0
311
0C43C12FDEA56985A4B351DB9851EB945EC121041D2190F7FCE86090573D0EC5906266845B310DF2365C74418ADCCE3CC143F439005886CC37148C547DD3F40CB5B4AD51736404ED9A9A21F6F9C1685FF794F6475E2E42C153326A951B95E398B3D1FE5593592C7834E333BEF47A885A415161D2225221BCFDC2648FE9BE25
311
EF78B7C7989733FD9F284DEA45513236D6D51A77910528082F9786E0CAA5D3FD19463F26E72398E76D82966F50E00263C6489B0F2F176EFE816C4A9BD53444E7F30F6F6EA74C27EDE24C1BC1CB7949B9FC6E30D779A1E207504B0304140006080800D9088847F5F95E034E01000033030000300000006662782F3731324134
311
3441372D353635332D344237312D393433372D3746443736413341363641422F636E782E786D6CD593C16E022114457F85B06D6606AC1A6B184CBAE81774D12DC253A90C4C8069EADFF7A168DDB8E8B21B32B9EF72EFCB092336DF83235F10930DBEA7BC659480D7C158BFEFE99477CD8A928D1431847C67A3C4AB017A5A64
311
2AC53E8669AC92819D9A5C46D5597FAC628414A6A821A15C6E1217B4721800BE995084610BC6802137237EED20E22A286E4F241F80BCBD7E90B0FD049D93E84A8A145DE990A29CB5E9CE4489762AA59E267D8041B56ACAC1403AB64665D5F2F6DAF560A7DF24522E5C2BA7684929EF6939A9AC1BB5C85174389422E588F4AA
311
299F46A0528DA3B35A6584DC9D8D178F1493F57939AF5E8BE023BAF9F2793EC7B0F34C8A6C07A80E1D41653054CE185F347CD6B0D53BE36BB65C2FF8137B593326BA6297621B82AB9730066218890E3E83CF5472D195F1237CD5478C8DC83AC4D31F402280DA7AA173CBF8CF7CBAF3FB465C11FF02F903504B030414000608
311
0800D90888475BA6A8E9A305000081100000340000006662782F37313241343441372D353635332D344237312D393433372D3746443736413341363641422F6F626A656374732E786D6CAD57D98EDB3614FD15417D691FBCC84BEC29340AC6762730D249821809FA60C0A0254AC30EB580A4269E7E7D0F454A961C7BE21679
311
D1C2E5F2DE73CF5DE8BF3DA4DC79A642B23CBB75BDFED0756816E611CB925BB754716FEE3A6F035FE4B96A2D739D8CA4F4D6D5C36EE027222F0B3B14D198945C9D8CDE2FFE72644833EA3A212752DEBA327CA429E99352E511954FFD8828D24FE243DFEB9B855DB18920C5E389D082089A29688AF10C521CA394D7FD1DBA83
311
C01FE8F9C0D74FBB6A7C79D5A0B2A77B3ECBA42259F8DD612762C6DE64F5C7687AD39B4E26E3DEE4CDC8EB2DEE17AB9E371B0F976F96CB9BBB3F6E70B0540292AC2682C66EF00ED80816FA033315F825CBD478649758070D047D66DA536E30723C7F60D634D65923CFA91FE65946C30A2BA051D9674547B4A059049F332AA1
311
590BA161F7D7D338B6A6C7FADF1ED91EBE0E81F68E96A05AF7FADDD634DFFF0D13E4350C12926A061A2CADA186ABC323C2FB3CE7768E4927258A0A46B8C3D95E10F1E20658AA97047E478C66B2D0D1A02D700378C14C77E98230FA31CFCF6919979C6B1ABB4115053BC40A55B2D28CFD43C551FB3632D009BED26C985B83D4
311
4B41DDE0C650647EC22603A4137392C0E53053EF1C8F4E0C5DEA385DAFDCE0FDFDFEB0D1B17BFEF042E405154AD307D4AA1D57BF354A5627EF2ACFE90DEE892A47503E03F90F08F5A32AF09B6087C961624F51826432CE450ADF3843A737C463E878D5537FB7BEFC41B3B9EBBD4B78C2D91AAA9F8067D786B62F5B7006FE33
311
089F8BB1356D13128EB4F1C03200A449E2F01C43C8C3F1FEE0066B64396465EC223CF06032D47DC6A73FB0629028AA935AEF0C589EA4C52B123460AB1809350CF9AD82473F7D97CEAA83EDB24BF04E7F0A5DEF569BF79B52C424A40F36A65734661953287147DEB415EA60DEB1E889BE7CCB450443BFC77BD3C63BB54749A0
311
AD31D7C027754ED73FC7933B0784D897E43ADDF83F380146E8C2DA92FFC06448392719CDCBFADC57EB07CA86815807BB667253608E8505A43133273188221D0A5668109B6AD524CDFE05EBBEAC3F80916EB078F993BCB4B3D7FE987BC39CE762B77FD999B47416EAAF5D6E5B0C065A0AE85E05491DFF16F45DC4E2B8944882
311
6770FDBA5EB67DA7D30252442DD544CB04F623B888B0A4ADE5A25A0B824A9A673B86BA89B83B7B405B3E20B50CA8045ED258521EEF18E765BA8B194735DAA5A4B800C7FFD77F5FA6C58EA47999A90BB23BAAA33A7475EFB0577E232A7C74834DF5EE2D907B231A5D2083AE2567B0EABA76B558CEE6F3BBDE647C3FEB4D66B3
311
69EF6636F77AF3C570BA984E47F39937A9FD643409FCBAD4B4231A5E4269F34BC1ACFBBEAC113F3609B8C1035172FBCE8467FDFEB2EEA317F607D8837AD96CBC8B9ED1F7D1E8C7028E2BCF0A5AA705A729CD14D131F4A03FF867823EA3A38C195FA724A15748F9F86E73620C46AED8F749C73BFD76B2D78E2E75409E15A21E
311
CB749F11C64F362606C97E912516BFDA27CDDB149AFA57FF59C7A03395396711F260E424344FA94236BCA20889944A50AFDDD347F6EE71C5EE67D3212AB2E7B4D6E491A049E61261016A95A1EA8E3BBFA0A9D37DD5AD8B72DB7FC2C3660AD701676E5D34E98A8554F6F728D0BA15AA84834BED4E1E8D3FC9128E5EDB6C6AFE
311
9B5D1A9B4E496E965CD33F59BB4C0AB706208D14E81BD010C13B9532815FE966E7C3FF6478AD8E43143EF7A56A6C390E34C654C720448D51F6B68026E6C91E7D40A0BE6E96D7AFD67410B9EA96F52A098CD49E2222A96E0A5A3FABD2DDEAD3001D8AB3FEE814BC4CE0CBEB25F50405994B1DE06011586165164481AACBDFB7
311
9F448E9B6CEADC3350C0F9F5307FF3DB7699A7699E99A1ED9DBD0F3B9B47DC6EA32D9203D5D712B91D0DBDD1B6BA0ED81BCA6E4F24ED93483E61009E15AC01BAE37EF0D2DC195187CC44B36EA05D71C2D0F5CAB1850D99B65EDFCEAD1A1C341E19751043FA4AA923A6BDA078F54630A8964205815E3EF817504B0304140006
311
080000D9088847000000000000000000000000350000006662782F37313241343441372D353635332D344237312D393433372D3746443736413341363641422F76657274696365732E62696E504B0304140006080800D9088847F270F1330600000004000000360000006662782F37313241343441372D353635332D344237
311
312D393433372D3746443736413341363641422F747269616E676C65732E62696E636660600000504B0304140006080000D9088847000000000000000000000000370000006662782F37313241343441372D353635332D344237312D393433372D3746443736413341363641422F617474726962757465732E62696E504B03
311
04140006080800D9088847D5987DFC8F00000041010000360000006662782F37313241343441372D353635332D344237312D393433372D3746443736413341363641422F6469726563746F72792E786D6C858F410EC2201045AF4266AF15DDB800BA74E7C21B903225242D6328188F2FA5C4183471359997F9FF81E89FF3C4
311
1E1816475E02DF1F80A11FC8386F25A438EECEC07A250251FC3803E6F58C12560C4AD840E95E91C151A72936F496F35732D860FE635F62C8F2DA16B505C545B74125BAA2FA9E05D7CC053D063734D5C7665FD55B6B8D15D5E9BFEAFD8490FFA45E504B0304140006080800D90888475D26D56AFF000000A00100003B000000
311
6662782F37313241343441372D353635332D344237312D393433372D3746443736413341363641422F7265736F75726365732F636F72652E786D6C8D504B6E833010BD0A9A6D65B0092424328EE23639412F6099496A25D8C89FAAC7AF09546A77DDCC8CDE47F3F4F8F16B7C149FE88371B607565228D06A37187BEB21C52B
311
E9A0380AEE9D8BBF64505835620F330C82DFBC4BD30A696723DA9851EB065C4115024628F4231F3D04FD81A32A558A5911EEE5A4F45DDDB06465A6B34EF0107D0E502C4FE609C26370C96B0CBC5A58C15332C3AA3143FE69AE063D88F624B752BE36E4B43BEF48D39C6BD2C98B24A7EEF2C6F64C3672D3F26A360B1ECDF893
311
517B5411071035652D6135A1DD3B6507BA3DB4EC85EE0F94F26A96FF31A569F8A729191B37F51A77B105102C0779128257735F793DCBCC7BEE567C03504B010214000A0000080000D90888473DEE336E79000000790000001B00000000000000000000000000000000006175746F6465736B2D64657369676E2D7061636B61
311
67652E786D6C504B01021400140006080800D9088847D486FD9CA0000000F40000001300000000000000000000000000B20000005B436F6E74656E745F54797065735D2E786D6C504B01021400140006080800D90888474E8DFBF2EC0000007C010000080000000000000000000000000083010000636F72652E786D6C504B
311
01021400140006080800D908884755019EA25F0000007C000000070000000000000000000000000095020000636E782E786D6C504B01021400140006080800D90888479FDDA8CC68010000020300000C00000000000000000000000000190300006662782F636F72652E786D6C504B01021400140006080800D90888471717
311
F8287D0000009D0000000B00000000000000000000000000AB0400006662782F636E782E786D6C504B01021400140006080800D9088847A2EB03502B010000150200003100000000000000000000000000510500006662782F37313241343441372D353635332D344237312D393433372D3746443736413341363641422F63
311
6F72652E786D6C504B01021400140006080800D9088847F5F95E034E010000330300003000000000000000000000000000CB0600006662782F37313241343441372D353635332D344237312D393433372D3746443736413341363641422F636E782E786D6C504B01021400140006080800D90888475BA6A8E9A30500008110
311
00003400000000000000000000000000670800006662782F37313241343441372D353635332D344237312D393433372D3746443736413341363641422F6F626A656374732E786D6C504B01021400140006080000D908884700000000000000000000000035000000000000000000000000005C0E00006662782F3731324134
311
3441372D353635332D344237312D393433372D3746443736413341363641422F76657274696365732E62696E504B01021400140006080800D9088847F270F13306000000040000003600000000000000000000000000AF0E00006662782F37313241343441372D353635332D344237312D393433372D374644373641334136
311
3641422F747269616E676C65732E62696E504B01021400140006080000D90888470000000000000000000000003700000000000000000000000000090F00006662782F37313241343441372D353635332D344237312D393433372D3746443736413341363641422F617474726962757465732E62696E504B01021400140006
311
080800D9088847D5987DFC8F0000004101000036000000000000000000000000005E0F00006662782F37313241343441372D353635332D344237312D393433372D3746443736413341363641422F6469726563746F72792E786D6C504B01021400140006080800D90888475D26D56AFF000000A00100003B00000000000000
311
000000000000411000006662782F37313241343441372D353635332D344237312D393433372D3746443736413341363641422F7265736F75726365732F636F72652E786D6C504B0506000000000E000E0080040000991100000000
310
504B03040A0000080000D90888473DEE336E79000000790000001B0000006175746F6465736B2D64657369676E2D7061636B6167652E786D6C3C3F786D6C2076657273696F6E3D22312E302220656E636F64696E673D227574662D3822203F3E3C666F726D6174733E3C666F726D61743E687474703A2F2F736368656D612E
310
6175746F6465736B2E636F6D2F64657369676E2D7061636B6167652F323030393C2F666F726D61743E3C2F666F726D6174733E504B0304140006080800D9088847D486FD9CA0000000F4000000130000005B436F6E74656E745F54797065735D2E786D6C7D8EC10E82300C865F65E91D8A1E8C310C0EEA1BF002731658846E
310
D98AC1B77784ABF1D8FE5FBFBF75BBCE937A534CCEB38643598122B6FEE978D0B0485F9C41B54DDD7D022595594E1A469170414C76A4D9A4D207E29CF43ECE46F218070CC6BECC4078ACAA135ACF422C856C0E68EA1BF5669944DDD7BCDE7B1F8E415D77AECB980613C2E4AC91FC167A2B244592486606FC29C8FD7F045B9A
310
EF7053A7E60B504B0304140006080800D9088847449ADEA6EC0000007C01000008000000636F72652E786D6C8D90416EC3201045AF82665B61038DEDD8C244B5939CA01740983828315806AA1EBF3871A476D7D58CFEFC3733FAFCF03DDDD1975EBC71B6059A1140DA2A37183BB610C305EF011D045F9C0BBF6C80AC9C740B
310
AB0C828F8B8BF326296783B621A9D60D7A13A5F73A0052F7D4B4E0D5554F3293312487BF65B3543739EA8CBEBA04C76806F43C6286B4CF5C8C5E4094DD9EF4655560569F4F7857ED2AFC71EA19AE3B529ED9B1EB5975E4F90A0B1ECCF4BAAF162D831E4030420B4C1926FB4F421B5236057D23754308CF57FB1F28CEC33FA1
310
686C7867DBBB4FCC83A0E991C740F07CCD22954750A9AEB9891F504B0304140006080800D908884755019EA25F0000007C00000007000000636E782E786D6C4DCB3B0E80201045D1AD90E915ED2CF8AC45050C11660C8261F98AB1B07AC9C97D42D718D865D3E909258CFD00CCE24AC6E326A164D74DC0B4128928FF326038
310
472BA13128B1252AC747C6BAB984FC68F0B87FE8960A5C09FE86CFB69FBA01504B0304140006080800D9088847323453C468010000020300000C0000006662782F636F72652E786D6C8D52ED8E8320107C15C2DF8B825EAB6D8334D7AF27B817A04A3D52058360FAF8B77E345E2F4DD3982099D9D99D1D65DB5B5DA14EDA56
310
199DE128A418499D9B42E932C3DE5D8215465BCEAC31EE4F19465AD432C33D8C392BADF1CD04E5463BA91DA0DA14720245DB4A87515EC125C36DFE236B110AEFA0A2BD868DC8AFA2946114020D759CB5CE8201340EE94FCC2FE71B2323CE99F7AA985855C0347551D2629EEC56749FA4CB205E9F8EC1225DA4C1D7711F07EB
310
1D4D4EF161B78FD30323BD9833A7EABBBBDC4AE16481794CA36510C5015D7DD3684393CD32FAA0EB0DA58CF4E50F22DF146F8ABCD2EE339EEC8EB216F3088C0CC4BF6D2122875AD1811FC219E94384D790F063D0100884ECC4B9BAEF7105A893B93376014C61FC4C75A2F212A652343C8C8C2C741E1AC0664FFBC42FFABCEE
310
011F50E812AC0907D7B377FD74364E9DA268A40D3A7743DAD85A54B3B9D1E27CCE839ECA735319FB8E9A4CAB92294CD2FFBDFC17504B0304140006080800D908884794A32F067D0000009D0000000B0000006662782F636E782E786D6C4DCCD10A83201886E15B91FFDCA5A9E4400D19751FB12C64A6C3E9D8E5AF46073BFA
310
E0E1E355FD670BE8EDF2CBA7A8815E082017EF69F671D550CB8225A0DEA89C52F9BB018AD3E6341C0C46AD39D5E749B35BA61ACAAEC1C7C789420CD60E42624B5A8639A3125F05BF61C6A925632768DB8DD018D5FC4AFB1E61F305504B0304140006080800D9088847BD28665E2B01000015020000310000006662782F3535
310
4541414535382D413032332D343331382D393534432D3334314130463735313237462F636F72652E786D6C8D51ED6AC320147D15F157C730D124B669319630DA27D80BD8683369A3C18FD1C79F2E296CFF0AE29573CF39F7E065C7C77407DFCA796D4D074981215066B0529BB183315C510BC19133676DF84383C088497530
310
C390B3D1D938AFD0604D502624D458A9565078AF0204C33D3D3AE8872F358942C49018FE56CC62B8895115A448EDC4E3CC079702806548BE21A7F4D4F727DAA21E57356A6AD2A23D6D3E50DD901E9F779454BB332B172167316AB9CAB54C71F4552BF7AA49167316F4F48C3F3825829290579850442A84DB4F4C0E787BA0E4
310
1DEF0F18B332D3FF89E22C5F14456D425DAD711799879CB0726970266DBCDC9F61D463B62E803C6FE3D5F006392E30DEA7D39286950B37FD4032DD36ABA90FD6A51FDEDC2E895EAFCEDB86B3322F2995DF0DA69A17CA7F00504B0304140006080800D9088847935E91145601000033030000300000006662782F3535454141
310
4535382D413032332D343331382D393534432D3334314130463735313237462F636E782E786D6CBD93CD6EC32010845F0571ADFC437E2C37C244EAA14FD043AF1836098D0D16E0AA79FB2E094973C9A152D50BB2668799D527CCB75FE3403EC107E36C475959530256396DECBEA373DC152D255BC1BD73F1CE468995237434
310
C954F0BD77F394250D3B390F11D5C1D863163D04377B0501E574930C4EC90103C016338A30F6A035687233E2D70E3CAE82627F22F100E4F5E59DB8FE03540CBC4A298257A943F074E6A63B13256A90217434A8038CB29473741AC2B1D432CA9295D7AE073BFD249174E15A397B43527947D34945DEA8448EBCC2A1E0217AA4
310
974DF1340115729A06A36444C8D5D978F1083E1B1B9B55F61A04EFD1BD5C346D8B61E799E0D18C901DCA838CA0A958D46C5DB04551B76F35DBD4CD66CD9EEAE74D5DF32AD905EF9D1BF2258C01EF26A29C8D6023158C5769FC085FF6116D3CB276FEF40B900820B75EE8DC32FE920F6B96ABD53FF2A9CEEF1B7179FC0BC437
310
504B0304140006080800D90888473F8DB37A640700009A1B0000340000006662782F35354541414535382D413032332D343331382D393534432D3334314130463735313237462F6F626A656374732E786D6CED59DD73A33610FF5718FAD23E189BD8BE381D4227712E379E6BEE6EEA5EA70F9E616490891A211849E4E2FEF5
310
5D7D80819804B7E9DB3DD8809056BBBFFDD412FCF29451E71173417276E9FADEC475308BF384B0F4D22DE56EB4709D5FC280E7B96C4C731D86327CE9AA61370C529E97851D4AF00E955476466FAFFF74448C19769D9822212E5D11DFE30C79A8947982C583972089BC74F7E4F99E99D8269B7254DC77881688632681531867
310
40C5314CF9EDC7893B0E83B17A1F06EADFCE9A0E9A35EB9F35D652B7B9244C48C4E2672C75C84C07B134F56737EFCFE617A3F96C361DCDDE9DF9A3EBDBEB9B917F3E9D2CDF2D971757EF2F80BD6D9E532B53820BCC12D0DFDE0DFD60ACDED4A25B048E711DE78CE15803095069B1BA040916B05503BE49FBD15712355E6B09
310
1BCF33F5DEB2D0189EB6A9F4CD1A06448B2E0862B7AB24AEAE4DF9F2ED5F20B81862945C6009DC0AC941BB161E0E5EE18693606C46C3607BD005114E8624E6045187922D471C940253D59430300B2C19E51C1C48394A02AD39F3BA6D5BE099AFBBCE312E7725A5CA33DC503B5604EE87A5D09C91BF313F70DF44067802694B
310
C2E4C27229F70576C38B60AC07C3405DA667F6A501D2D951940A8D8879DB1174A95C7F75E3861F6FB74F6B150E8E6F5EF0BCC05C2AA3537AD47C8121DBAB42C96EEB0FD29C5A00C21850EDCA0328BF01F29F207A1C5801BD71F2347B9AD9B99223267639CF4037CEC4194DE06FE2F8FA5FDD37EE8271BDB8ADBD3E3CC14D15
310
548BFF8E675B068D95E5BF0167183C82C1E77C6A5FAD6344C19EEF08038094913834872108EDBBED931BAE207042A0875588863E880CEC3EC26D30B6640E5AA9DCCB7A1D0344ED1ED3214A02D8B445021B3D7AFA00D98393F8A0A6A6887DF0CEDFC45CAF6ED61FD725DFA118DF599FBEC13BC28884AC799CA116E62D891EF0
310
FE5BCE1310F439DEEB26DE99DD4A00DA0A73057C5A81A01E0E3BB73688615D9AAB7013BCB20308A1727583FE1D1131A614319C97D5BE757453865A7BBCAD19DCF0CC403C3DEB9830C78F445515E03487192D4621EFC79C140A4437FC6024AB83A6D723DDD7D527B0C87A7ECFAC1583D0CB10FD5D07AD2338B42CBB42DA0251
310
0BBC3D84F338A7398FB6FBC8443A176A0960A3ED2D7FB48842AC374A5254C083B4DF55212535D24609D9ED4A0171F5088B7FAC964D739878537FEE34FF3BCE3883680BBE8BB8F5BBCE1E11C9508AA31D4AFAB66BEE56D3169A640F698E7714E4228F44EE2324A34982D353A03989F8C59B524F692E04615840BE3A0A7E138D
310
890781C468B3625969B5033411518625A2A720A0C8F480ABD38EAE7163281D5EE7B1B6DE9734D624FA3F590447504BE62C22508A420E799571DF9B430C69A36B50EEE00BD656D1D662D0124A88781F7DC324BD97A7A06EC8F7E01EC391A494515EA018CC7A00D967BEA294DAE17D8BE207953FA2B8A46F652002D35D44282D
310
B3087E84C1C963886BD781E945141AC44DEC933883A20CC9920FD9E4DD7CF26C1F533374436063A31DA110B6A30C153DA8B702A2AE479C1A7C4BBD47A9DB322B2294E5251B6428DEB4EB4D967C57AD8AEC407E55A908656345D8120C03C2649D55AB980DA6AE032BB8910E54FB48A0ACA0E614F64AE2F16B6FD2947B37E0D6
310
4FDF76830C0ABF1EED3523EAAC82C1F2D82A0CC43724E37B375CEBEBE81AEAEF042787545FD59ACD0A10105391BCE4C4AAE8EB0ACA1B5BA3B9E11D9262F3C164DDEAFA75E541F72318C31AA85DEA852B0574869944AA32B95337F4370421B845C38CAF544E3D85CA5592E8AA11D15BD2A7CE5619D1DA34235E718F599EC18F
310
6D088B6999E00D4AC443742769B4268A752BA597910AE31705FCFC61DD8107460688F4451578F85B67AD1D5DAA72E92811795F665B860804C19668A9D18D57B0D46AA4D2727D55670AA8BBC0C0AC8A67DF4F16CD76C4F793456A0DE33F9D2CAEF7BFA27DB32FD248E7B1B2EB938E01757E5254DEE218A0DB0E35D53A8B9864
310
6EE5B7CE144150ACA2FCE06AAC0A1A86601FC7FF3A6BF76541B35D87FFD3B2B6FFACE23829ABB426AB2ED591CA75D5CC61FECDF5F27CB1B81ACDA6B7E7A3D9F9F97C7471BEF0478BEBC9FC7A3E3F5B9CFBB31A4DEDA8615007339DBBE0D904B56A583D590CA02B2B724A1238CD274E8A21E64B38D30F689FF30C0B489ECD66
310
77629BF203563F9A3EA7445B8A2B4EEE113488A980B40E1895B16C8F3B3F406B52C241FBD285A691F7007FD62A5D0732CFA50BAD0249622CBC2DB49954434F138794AB73BF2506F82096AA946816D5CFF52A854D2BFCD75386A4012B57AB8701855B01DDAF568742F366798A4F12BC62C741126EB7A5846ACDC87218A885D1
310
DB1CD46F64A3843DD8AD9FC0755F16CBF7F49C1622833E19BC680486EA48229EEA7EB762CCB27475F3650C7D3667F5D9296899822E87531A710CC65CAA820AAC08ACC2D22C9004535DFEBCF9C273F8C49339BA2A727E7C5ABCFB69B3CCB32C6766687305A7B2043E1439EB7BF8EC936CA078C0AAB92E366713FF6CA39BDAB6
310
CF1E6D91C09EAA8A60A02A2694201D9303BB7CD6A0B2EDCBB1524567FAEAC6B141149A01C68E9EF578CD472E077C487D4E511EA3FDBC92F6C5BEF6584F059BE0D0910EFF01504B0304140006080000D9088847000000000000000000000000350000006662782F35354541414535382D413032332D343331382D393534432D
310
3334314130463735313237462F76657274696365732E62696E504B0304140006080800D9088847F270F1330600000004000000360000006662782F35354541414535382D413032332D343331382D393534432D3334314130463735313237462F747269616E676C65732E62696E636660600000504B0304140006080000D908
310
8847000000000000000000000000370000006662782F35354541414535382D413032332D343331382D393534432D3334314130463735313237462F617474726962757465732E62696E504B0304140006080800D9088847D5987DFC8F00000041010000360000006662782F35354541414535382D413032332D343331382D39
310
3534432D3334314130463735313237462F6469726563746F72792E786D6C858F410EC2201045AF4266AF15DDB800BA74E7C21B903225242D6328188F2FA5C4183471359997F9FF81E89FF3C41E1816475E02DF1F80A11FC8386F25A438EECEC07A250251FC3803E6F58C12560C4AD840E95E91C151A72936F496F35732D860
310
FE635F62C8F2DA16B505C545B74125BAA2FA9E05D7CC053D063734D5C7665FD55B6B8D15D5E9BFEAFD8490FFA45E504B0304140006080800D90888475731F03EFF000000A00100003B0000006662782F35354541414535382D413032332D343331382D393534432D3334314130463735313237462F7265736F75726365732F
310
636F72652E786D6C8D504B6E833010BD0A9A6D65B05D0221328E1A929CA017B0CC845A0976E44FD5E3D724546A77DDCC8CDE47F3F4C4FE6BBE159FE88371B607565228D06A371A3BF590E2856CA1D84BE19D8BBF64505835630F0B0C524CDEA5FB0A696723DA9851EB465C4115024628F42D1F3D04FD81B32A558A5911AEE5
310
5DE9AB9AB06465A6B34E8A107D0E503C9F2C13A4C7E092D71844F564A548C98CABC68CF9A7B918F4209BC3960E4D5B13DE9D4FA46EEB96BC9D064EBA036DCEFC7818787B14D56296229AF927A3F6A8228E2039651BC238A1DB77CA76B4D96DD80BED76948A6A91FF31A5FBF84F533236BEF235EED31640B21CE44148512D7D
310
E5F52833EFA55BF90D504B010214000A0000080000D90888473DEE336E79000000790000001B00000000000000000000000000000000006175746F6465736B2D64657369676E2D7061636B6167652E786D6C504B01021400140006080800D9088847D486FD9CA0000000F40000001300000000000000000000000000B20000
310
005B436F6E74656E745F54797065735D2E786D6C504B01021400140006080800D9088847449ADEA6EC0000007C010000080000000000000000000000000083010000636F72652E786D6C504B01021400140006080800D908884755019EA25F0000007C000000070000000000000000000000000095020000636E782E786D6C
310
504B01021400140006080800D9088847323453C468010000020300000C00000000000000000000000000190300006662782F636F72652E786D6C504B01021400140006080800D908884794A32F067D0000009D0000000B00000000000000000000000000AB0400006662782F636E782E786D6C504B01021400140006080800
310
D9088847BD28665E2B010000150200003100000000000000000000000000510500006662782F35354541414535382D413032332D343331382D393534432D3334314130463735313237462F636F72652E786D6C504B01021400140006080800D9088847935E911456010000330300003000000000000000000000000000CB06
310
00006662782F35354541414535382D413032332D343331382D393534432D3334314130463735313237462F636E782E786D6C504B01021400140006080800D90888473F8DB37A640700009A1B000034000000000000000000000000006F0800006662782F35354541414535382D413032332D343331382D393534432D333431
310
4130463735313237462F6F626A656374732E786D6C504B01021400140006080000D90888470000000000000000000000003500000000000000000000000000251000006662782F35354541414535382D413032332D343331382D393534432D3334314130463735313237462F76657274696365732E62696E504B0102140014
310
0006080800D9088847F270F13306000000040000003600000000000000000000000000781000006662782F35354541414535382D413032332D343331382D393534432D3334314130463735313237462F747269616E676C65732E62696E504B01021400140006080000D9088847000000000000000000000000370000000000
310
0000000000000000D21000006662782F35354541414535382D413032332D343331382D393534432D3334314130463735313237462F617474726962757465732E62696E504B01021400140006080800D9088847D5987DFC8F000000410100003600000000000000000000000000271100006662782F35354541414535382D41
310
3032332D343331382D393534432D3334314130463735313237462F6469726563746F72792E786D6C504B01021400140006080800D90888475731F03EFF000000A00100003B000000000000000000000000000A1200006662782F35354541414535382D413032332D343331382D393534432D3334314130463735313237462F
310
7265736F75726365732F636F72652E786D6C504B0506000000000E000E0080040000621300000000
  0
XRECORD
  5
17
102
{ACAD_REACTORS
330
12
102
}
330
12
100
AcDbXrecord
280
     1
270
     1
271
     1
  0
XRECORD
  5
16
102
{ACAD_REACTORS
330
12
102
}
330
12
100
AcDbXrecord
280
     1
270
     1
271
     1
  0
XRECORD
  5
18
102
{ACAD_REACTORS
330
12
102
}
330
12
100
AcDbXrecord
280
     1
270
     1
271
     1
  0
XRECORD
  5
15
102
{ACAD_REACTORS
330
12
102
}
330
12
100
AcDbXrecord
280
     1
270
     1
271
     1
  0
XRECORD
  5
2FF
102
{ACAD_REACTORS
330
22
102
}
330
22
100
AcDbXrecord
280
     1
102
MATERIAL
148
0.0
149
0.0
149
0.0
 93
        0
 94
      127
282
     0
 72
     0
 77
     0
171
     0
175
     0
179
     0
273
     0
  0
XRECORD
  5
24
102
{ACAD_REACTORS
330
22
102
}
330
22
100
AcDbXrecord
280
     1
270
     1
271
     1
  0
XRECORD
  5
23
102
{ACAD_REACTORS
330
22
102
}
330
22
100
AcDbXrecord
280
     1
270
     1
271
     1
  0
XRECORD
  5
27
102
{ACAD_REACTORS
330
22
102
}
330
22
100
AcDbXrecord
280
     1
270
     1
271
     1
  0
XRECORD
  5
26
102
{ACAD_REACTORS
330
22
102
}
330
22
100
AcDbXrecord
280
     1
270
     1
271
     1
  0
XRECORD
  5
28
102
{ACAD_REACTORS
330
22
102
}
330
22
100
AcDbXrecord
280
     1
270
     1
271
     1
  0
XRECORD
  5
25
102
{ACAD_REACTORS
330
22
102
}
330
22
100
AcDbXrecord
280
     1
270
     1
271
     1
  0
XRECORD
  5
2F5
102
{ACAD_REACTORS
330
2F4
102
}
330
2F4
100
AcDbXrecord
280
     1
102
ACAD_ROUNDTRIP_2012_MLEADER_STYLE
298
     1
  0
CELLSTYLEMAP
  5
2F3
102
{ACAD_REACTORS
330
2F2
102
}
330
2F2
100
AcDbCellStyleMap
 90
        3
300
CELLSTYLE
  1
TABLEFORMAT_BEGIN
 90
        5
170
     1
 91
        0
 92
    32768
 62
   257
 93
        1
300
CONTENTFORMAT
  1
CONTENTFORMAT_BEGIN
 90
        0
 91
        0
 92
      512
 93
        0
300

 40
0.0
140
1.0
 94
        5
 62
     0
340
55
144
0.25
309
CONTENTFORMAT_END
171
     0
 94
        0
309
TABLEFORMAT_END
  1
CELLSTYLE_BEGIN
 90
        1
 91
        1
300
_TITLE
309
CELLSTYLE_END
300
CELLSTYLE
  1
TABLEFORMAT_BEGIN
 90
        5
170
     1
 91
        0
 92
        0
 62
   257
 93
        1
300
CONTENTFORMAT
  1
CONTENTFORMAT_BEGIN
 90
        0
 91
        0
 92
      512
 93
        0
300

 40
0.0
140
1.0
 94
        5
 62
     0
340
55
144
0.18
309
CONTENTFORMAT_END
171
     0
 94
        0
309
TABLEFORMAT_END
  1
CELLSTYLE_BEGIN
 90
        2
 91
        1
300
_HEADER
309
CELLSTYLE_END
300
CELLSTYLE
  1
TABLEFORMAT_BEGIN
 90
        5
170
     1
 91
        0
 92
        0
 62
   257
 93
        1
300
CONTENTFORMAT
  1
CONTENTFORMAT_BEGIN
 90
        0
 91
        0
 92
      512
 93
        0
300

 40
0.0
140
1.0
 94
        2
 62
     0
340
55
144
0.18
309
CONTENTFORMAT_END
171
     0
 94
        0
309
TABLEFORMAT_END
  1
CELLSTYLE_BEGIN
 90
        3
 91
        2
300
_DATA
309
CELLSTYLE_END
  0
XRECORD
  5
330
102
{ACAD_REACTORS
330
2F2
102
}
330
2F2
100
AcDbXrecord
280
     1
102
ACAD_ROUNDTRIP_PRE2007_TABLESTYLE
 90
      512
 91
        0
  1

 92
      512
 93
        0
  2

 94
      512
 95
        0
  3

  0
XRECORD
  5
30B
102
{ACAD_REACTORS
330
30A
102
}
330
30A
100
AcDbXrecord
280
     1
102
RTVSPropertyOp0
 70
     1
102
RTVSPropertyOp1
 70
     1
102
RTVSPropertyOp2
 70
     1
102
RTVSPropertyOp3
 70
     1
102
RTVSPropertyOp4
 70
     1
102
RTVSPropertyOp5
 70
     1
102
RTVSPropertyOp6
 70
     1
102
RTVSPropertyOp7
 70
     1
102
RTVSPropertyOp8
 70
     1
102
RTVSPropertyOp9
 70
     1
102
RTVSPropertyOp10
 70
     1
102
RTVSPropertyOp11
 70
     1
102
RTVSPropertyOp12
 70
     1
102
RTVSPropertyOp13
 70
     1
102
RTVSPropertyOp14
 70
     1
102
RTVSPropertyOp15
 70
     1
102
RTVSPropertyOp16
 70
     1
102
RTVSPropertyOp17
 70
     1
102
RTVSPropertyOp18
 70
     1
102
RTVSPropertyOp19
 70
     1
102
RTVSPropertyOp20
 70
     1
102
RTVSPropertyOp21
 70
     1
102
RTVSPropertyOp22
 70
     1
102
RTVSPropertyOp23
 70
     1
102
RTVSPropertyOp24
 70
     1
102
RTVSPropertyOp25
 70
     1
102
RTVSPropertyOp26
 70
     1
102
RTVSPropertyOp27
 70
     1
102
RTVSPropertyOp28
 70
     1
102
RTVSPropertyOp29
 70
     1
102
RTVSPropertyOp30
 70
     1
102
RTVSPropertyOp31
 70
     1
102
RTVSPropertyOp32
 70
     1
  0
XRECORD
  5
309
102
{ACAD_REACTORS
330
308
102
}
330
308
100
AcDbXrecord
280
     1
102
RTVSPropertyOp0
 70
     1
102
RTVSPropertyOp1
 70
     1
102
RTVSPropertyOp2
 70
     1
102
RTVSPropertyOp3
 70
     1
102
RTVSPropertyOp4
 70
     1
102
RTVSPropertyOp5
 70
     1
102
RTVSPropertyOp6
 70
     1
102
RTVSPropertyOp7
 70
     1
102
RTVSPropertyOp8
 70
     1
102
RTVSPropertyOp9
 70
     1
102
RTVSPropertyOp10
 70
     1
102
RTVSPropertyOp11
 70
     1
102
RTVSPropertyOp12
 70
     1
102
RTVSPropertyOp13
 70
     1
102
RTVSPropertyOp14
 70
     1
102
RTVSPropertyOp15
 70
     1
102
RTVSPropertyOp16
 70
     1
102
RTVSPropertyOp17
 70
     1
102
RTVSPropertyOp18
 70
     1
102
RTVSPropertyOp19
 70
     1
102
RTVSPropertyOp20
 70
     1
102
RTVSPropertyOp21
 70
     1
102
RTVSPropertyOp22
 70
     1
102
RTVSPropertyOp23
 70
     1
102
RTVSPropertyOp24
 70
     1
102
RTVSPropertyOp25
 70
     1
102
RTVSPropertyOp26
 70
     1
102
RTVSPropertyOp27
 70
     1
102
RTVSPropertyOp28
 70
     1
102
RTVSPropertyOp29
 70
     1
102
RTVSPropertyOp30
 70
     1
102
RTVSPropertyOp31
 70
     1
102
RTVSPropertyOp32
 70
     1
  0
XRECORD
  5
317
102
{ACAD_REACTORS
330
316
102
}
330
316
100
AcDbXrecord
280
     1
102
RTVSPropertyOp0
 70
     1
102
RTVSPropertyOp1
 70
     1
102
RTVSPropertyOp2
 70
     1
102
RTVSPropertyOp3
 70
     1
102
RTVSPropertyOp4
 70
     1
102
RTVSPropertyOp5
 70
     1
102
RTVSPropertyOp6
 70
     1
102
RTVSPropertyOp7
 70
     1
102
RTVSPropertyOp8
 70
     1
102
RTVSPropertyOp9
 70
     1
102
RTVSPropertyOp10
 70
     1
102
RTVSPropertyOp11
 70
     1
102
RTVSPropertyOp12
 70
     1
102
RTVSPropertyOp13
 70
     1
102
RTVSPropertyOp14
 70
     1
102
RTVSPropertyOp15
 70
     1
102
RTVSPropertyOp16
 70
     1
102
RTVSPropertyOp17
 70
     1
102
RTVSPropertyOp18
 70
     1
102
RTVSPropertyOp19
 70
     1
102
RTVSPropertyOp20
 70
     1
102
RTVSPropertyOp21
 70
     1
102
RTVSPropertyOp22
 70
     1
102
RTVSPropertyOp23
 70
     1
102
RTVSPropertyOp24
 70
     1
102
RTVSPropertyOp25
 70
     1
102
RTVSPropertyOp26
 70
     1
102
RTVSPropertyOp27
 70
     1
102
RTVSPropertyOp28
 70
     1
102
RTVSPropertyOp29
 70
     1
102
RTVSPropertyOp30
 70
     1
102
RTVSPropertyOp31
 70
     1
102
RTVSPropertyOp32
 70
     1
  0
XRECORD
  5
31F
102
{ACAD_REACTORS
330
31E
102
}
330
31E
100
AcDbXrecord
280
     1
102
RTVSPropertyOp0
 70
     1
102
RTVSPropertyOp1
 70
     1
102
RTVSPropertyOp2
 70
     1
102
RTVSPropertyOp3
 70
     1
102
RTVSPropertyOp4
 70
     1
102
RTVSPropertyOp5
 70
     1
102
RTVSPropertyOp6
 70
     1
102
RTVSPropertyOp7
 70
     1
102
RTVSPropertyOp8
 70
     1
102
RTVSPropertyOp9
 70
     1
102
RTVSPropertyOp10
 70
     1
102
RTVSPropertyOp11
 70
     1
102
RTVSPropertyOp12
 70
     1
102
RTVSPropertyOp13
 70
     1
102
RTVSPropertyOp14
 70
     1
102
RTVSPropertyOp15
 70
     1
102
RTVSPropertyOp16
 70
     1
102
RTVSPropertyOp17
 70
     1
102
RTVSPropertyOp18
 70
     1
102
RTVSPropertyOp19
 70
     1
102
RTVSPropertyOp20
 70
     1
102
RTVSPropertyOp21
 70
     1
102
RTVSPropertyOp22
 70
     1
102
RTVSPropertyOp23
 70
     1
102
RTVSPropertyOp24
 70
     1
102
RTVSPropertyOp25
 70
     1
102
RTVSPropertyOp26
 70
     1
102
RTVSPropertyOp27
 70
     1
102
RTVSPropertyOp28
 70
     1
102
RTVSPropertyOp29
 70
     1
102
RTVSPropertyOp30
 70
     1
102
RTVSPropertyOp31
 70
     1
102
RTVSPropertyOp32
 70
     1
  0
XRECORD
  5
311
102
{ACAD_REACTORS
330
310
102
}
330
310
100
AcDbXrecord
280
     1
102
RTVSPropertyOp0
 70
     1
102
RTVSPropertyOp1
 70
     1
102
RTVSPropertyOp2
 70
     1
102
RTVSPropertyOp3
 70
     1
102
RTVSPropertyOp4
 70
     1
102
RTVSPropertyOp5
 70
     1
102
RTVSPropertyOp6
 70
     1
102
RTVSPropertyOp7
 70
     1
102
RTVSPropertyOp8
 70
     1
102
RTVSPropertyOp9
 70
     1
102
RTVSPropertyOp10
 70
     1
102
RTVSPropertyOp11
 70
     1
102
RTVSPropertyOp12
 70
     1
102
RTVSPropertyOp13
 70
     1
102
RTVSPropertyOp14
 70
     1
102
RTVSPropertyOp15
 70
     1
102
RTVSPropertyOp16
 70
     1
102
RTVSPropertyOp17
 70
     1
102
RTVSPropertyOp18
 70
     1
102
RTVSPropertyOp19
 70
     1
102
RTVSPropertyOp20
 70
     1
102
RTVSPropertyOp21
 70
     1
102
RTVSPropertyOp22
 70
     1
102
RTVSPropertyOp23
 70
     1
102
RTVSPropertyOp24
 70
     1
102
RTVSPropertyOp25
 70
     1
102
RTVSPropertyOp26
 70
     1
102
RTVSPropertyOp27
 70
     1
102
RTVSPropertyOp28
 70
     1
102
RTVSPropertyOp29
 70
     1
102
RTVSPropertyOp30
 70
     1
102
RTVSPropertyOp31
 70
     1
102
RTVSPropertyOp32
 70
     1
  0
XRECORD
  5
315
102
{ACAD_REACTORS
330
314
102
}
330
314
100
AcDbXrecord
280
     1
102
RTVSPropertyOp0
 70
     1
102
RTVSPropertyOp1
 70
     1
102
RTVSPropertyOp2
 70
     1
102
RTVSPropertyOp3
 70
     1
102
RTVSPropertyOp4
 70
     1
102
RTVSPropertyOp5
 70
     1
102
RTVSPropertyOp6
 70
     1
102
RTVSPropertyOp7
 70
     1
102
RTVSPropertyOp8
 70
     1
102
RTVSPropertyOp9
 70
     1
102
RTVSPropertyOp10
 70
     1
102
RTVSPropertyOp11
 70
     1
102
RTVSPropertyOp12
 70
     1
102
RTVSPropertyOp13
 70
     1
102
RTVSPropertyOp14
 70
     1
102
RTVSPropertyOp15
 70
     1
102
RTVSPropertyOp16
 70
     1
102
RTVSPropertyOp17
 70
     1
102
RTVSPropertyOp18
 70
     1
102
RTVSPropertyOp19
 70
     1
102
RTVSPropertyOp20
 70
     1
102
RTVSPropertyOp21
 70
     1
102
RTVSPropertyOp22
 70
     1
102
RTVSPropertyOp23
 70
     1
102
RTVSPropertyOp24
 70
     1
102
RTVSPropertyOp25
 70
     1
102
RTVSPropertyOp26
 70
     1
102
RTVSPropertyOp27
 70
     1
102
RTVSPropertyOp28
 70
     1
102
RTVSPropertyOp29
 70
     1
102
RTVSPropertyOp30
 70
     1
102
RTVSPropertyOp31
 70
     1
102
RTVSPropertyOp32
 70
     1
  0
XRECORD
  5
32F
102
{ACAD_REACTORS
330
32E
102
}
330
32E
100
AcDbXrecord
280
     1
102
RTVSPropertyOp0
 70
     0
102
RTVSPropertyOp1
 70
     0
102
RTVSPropertyOp2
 70
     0
102
RTVSPropertyOp3
 70
     0
102
RTVSPropertyOp4
 70
     0
102
RTVSPropertyOp5
 70
     0
102
RTVSPropertyOp6
 70
     0
102
RTVSPropertyOp7
 70
     0
102
RTVSPropertyOp8
 70
     0
102
RTVSPropertyOp9
 70
     0
102
RTVSPropertyOp10
 70
     0
102
RTVSPropertyOp11
 70
     0
102
RTVSPropertyOp12
 70
     0
102
RTVSPropertyOp13
 70
     0
102
RTVSPropertyOp14
 70
     2
102
RTVSPropertyOp15
 70
     0
102
RTVSPropertyOp16
 70
     0
102
RTVSPropertyOp17
 70
     0
102
RTVSPropertyOp18
 70
     0
102
RTVSPropertyOp19
 70
     0
102
RTVSPropertyOp20
 70
     0
102
RTVSPropertyOp21
 70
     0
102
RTVSPropertyOp22
 70
     0
102
RTVSPropertyOp23
 70
     0
102
RTVSPropertyOp24
 70
     0
102
RTVSPropertyOp25
 70
     0
102
RTVSPropertyOp26
 70
     0
102
RTVSPropertyOp27
 70
     0
102
RTVSPropertyOp28
 70
     0
102
RTVSPropertyOp29
 70
     0
102
RTVSPropertyOp30
 70
     0
102
RTVSPropertyOp31
 70
     0
102
RTVSPropertyOp32
 70
     0
  0
XRECORD
  5
31D
102
{ACAD_REACTORS
330
31C
102
}
330
31C
100
AcDbXrecord
280
     1
102
RTVSPropertyOp0
 70
     1
102
RTVSPropertyOp1
 70
     1
102
RTVSPropertyOp2
 70
     1
102
RTVSPropertyOp3
 70
     1
102
RTVSPropertyOp4
 70
     1
102
RTVSPropertyOp5
 70
     1
102
RTVSPropertyOp6
 70
     1
102
RTVSPropertyOp7
 70
     1
102
RTVSPropertyOp8
 70
     1
102
RTVSPropertyOp9
 70
     1
102
RTVSPropertyOp10
 70
     1
102
RTVSPropertyOp11
 70
     1
102
RTVSPropertyOp12
 70
     1
102
RTVSPropertyOp13
 70
     1
102
RTVSPropertyOp14
 70
     1
102
RTVSPropertyOp15
 70
     1
102
RTVSPropertyOp16
 70
     1
102
RTVSPropertyOp17
 70
     1
102
RTVSPropertyOp18
 70
     1
102
RTVSPropertyOp19
 70
     1
102
RTVSPropertyOp20
 70
     1
102
RTVSPropertyOp21
 70
     1
102
RTVSPropertyOp22
 70
     1
102
RTVSPropertyOp23
 70
     1
102
RTVSPropertyOp24
 70
     1
102
RTVSPropertyOp25
 70
     1
102
RTVSPropertyOp26
 70
     1
102
RTVSPropertyOp27
 70
     1
102
RTVSPropertyOp28
 70
     1
102
RTVSPropertyOp29
 70
     1
102
RTVSPropertyOp30
 70
     1
102
RTVSPropertyOp31
 70
     1
102
RTVSPropertyOp32
 70
     1
  0
XRECORD
  5
301
102
{ACAD_REACTORS
330
300
102
}
330
300
100
AcDbXrecord
280
     1
102
RTVSPropertyOp0
 70
     1
102
RTVSPropertyOp1
 70
     1
102
RTVSPropertyOp2
 70
     1
102
RTVSPropertyOp3
 70
     1
102
RTVSPropertyOp4
 70
     1
102
RTVSPropertyOp5
 70
     1
102
RTVSPropertyOp6
 70
     1
102
RTVSPropertyOp7
 70
     1
102
RTVSPropertyOp8
 70
     1
102
RTVSPropertyOp9
 70
     1
102
RTVSPropertyOp10
 70
     1
102
RTVSPropertyOp11
 70
     1
102
RTVSPropertyOp12
 70
     1
102
RTVSPropertyOp13
 70
     1
102
RTVSPropertyOp14
 70
     1
102
RTVSPropertyOp15
 70
     1
102
RTVSPropertyOp16
 70
     1
102
RTVSPropertyOp17
 70
     1
102
RTVSPropertyOp18
 70
     1
102
RTVSPropertyOp19
 70
     1
102
RTVSPropertyOp20
 70
     1
102
RTVSPropertyOp21
 70
     1
102
RTVSPropertyOp22
 70
     1
102
RTVSPropertyOp23
 70
     1
102
RTVSPropertyOp24
 70
     1
102
RTVSPropertyOp25
 70
     1
102
RTVSPropertyOp26
 70
     1
102
RTVSPropertyOp27
 70
     1
102
RTVSPropertyOp28
 70
     1
102
RTVSPropertyOp29
 70
     1
102
RTVSPropertyOp30
 70
     1
102
RTVSPropertyOp31
 70
     1
102
RTVSPropertyOp32
 70
     1
  0
XRECORD
  5
303
102
{ACAD_REACTORS
330
302
102
}
330
302
100
AcDbXrecord
280
     1
102
RTVSPropertyOp0
 70
     1
102
RTVSPropertyOp1
 70
     1
102
RTVSPropertyOp2
 70
     1
102
RTVSPropertyOp3
 70
     1
102
RTVSPropertyOp4
 70
     1
102
RTVSPropertyOp5
 70
     1
102
RTVSPropertyOp6
 70
     1
102
RTVSPropertyOp7
 70
     1
102
RTVSPropertyOp8
 70
     1
102
RTVSPropertyOp9
 70
     1
102
RTVSPropertyOp10
 70
     1
102
RTVSPropertyOp11
 70
     1
102
RTVSPropertyOp12
 70
     1
102
RTVSPropertyOp13
 70
     1
102
RTVSPropertyOp14
 70
     1
102
RTVSPropertyOp15
 70
     1
102
RTVSPropertyOp16
 70
     1
102
RTVSPropertyOp17
 70
     1
102
RTVSPropertyOp18
 70
     1
102
RTVSPropertyOp19
 70
     1
102
RTVSPropertyOp20
 70
     1
102
RTVSPropertyOp21
 70
     1
102
RTVSPropertyOp22
 70
     1
102
RTVSPropertyOp23
 70
     1
102
RTVSPropertyOp24
 70
     1
102
RTVSPropertyOp25
 70
     1
102
RTVSPropertyOp26
 70
     1
102
RTVSPropertyOp27
 70
     1
102
RTVSPropertyOp28
 70
     1
102
RTVSPropertyOp29
 70
     1
102
RTVSPropertyOp30
 70
     1
102
RTVSPropertyOp31
 70
     1
102
RTVSPropertyOp32
 70
     1
  0
XRECORD
  5
305
102
{ACAD_REACTORS
330
304
102
}
330
304
100
AcDbXrecord
280
     1
102
RTVSPropertyOp0
 70
     1
102
RTVSPropertyOp1
 70
     1
102
RTVSPropertyOp2
 70
     1
102
RTVSPropertyOp3
 70
     1
102
RTVSPropertyOp4
 70
     1
102
RTVSPropertyOp5
 70
     1
102
RTVSPropertyOp6
 70
     1
102
RTVSPropertyOp7
 70
     1
102
RTVSPropertyOp8
 70
     1
102
RTVSPropertyOp9
 70
     1
102
RTVSPropertyOp10
 70
     1
102
RTVSPropertyOp11
 70
     1
102
RTVSPropertyOp12
 70
     1
102
RTVSPropertyOp13
 70
     1
102
RTVSPropertyOp14
 70
     1
102
RTVSPropertyOp15
 70
     1
102
RTVSPropertyOp16
 70
     1
102
RTVSPropertyOp17
 70
     1
102
RTVSPropertyOp18
 70
     1
102
RTVSPropertyOp19
 70
     1
102
RTVSPropertyOp20
 70
     1
102
RTVSPropertyOp21
 70
     1
102
RTVSPropertyOp22
 70
     1
102
RTVSPropertyOp23
 70
     1
102
RTVSPropertyOp24
 70
     1
102
RTVSPropertyOp25
 70
     1
102
RTVSPropertyOp26
 70
     1
102
RTVSPropertyOp27
 70
     1
102
RTVSPropertyOp28
 70
     1
102
RTVSPropertyOp29
 70
     1
102
RTVSPropertyOp30
 70
     1
102
RTVSPropertyOp31
 70
     1
102
RTVSPropertyOp32
 70
     1
  0
XRECORD
  5
307
102
{ACAD_REACTORS
330
306
102
}
330
306
100
AcDbXrecord
280
     1
102
RTVSPropertyOp0
 70
     1
102
RTVSPropertyOp1
 70
     1
102
RTVSPropertyOp2
 70
     1
102
RTVSPropertyOp3
 70
     1
102
RTVSPropertyOp4
 70
     1
102
RTVSPropertyOp5
 70
     1
102
RTVSPropertyOp6
 70
     1
102
RTVSPropertyOp7
 70
     1
102
RTVSPropertyOp8
 70
     1
102
RTVSPropertyOp9
 70
     1
102
RTVSPropertyOp10
 70
     1
102
RTVSPropertyOp11
 70
     1
102
RTVSPropertyOp12
 70
     1
102
RTVSPropertyOp13
 70
     1
102
RTVSPropertyOp14
 70
     1
102
RTVSPropertyOp15
 70
     1
102
RTVSPropertyOp16
 70
     1
102
RTVSPropertyOp17
 70
     1
102
RTVSPropertyOp18
 70
     1
102
RTVSPropertyOp19
 70
     1
102
RTVSPropertyOp20
 70
     1
102
RTVSPropertyOp21
 70
     1
102
RTVSPropertyOp22
 70
     1
102
RTVSPropertyOp23
 70
     1
102
RTVSPropertyOp24
 70
     1
102
RTVSPropertyOp25
 70
     1
102
RTVSPropertyOp26
 70
     1
102
RTVSPropertyOp27
 70
     1
102
RTVSPropertyOp28
 70
     1
102
RTVSPropertyOp29
 70
     1
102
RTVSPropertyOp30
 70
     1
102
RTVSPropertyOp31
 70
     1
102
RTVSPropertyOp32
 70
     1
  0
XRECORD
  5
30F
102
{ACAD_REACTORS
330
30E
102
}
330
30E
100
AcDbXrecord
280
     1
102
RTVSPropertyOp0
 70
     1
102
RTVSPropertyOp1
 70
     1
102
RTVSPropertyOp2
 70
     1
102
RTVSPropertyOp3
 70
     1
102
RTVSPropertyOp4
 70
     1
102
RTVSPropertyOp5
 70
     1
102
RTVSPropertyOp6
 70
     1
102
RTVSPropertyOp7
 70
     1
102
RTVSPropertyOp8
 70
     1
102
RTVSPropertyOp9
 70
     1
102
RTVSPropertyOp10
 70
     1
102
RTVSPropertyOp11
 70
     1
102
RTVSPropertyOp12
 70
     1
102
RTVSPropertyOp13
 70
     1
102
RTVSPropertyOp14
 70
     1
102
RTVSPropertyOp15
 70
     1
102
RTVSPropertyOp16
 70
     1
102
RTVSPropertyOp17
 70
     1
102
RTVSPropertyOp18
 70
     1
102
RTVSPropertyOp19
 70
     1
102
RTVSPropertyOp20
 70
     1
102
RTVSPropertyOp21
 70
     1
102
RTVSPropertyOp22
 70
     1
102
RTVSPropertyOp23
 70
     1
102
RTVSPropertyOp24
 70
     1
102
RTVSPropertyOp25
 70
     1
102
RTVSPropertyOp26
 70
     1
102
RTVSPropertyOp27
 70
     1
102
RTVSPropertyOp28
 70
     1
102
RTVSPropertyOp29
 70
     1
102
RTVSPropertyOp30
 70
     1
102
RTVSPropertyOp31
 70
     1
102
RTVSPropertyOp32
 70
     1
  0
XRECORD
  5
32B
102
{ACAD_REACTORS
330
32A
102
}
330
32A
100
AcDbXrecord
280
     1
102
RTVSPropertyOp0
 70
     0
102
RTVSPropertyOp1
 70
     0
102
RTVSPropertyOp2
 70
     0
102
RTVSPropertyOp3
 70
     0
102
RTVSPropertyOp4
 70
     0
102
RTVSPropertyOp5
 70
     0
102
RTVSPropertyOp6
 70
     0
102
RTVSPropertyOp7
 70
     0
102
RTVSPropertyOp8
 70
     0
102
RTVSPropertyOp9
 70
     0
102
RTVSPropertyOp10
 70
     0
102
RTVSPropertyOp11
 70
     0
102
RTVSPropertyOp12
 70
     0
102
RTVSPropertyOp13
 70
     0
102
RTVSPropertyOp14
 70
     2
102
RTVSPropertyOp15
 70
     0
102
RTVSPropertyOp16
 70
     0
102
RTVSPropertyOp17
 70
     0
102
RTVSPropertyOp18
 70
     0
102
RTVSPropertyOp19
 70
     0
102
RTVSPropertyOp20
 70
     0
102
RTVSPropertyOp21
 70
     0
102
RTVSPropertyOp22
 70
     0
102
RTVSPropertyOp23
 70
     0
102
RTVSPropertyOp24
 70
     0
102
RTVSPropertyOp25
 70
     0
102
RTVSPropertyOp26
 70
     0
102
RTVSPropertyOp27
 70
     0
102
RTVSPropertyOp28
 70
     0
102
RTVSPropertyOp29
 70
     0
102
RTVSPropertyOp30
 70
     0
102
RTVSPropertyOp31
 70
     0
102
RTVSPropertyOp32
 70
     0
  0
XRECORD
  5
31B
102
{ACAD_REACTORS
330
31A
102
}
330
31A
100
AcDbXrecord
280
     1
102
RTVSPropertyOp0
 70
     1
102
RTVSPropertyOp1
 70
     1
102
RTVSPropertyOp2
 70
     1
102
RTVSPropertyOp3
 70
     1
102
RTVSPropertyOp4
 70
     1
102
RTVSPropertyOp5
 70
     1
102
RTVSPropertyOp6
 70
     1
102
RTVSPropertyOp7
 70
     1
102
RTVSPropertyOp8
 70
     1
102
RTVSPropertyOp9
 70
     1
102
RTVSPropertyOp10
 70
     1
102
RTVSPropertyOp11
 70
     1
102
RTVSPropertyOp12
 70
     1
102
RTVSPropertyOp13
 70
     1
102
RTVSPropertyOp14
 70
     1
102
RTVSPropertyOp15
 70
     1
102
RTVSPropertyOp16
 70
     1
102
RTVSPropertyOp17
 70
     1
102
RTVSPropertyOp18
 70
     1
102
RTVSPropertyOp19
 70
     1
102
RTVSPropertyOp20
 70
     1
102
RTVSPropertyOp21
 70
     1
102
RTVSPropertyOp22
 70
     1
102
RTVSPropertyOp23
 70
     1
102
RTVSPropertyOp24
 70
     1
102
RTVSPropertyOp25
 70
     1
102
RTVSPropertyOp26
 70
     1
102
RTVSPropertyOp27
 70
     1
102
RTVSPropertyOp28
 70
     1
102
RTVSPropertyOp29
 70
     1
102
RTVSPropertyOp30
 70
     1
102
RTVSPropertyOp31
 70
     1
102
RTVSPropertyOp32
 70
     1
  0
XRECORD
  5
32D
102
{ACAD_REACTORS
330
32C
102
}
330
32C
100
AcDbXrecord
280
     1
102
RTVSPropertyOp0
 70
     0
102
RTVSPropertyOp1
 70
     0
102
RTVSPropertyOp2
 70
     0
102
RTVSPropertyOp3
 70
     0
102
RTVSPropertyOp4
 70
     0
102
RTVSPropertyOp5
 70
     0
102
RTVSPropertyOp6
 70
     0
102
RTVSPropertyOp7
 70
     0
102
RTVSPropertyOp8
 70
     0
102
RTVSPropertyOp9
 70
     0
102
RTVSPropertyOp10
 70
     0
102
RTVSPropertyOp11
 70
     0
102
RTVSPropertyOp12
 70
     0
102
RTVSPropertyOp13
 70
     0
102
RTVSPropertyOp14
 70
     2
102
RTVSPropertyOp15
 70
     0
102
RTVSPropertyOp16
 70
     0
102
RTVSPropertyOp17
 70
     0
102
RTVSPropertyOp18
 70
     0
102
RTVSPropertyOp19
 70
     0
102
RTVSPropertyOp20
 70
     0
102
RTVSPropertyOp21
 70
     0
102
RTVSPropertyOp22
 70
     0
102
RTVSPropertyOp23
 70
     0
102
RTVSPropertyOp24
 70
     0
102
RTVSPropertyOp25
 70
     0
102
RTVSPropertyOp26
 70
     0
102
RTVSPropertyOp27
 70
     0
102
RTVSPropertyOp28
 70
     0
102
RTVSPropertyOp29
 70
     0
102
RTVSPropertyOp30
 70
     0
102
RTVSPropertyOp31
 70
     0
102
RTVSPropertyOp32
 70
     0
  0
XRECORD
  5
313
102
{ACAD_REACTORS
330
312
102
}
330
312
100
AcDbXrecord
280
     1
102
RTVSPropertyOp0
 70
     1
102
RTVSPropertyOp1
 70
     1
102
RTVSPropertyOp2
 70
     1
102
RTVSPropertyOp3
 70
     1
102
RTVSPropertyOp4
 70
     1
102
RTVSPropertyOp5
 70
     1
102
RTVSPropertyOp6
 70
     1
102
RTVSPropertyOp7
 70
     1
102
RTVSPropertyOp8
 70
     1
102
RTVSPropertyOp9
 70
     1
102
RTVSPropertyOp10
 70
     1
102
RTVSPropertyOp11
 70
     1
102
RTVSPropertyOp12
 70
     1
102
RTVSPropertyOp13
 70
     1
102
RTVSPropertyOp14
 70
     1
102
RTVSPropertyOp15
 70
     1
102
RTVSPropertyOp16
 70
     1
102
RTVSPropertyOp17
 70
     1
102
RTVSPropertyOp18
 70
     1
102
RTVSPropertyOp19
 70
     1
102
RTVSPropertyOp20
 70
     1
102
RTVSPropertyOp21
 70
     1
102
RTVSPropertyOp22
 70
     1
102
RTVSPropertyOp23
 70
     1
102
RTVSPropertyOp24
 70
     1
102
RTVSPropertyOp25
 70
     1
102
RTVSPropertyOp26
 70
     1
102
RTVSPropertyOp27
 70
     1
102
RTVSPropertyOp28
 70
     1
102
RTVSPropertyOp29
 70
     1
102
RTVSPropertyOp30
 70
     1
102
RTVSPropertyOp31
 70
     1
102
RTVSPropertyOp32
 70
     1
  0
XRECORD
  5
329
102
{ACAD_REACTORS
330
328
102
}
330
328
100
AcDbXrecord
280
     1
102
RTVSPropertyOp0
 70
     1
102
RTVSPropertyOp1
 70
     1
102
RTVSPropertyOp2
 70
     1
102
RTVSPropertyOp3
 70
     1
102
RTVSPropertyOp4
 70
     1
102
RTVSPropertyOp5
 70
     1
102
RTVSPropertyOp6
 70
     1
102
RTVSPropertyOp7
 70
     1
102
RTVSPropertyOp8
 70
     1
102
RTVSPropertyOp9
 70
     1
102
RTVSPropertyOp10
 70
     1
102
RTVSPropertyOp11
 70
     1
102
RTVSPropertyOp12
 70
     1
102
RTVSPropertyOp13
 70
     1
102
RTVSPropertyOp14
 70
     1
102
RTVSPropertyOp15
 70
     1
102
RTVSPropertyOp16
 70
     1
102
RTVSPropertyOp17
 70
     1
102
RTVSPropertyOp18
 70
     1
102
RTVSPropertyOp19
 70
     1
102
RTVSPropertyOp20
 70
     1
102
RTVSPropertyOp21
 70
     1
102
RTVSPropertyOp22
 70
     1
102
RTVSPropertyOp23
 70
     1
102
RTVSPropertyOp24
 70
     1
102
RTVSPropertyOp25
 70
     1
102
RTVSPropertyOp26
 70
     1
102
RTVSPropertyOp27
 70
     1
102
RTVSPropertyOp28
 70
     1
102
RTVSPropertyOp29
 70
     1
102
RTVSPropertyOp30
 70
     1
102
RTVSPropertyOp31
 70
     1
102
RTVSPropertyOp32
 70
     1
  0
XRECORD
  5
327
102
{ACAD_REACTORS
330
326
102
}
330
326
100
AcDbXrecord
280
     1
102
RTVSPropertyOp0
 70
     1
102
RTVSPropertyOp1
 70
     1
102
RTVSPropertyOp2
 70
     1
102
RTVSPropertyOp3
 70
     1
102
RTVSPropertyOp4
 70
     1
102
RTVSPropertyOp5
 70
     1
102
RTVSPropertyOp6
 70
     1
102
RTVSPropertyOp7
 70
     1
102
RTVSPropertyOp8
 70
     1
102
RTVSPropertyOp9
 70
     1
102
RTVSPropertyOp10
 70
     1
102
RTVSPropertyOp11
 70
     1
102
RTVSPropertyOp12
 70
     1
102
RTVSPropertyOp13
 70
     1
102
RTVSPropertyOp14
 70
     1
102
RTVSPropertyOp15
 70
     1
102
RTVSPropertyOp16
 70
     1
102
RTVSPropertyOp17
 70
     1
102
RTVSPropertyOp18
 70
     1
102
RTVSPropertyOp19
 70
     1
102
RTVSPropertyOp20
 70
     1
102
RTVSPropertyOp21
 70
     1
102
RTVSPropertyOp22
 70
     1
102
RTVSPropertyOp23
 70
     1
102
RTVSPropertyOp24
 70
     1
102
RTVSPropertyOp25
 70
     1
102
RTVSPropertyOp26
 70
     1
102
RTVSPropertyOp27
 70
     1
102
RTVSPropertyOp28
 70
     1
102
RTVSPropertyOp29
 70
     1
102
RTVSPropertyOp30
 70
     1
102
RTVSPropertyOp31
 70
     1
102
RTVSPropertyOp32
 70
     1
  0
XRECORD
  5
321
102
{ACAD_REACTORS
330
320
102
}
330
320
100
AcDbXrecord
280
     1
102
RTVSPropertyOp0
 70
     1
102
RTVSPropertyOp1
 70
     1
102
RTVSPropertyOp2
 70
     1
102
RTVSPropertyOp3
 70
     1
102
RTVSPropertyOp4
 70
     1
102
RTVSPropertyOp5
 70
     1
102
RTVSPropertyOp6
 70
     1
102
RTVSPropertyOp7
 70
     1
102
RTVSPropertyOp8
 70
     1
102
RTVSPropertyOp9
 70
     1
102
RTVSPropertyOp10
 70
     1
102
RTVSPropertyOp11
 70
     1
102
RTVSPropertyOp12
 70
     1
102
RTVSPropertyOp13
 70
     1
102
RTVSPropertyOp14
 70
     1
102
RTVSPropertyOp15
 70
     1
102
RTVSPropertyOp16
 70
     1
102
RTVSPropertyOp17
 70
     1
102
RTVSPropertyOp18
 70
     1
102
RTVSPropertyOp19
 70
     1
102
RTVSPropertyOp20
 70
     1
102
RTVSPropertyOp21
 70
     1
102
RTVSPropertyOp22
 70
     1
102
RTVSPropertyOp23
 70
     1
102
RTVSPropertyOp24
 70
     1
102
RTVSPropertyOp25
 70
     1
102
RTVSPropertyOp26
 70
     1
102
RTVSPropertyOp27
 70
     1
102
RTVSPropertyOp28
 70
     1
102
RTVSPropertyOp29
 70
     1
102
RTVSPropertyOp30
 70
     1
102
RTVSPropertyOp31
 70
     1
102
RTVSPropertyOp32
 70
     1
  0
XRECORD
  5
323
102
{ACAD_REACTORS
330
322
102
}
330
322
100
AcDbXrecord
280
     1
102
RTVSPropertyOp0
 70
     1
102
RTVSPropertyOp1
 70
     1
102
RTVSPropertyOp2
 70
     1
102
RTVSPropertyOp3
 70
     1
102
RTVSPropertyOp4
 70
     1
102
RTVSPropertyOp5
 70
     1
102
RTVSPropertyOp6
 70
     1
102
RTVSPropertyOp7
 70
     1
102
RTVSPropertyOp8
 70
     1
102
RTVSPropertyOp9
 70
     1
102
RTVSPropertyOp10
 70
     1
102
RTVSPropertyOp11
 70
     1
102
RTVSPropertyOp12
 70
     1
102
RTVSPropertyOp13
 70
     1
102
RTVSPropertyOp14
 70
     1
102
RTVSPropertyOp15
 70
     1
102
RTVSPropertyOp16
 70
     1
102
RTVSPropertyOp17
 70
     1
102
RTVSPropertyOp18
 70
     1
102
RTVSPropertyOp19
 70
     1
102
RTVSPropertyOp20
 70
     1
102
RTVSPropertyOp21
 70
     1
102
RTVSPropertyOp22
 70
     1
102
RTVSPropertyOp23
 70
     1
102
RTVSPropertyOp24
 70
     1
102
RTVSPropertyOp25
 70
     1
102
RTVSPropertyOp26
 70
     1
102
RTVSPropertyOp27
 70
     1
102
RTVSPropertyOp28
 70
     1
102
RTVSPropertyOp29
 70
     1
102
RTVSPropertyOp30
 70
     1
102
RTVSPropertyOp31
 70
     1
102
RTVSPropertyOp32
 70
     1
  0
XRECORD
  5
319
102
{ACAD_REACTORS
330
318
102
}
330
318
100
AcDbXrecord
280
     1
102
RTVSPropertyOp0
 70
     1
102
RTVSPropertyOp1
 70
     1
102
RTVSPropertyOp2
 70
     1
102
RTVSPropertyOp3
 70
     1
102
RTVSPropertyOp4
 70
     1
102
RTVSPropertyOp5
 70
     1
102
RTVSPropertyOp6
 70
     1
102
RTVSPropertyOp7
 70
     1
102
RTVSPropertyOp8
 70
     1
102
RTVSPropertyOp9
 70
     1
102
RTVSPropertyOp10
 70
     1
102
RTVSPropertyOp11
 70
     1
102
RTVSPropertyOp12
 70
     1
102
RTVSPropertyOp13
 70
     1
102
RTVSPropertyOp14
 70
     1
102
RTVSPropertyOp15
 70
     1
102
RTVSPropertyOp16
 70
     1
102
RTVSPropertyOp17
 70
     1
102
RTVSPropertyOp18
 70
     1
102
RTVSPropertyOp19
 70
     1
102
RTVSPropertyOp20
 70
     1
102
RTVSPropertyOp21
 70
     1
102
RTVSPropertyOp22
 70
     1
102
RTVSPropertyOp23
 70
     1
102
RTVSPropertyOp24
 70
     1
102
RTVSPropertyOp25
 70
     1
102
RTVSPropertyOp26
 70
     1
102
RTVSPropertyOp27
 70
     1
102
RTVSPropertyOp28
 70
     1
102
RTVSPropertyOp29
 70
     1
102
RTVSPropertyOp30
 70
     1
102
RTVSPropertyOp31
 70
     1
102
RTVSPropertyOp32
 70
     1
  0
XRECORD
  5
30D
102
{ACAD_REACTORS
330
30C
102
}
330
30C
100
AcDbXrecord
280
     1
102
RTVSPropertyOp0
 70
     1
102
RTVSPropertyOp1
 70
     1
102
RTVSPropertyOp2
 70
     1
102
RTVSPropertyOp3
 70
     1
102
RTVSPropertyOp4
 70
     1
102
RTVSPropertyOp5
 70
     1
102
RTVSPropertyOp6
 70
     1
102
RTVSPropertyOp7
 70
     1
102
RTVSPropertyOp8
 70
     1
102
RTVSPropertyOp9
 70
     1
102
RTVSPropertyOp10
 70
     1
102
RTVSPropertyOp11
 70
     1
102
RTVSPropertyOp12
 70
     1
102
RTVSPropertyOp13
 70
     1
102
RTVSPropertyOp14
 70
     1
102
RTVSPropertyOp15
 70
     1
102
RTVSPropertyOp16
 70
     1
102
RTVSPropertyOp17
 70
     1
102
RTVSPropertyOp18
 70
     1
102
RTVSPropertyOp19
 70
     1
102
RTVSPropertyOp20
 70
     1
102
RTVSPropertyOp21
 70
     1
102
RTVSPropertyOp22
 70
     1
102
RTVSPropertyOp23
 70
     1
102
RTVSPropertyOp24
 70
     1
102
RTVSPropertyOp25
 70
     1
102
RTVSPropertyOp26
 70
     1
102
RTVSPropertyOp27
 70
     1
102
RTVSPropertyOp28
 70
     1
102
RTVSPropertyOp29
 70
     1
102
RTVSPropertyOp30
 70
     1
102
RTVSPropertyOp31
 70
     1
102
RTVSPropertyOp32
 70
     1
  0
XRECORD
  5
325
102
{ACAD_REACTORS
330
324
102
}
330
324
100
AcDbXrecord
280
     1
102
RTVSPropertyOp0
 70
     1
102
RTVSPropertyOp1
 70
     1
102
RTVSPropertyOp2
 70
     1
102
RTVSPropertyOp3
 70
     1
102
RTVSPropertyOp4
 70
     1
102
RTVSPropertyOp5
 70
     1
102
RTVSPropertyOp6
 70
     1
102
RTVSPropertyOp7
 70
     1
102
RTVSPropertyOp8
 70
     1
102
RTVSPropertyOp9
 70
     1
102
RTVSPropertyOp10
 70
     1
102
RTVSPropertyOp11
 70
     1
102
RTVSPropertyOp12
 70
     1
102
RTVSPropertyOp13
 70
     1
102
RTVSPropertyOp14
 70
     1
102
RTVSPropertyOp15
 70
     1
102
RTVSPropertyOp16
 70
     1
102
RTVSPropertyOp17
 70
     1
102
RTVSPropertyOp18
 70
     1
102
RTVSPropertyOp19
 70
     1
102
RTVSPropertyOp20
 70
     1
102
RTVSPropertyOp21
 70
     1
102
RTVSPropertyOp22
 70
     1
102
RTVSPropertyOp23
 70
     1
102
RTVSPropertyOp24
 70
     1
102
RTVSPropertyOp25
 70
     1
102
RTVSPropertyOp26
 70
     1
102
RTVSPropertyOp27
 70
     1
102
RTVSPropertyOp28
 70
     1
102
RTVSPropertyOp29
 70
     1
102
RTVSPropertyOp30
 70
     1
102
RTVSPropertyOp31
 70
     1
102
RTVSPropertyOp32
 70
     1
  0
ENDSEC
  0
EOF
