  0
SECTION
  2
HEADER
  9
$ACADVER
  1
AC1009
  9
$DWGCODEPAGE
  3
dos932
  9
$INSBASE
 10
0.0
 20
0.0
 30
0.0
  9
$EXTMIN
 10
0.0
 20
0.0
 30
0.0
  9
$EXTMAX
 10
431.8
 20
279.4
 30
0.0
  9
$LIMMIN
 10
0.0
 20
0.0
  9
$LIMMAX
 10
431.8
 20
279.4
  9
$ORTHOMODE
 70
     0
  9
$REGENMODE
 70
     1
  9
$FILLMODE
 70
     1
  9
$QTEXTMODE
 70
     0
  9
$MIRRTEXT
 70
     1
  9
$DRAGMODE
 70
     2
  9
$LTSCALE
 40
1.0
  9
$OSMODE
 70
    37
  9
$ATTMODE
 70
     1
  9
$TEXTSIZE
 40
3.5
  9
$TRACEWID
 40
1.0
  9
$TEXTSTYLE
  7
STANDARD
  9
$CLAYER
  8
0
  9
$CELTYPE
  6
BYLAYER
  9
$CECOLOR
 62
   256
  9
$DIMSCALE
 40
1.0
  9
$DIMASZ
 40
3.0
  9
$DIMEXO
 40
0.01
  9
$DIMDLI
 40
3.75
  9
$DIMRND
 40
0.0
  9
$DIMDLE
 40
0.0
  9
$DIMEXE
 40
1.0
  9
$DIMTP
 40
0.0
  9
$DIMTM
 40
0.0
  9
$DIMTXT
 40
3.5
  9
$DIMCEN
 40
2.5
  9
$DIMTSZ
 40
0.0
  9
$DIMTOL
 70
     0
  9
$DIMLIM
 70
     0
  9
$DIMTIH
 70
     1
  9
$DIMTOH
 70
     1
  9
$DIMSE1
 70
     0
  9
$DIMSE2
 70
     0
  9
$DIMTAD
 70
     1
  9
$DIMZIN
 70
     0
  9
$DIMBLK
  1

  9
$DIMASO
 70
     1
  9
$DIMSHO
 70
     1
  9
$DIMPOST
  1

  9
$DIMAPOST
  1

  9
$DIMALT
 70
     0
  9
$DIMALTD
 70
     3
  9
$DIMALTF
 40
0.0393700787
  9
$DIMLFAC
 40
1.0
  9
$DIMTOFL
 70
     1
  9
$DIMTVP
 40
0.0
  9
$DIMTIX
 70
     0
  9
$DIMSOXD
 70
     0
  9
$DIMSAH
 70
     0
  9
$DIMBLK1
  1

  9
$DIMBLK2
  1

  9
$DIMSTYLE
  2
ISO-25
  9
$DIMCLRD
 70
     0
  9
$DIMCLRE
 70
     0
  9
$DIMCLRT
 70
     0
  9
$DIMTFAC
 40
1.0
  9
$DIMGAP
 40
1.524
  9
$LUNITS
 70
     2
  9
$LUPREC
 70
     4
  9
$SKETCHINC
 40
1.0
  9
$FILLETRAD
 40
10.0
  9
$AUNITS
 70
     0
  9
$AUPREC
 70
     2
  9
$MENU
  1
.
  9
$ELEVATION
 40
0.0
  9
$PELEVATION
 40
0.0
  9
$THICKNESS
 40
0.0
  9
$LIMCHECK
 70
     0
  9
$CHAMFERA
 40
0.0
  9
$CHAMFERB
 40
0.0
  9
$SKPOLY
 70
     0
  9
$TDCREATE
 40
2459943.565705683
  9
$TDUPDATE
 40
2459943.565706296
  9
$TDINDWG
 40
0.0000000116
  9
$TDUSRTIMER
 40
0.0000000116
  9
$USRTIMER
 70
     1
  9
$ANGBASE
 50
0.0
  9
$ANGDIR
 70
     0
  9
$PDMODE
 70
     0
  9
$PDSIZE
 40
-1.0
  9
$PLINEWID
 40
0.0
  9
$COORDS
 70
     1
  9
$SPLFRAME
 70
     0
  9
$SPLINETYPE
 70
     6
  9
$SPLINESEGS
 70
     8
  9
$ATTDIA
 70
     0
  9
$ATTREQ
 70
     1
  9
$HANDLING
 70
     1
  9
$HANDSEED
  5
552
  9
$SURFTAB1
 70
     6
  9
$SURFTAB2
 70
     6
  9
$SURFTYPE
 70
     6
  9
$SURFU
 70
     6
  9
$SURFV
 70
     6
  9
$UCSNAME
  2

  9
$UCSORG
 10
0.0
 20
0.0
 30
0.0
  9
$UCSXDIR
 10
1.0
 20
0.0
 30
0.0
  9
$UCSYDIR
 10
0.0
 20
1.0
 30
0.0
  9
$PUCSNAME
  2

  9
$PUCSORG
 10
0.0
 20
0.0
 30
0.0
  9
$PUCSXDIR
 10
1.0
 20
0.0
 30
0.0
  9
$PUCSYDIR
 10
0.0
 20
1.0
 30
0.0
  9
$USERI1
 70
     0
  9
$USERI2
 70
     0
  9
$USERI3
 70
     0
  9
$USERI4
 70
     0
  9
$USERI5
 70
     0
  9
$USERR1
 40
0.0
  9
$USERR2
 40
0.0
  9
$USERR3
 40
0.0
  9
$USERR4
 40
0.0
  9
$USERR5
 40
0.0
  9
$WORLDVIEW
 70
     1
  9
$SHADEDGE
 70
     3
  9
$SHADEDIF
 70
    70
  9
$TILEMODE
 70
     1
  9
$MAXACTVP
 70
    64
  9
$PLIMCHECK
 70
     0
  9
$PEXTMIN
 10
1.0000000000E+20
 20
1.0000000000E+20
 30
1.0000000000E+20
  9
$PEXTMAX
 10
-1.0000000000E+20
 20
-1.0000000000E+20
 30
-1.0000000000E+20
  9
$PLIMMIN
 10
0.0
 20
0.0
  9
$PLIMMAX
 10
420.0
 20
297.0
  9
$UNITMODE
 70
     0
  9
$VISRETAIN
 70
     1
  9
$PLINEGEN
 70
     0
  9
$PSLTSCALE
 70
     1
  0
ENDSEC
  0
SECTION
  2
TABLES
  0
TABLE
  2
VPORT
 70
     1
  0
VPORT
  2
*ACTIVE
 70
     0
 10
0.0
 20
0.0
 11
1.0
 21
1.0
 12
215.9
 22
139.7
 13
0.0
 23
0.0
 14
10.0
 24
10.0
 15
10.0
 25
10.0
 16
0.0
 26
0.0
 36
1.0
 17
0.0
 27
0.0
 37
0.0
 40
279.4
 41
1.5454545455
 42
50.0
 43
0.0
 44
0.0
 50
0.0
 51
0.0
 71
     0
 72
  2000
 73
     1
 74
     3
 75
     0
 76
     0
 77
     0
 78
     0
  0
ENDTAB
  0
TABLE
  2
LTYPE
 70
     6
  0
LTYPE
  2
CONTINUOUS
 70
     0
  3
Solid line
 72
    65
 73
     0
 40
0.0
  0
LTYPE
  2
HIDDEN
 70
     0
  3
Hidden __ __ __ __ __ __ __ __ __ __ __ __ __ __
 72
    65
 73
     2
 40
1.905
 49
1.27
 49
-0.635
  0
LTYPE
  2
PHANTOM
 70
     0
  3
Phantom ______  __  __  ______  __  __  ______
 72
    65
 73
     6
 40
12.7
 49
6.35
 49
-1.27
 49
1.27
 49
-1.27
 49
1.27
 49
-1.27
  0
LTYPE
  2
CENTER
 70
     0
  3
Center ____ _ ____ _ ____ _ ____ _ ____ _ ____
 72
    65
 73
     4
 40
10.16
 49
6.35
 49
-1.27
 49
1.27
 49
-1.27
  0
LTYPE
  2
CENTERX2
 70
     0
  3
Center (2x) ________  __  ________  __  _____
 72
    65
 73
     4
 40
20.32
 49
12.7
 49
-2.54
 49
2.54
 49
-2.54
  0
LTYPE
  2
DOT2
 70
     0
  3
Dot (.5x) ........................................
 72
    65
 73
     2
 40
0.635
 49
0.0
 49
-0.635
  0
ENDTAB
  0
TABLE
  2
LAYER
 70
     4
  0
LAYER
  2
0
 70
     0
 62
     7
  6
CONTINUOUS
  0
LAYER
  2
DIM
 70
     0
 62
     7
  6
CONTINUOUS
  0
LAYER
  2
TXT
 70
     0
 62
     7
  6
CONTINUOUS
  0
LAYER
  2
NON-DISPLAY
 70
     0
 62
    -7
  6
CONTINUOUS
  0
ENDTAB
  0
TABLE
  2
STYLE
 70
     1
  0
STYLE
  2
STANDARD
 70
     0
 40
0.0
 41
1.0
 50
0.0
 71
     0
 42
3.5
  3
txt
  4
bigfont
  0
ENDTAB
  0
TABLE
  2
VIEW
 70
     0
  0
ENDTAB
  0
TABLE
  2
UCS
 70
     0
  0
ENDTAB
  0
TABLE
  2
APPID
 70
     1
  0
APPID
  2
ACAD
 70
     0
  0
ENDTAB
  0
TABLE
  2
DIMSTYLE
 70
     1
  0
DIMSTYLE
  2
ISO-25
 70
     0
  3

  4

  5

  6

  7

 40
1.0
 41
2.5
 42
0.625
 43
3.75
 44
1.25
 45
0.0
 46
0.0
 47
0.0
 48
0.0
140
2.5
141
2.5
142
0.0
143
0.0393700787
144
1.0
145
0.0
146
1.0
147
0.625
 71
     0
 72
     0
 73
     0
 74
     0
 75
     0
 76
     0
 77
     1
 78
     8
170
     0
171
     3
172
     1
173
     0
174
     0
175
     0
176
     0
177
     0
178
     0
  0
ENDTAB
  0
ENDSEC
  0
SECTION
  2
BLOCKS
  0
BLOCK
  8
0
  2
$MODEL_SPACE
 70
     0
 10
0.0
 20
0.0
 30
0.0
  3
$MODEL_SPACE
  1

  0
ENDBLK
  5
21
  8
0
  0
BLOCK
 67
     1
  8
0
  2
$PAPER_SPACE
 70
     0
 10
0.0
 20
0.0
 30
0.0
  3
$PAPER_SPACE
  1

  0
ENDBLK
  5
1D
 67
     1
  8
0
  0
ENDSEC
  0
SECTION
  2
ENTITIES
  0
LINE
  5
76
  8
0
  6
CONTINUOUS
 62
     7
 10
200.4512414665
 20
46.6899898862
 30
0.0
 11
200.4512414665
 21
9.6899898862
 31
0.0
  0
LINE
  5
77
  8
0
  6
CONTINUOUS
 62
     7
 10
208.4512414665
 20
9.6899898862
 30
0.0
 11
208.4512414665
 21
46.6899898862
 31
0.0
  0
LINE
  5
78
  8
0
  6
CONTINUOUS
 62
     7
 10
162.4512414665
 20
46.6899898862
 30
0.0
 11
162.4512414665
 21
9.6899898862
 31
0.0
  0
LINE
  5
79
  8
0
  6
CONTINUOUS
 62
     7
 10
168.4512414665
 20
9.6899898862
 30
0.0
 11
168.4512414665
 21
46.6899898862
 31
0.0
  0
LINE
  5
7A
  8
0
  6
CONTINUOUS
 62
     7
 10
129.3512414665
 20
46.6899898862
 30
0.0
 11
129.3512414665
 21
9.6899898862
 31
0.0
  0
LINE
  5
7B
  8
0
  6
CONTINUOUS
 62
     7
 10
135.3512414665
 20
9.6899898862
 30
0.0
 11
135.3512414665
 21
46.6899898862
 31
0.0
  0
LINE
  5
7C
  8
0
  6
CONTINUOUS
 62
     7
 10
298.4512414665
 20
72.1899898862
 30
0.0
 11
301.4512414665
 21
72.1899898862
 31
0.0
  0
LINE
  5
7D
  8
0
  6
CONTINUOUS
 62
     7
 10
301.4512414665
 20
132.1899898862
 30
0.0
 11
298.4512414665
 21
132.1899898862
 31
0.0
  0
LINE
  5
7E
  8
0
  6
CONTINUOUS
 62
     7
 10
335.4512414665
 20
110.1899898862
 30
0.0
 11
301.4512414665
 21
110.1899898862
 31
0.0
  0
LINE
  5
7F
  8
0
  6
CONTINUOUS
 62
     7
 10
301.4512414665
 20
94.1899898862
 30
0.0
 11
335.4512414665
 21
94.1899898862
 31
0.0
  0
ARC
  5
80
  8
0
  6
CONTINUOUS
 62
     7
 10
320.9041620353
 20
102.1899898862
 30
0.0
 40
200.0
 50
190.8069228749
 51
192.268898996
  0
ARC
  5
81
  8
0
  6
CONTINUOUS
 62
     7
 10
320.9041620353
 20
102.1899898862
 30
0.0
 40
200.0
 50
167.731101004
 51
169.1930771251
  0
LINE
  5
82
  8
0
  6
CONTINUOUS
 62
     7
 10
211.6602952847
 20
48.6944063829
 30
0.0
 11
223.9640692917
 21
54.6962473619
 31
0.0
  0
LINE
  5
83
  8
0
  6
CONTINUOUS
 62
     7
 10
209.6361596633
 20
48.6899898862
 30
0.0
 11
211.6512414665
 21
48.6899898862
 31
0.0
  0
LINE
  5
84
  8
0
  6
CONTINUOUS
 62
     7
 10
195.4512414665
 20
48.6899898862
 30
0.0
 11
199.2012414665
 21
48.6899898862
 31
0.0
  0
LINE
  5
85
  8
0
  6
CONTINUOUS
 62
     7
 10
199.2012414665
 20
48.6899898862
 30
0.0
 11
199.2012414665
 21
46.6899898862
 31
0.0
  0
LINE
  5
86
  8
0
  6
CONTINUOUS
 62
     7
 10
209.7012414665
 20
46.6899898862
 30
0.0
 11
209.7012414665
 21
48.6899898862
 31
0.0
  0
LINE
  5
87
  8
0
  6
CONTINUOUS
 62
     7
 10
170.3893432559
 20
48.6899898862
 30
0.0
 11
171.4512414665
 21
48.6899898862
 31
0.0
  0
LINE
  5
88
  8
0
  6
CONTINUOUS
 62
     7
 10
159.4512414665
 20
48.6899898862
 30
0.0
 11
160.4512414665
 21
48.6899898862
 31
0.0
  0
LINE
  5
89
  8
0
  6
CONTINUOUS
 62
     7
 10
160.4512414665
 20
48.6899898862
 30
0.0
 11
160.4512414665
 21
46.6899898862
 31
0.0
  0
LINE
  5
8A
  8
0
  6
CONTINUOUS
 62
     7
 10
170.4512414665
 20
46.6899898862
 30
0.0
 11
170.4512414665
 21
48.6899898862
 31
0.0
  0
LINE
  5
8B
  8
0
  6
CONTINUOUS
 62
     7
 10
137.2893432559
 20
48.6899898862
 30
0.0
 11
138.3512414665
 21
48.6899898862
 31
0.0
  0
LINE
  5
8C
  8
0
  6
CONTINUOUS
 62
     7
 10
126.3512414665
 20
48.6899898862
 30
0.0
 11
127.3512414665
 21
48.6899898862
 31
0.0
  0
LINE
  5
8D
  8
0
  6
CONTINUOUS
 62
     7
 10
127.3512414665
 20
48.6899898862
 30
0.0
 11
127.3512414665
 21
46.6899898862
 31
0.0
  0
LINE
  5
8E
  8
0
  6
CONTINUOUS
 62
     7
 10
137.3512414665
 20
46.6899898862
 30
0.0
 11
137.3512414665
 21
48.6899898862
 31
0.0
  0
LINE
  5
8F
  8
0
  6
CONTINUOUS
 62
     7
 10
200.4512414665
 20
9.6899898862
 30
0.0
 11
208.4512414665
 21
9.6899898862
 31
0.0
  0
LINE
  5
90
  8
0
  6
CONTINUOUS
 62
     7
 10
162.4512414665
 20
9.6899898862
 30
0.0
 11
168.4512414665
 21
9.6899898862
 31
0.0
  0
LINE
  5
91
  8
0
  6
CONTINUOUS
 62
     7
 10
129.3512414665
 20
9.6899898862
 30
0.0
 11
135.3512414665
 21
9.6899898862
 31
0.0
  0
LINE
  5
92
  8
0
  6
CONTINUOUS
 62
     7
 10
285.1012969169
 20
124.9274039872
 30
0.0
 11
284.4512414665
 21
124.9274039872
 31
0.0
  0
LINE
  5
93
  8
0
  6
CONTINUOUS
 62
     7
 10
285.1012969169
 20
129.7790440181
 30
0.0
 11
284.4512414665
 21
129.7790440181
 31
0.0
  0
LINE
  5
94
  8
0
  6
CONTINUOUS
 62
     7
 10
285.1012969169
 20
129.7790440181
 30
0.0
 11
285.1012969169
 21
124.9274039872
 31
0.0
  0
LINE
  5
95
  8
0
  6
CONTINUOUS
 62
     7
 10
284.4512414665
 20
124.9274039872
 30
0.0
 11
284.4512414665
 21
129.7790440181
 31
0.0
  0
LINE
  5
96
  8
0
  6
CONTINUOUS
 62
     7
 10
285.1012969169
 20
79.4525757852
 30
0.0
 11
284.4512414665
 21
79.4525757852
 31
0.0
  0
ARC
  5
97
  8
0
  6
CONTINUOUS
 62
     7
 10
479.2063200359
 20
102.1899898862
 30
0.0
 40
195.4322133119308
 50
169.8917533355
 51
173.318834654
  0
LINE
  5
98
  8
0
  6
CONTINUOUS
 62
     7
 10
298.4512414665
 20
136.4899898862
 30
0.0
 11
286.8076194165
 21
136.4899898862
 31
0.0
  0
LINE
  5
99
  8
0
  6
CONTINUOUS
 62
     7
 10
298.4512414665
 20
67.8899898862
 30
0.0
 11
298.4512414665
 21
136.4899898862
 31
0.0
  0
LINE
  5
9A
  8
0
  6
CONTINUOUS
 62
     7
 10
286.8076194165
 20
67.8899898862
 30
0.0
 11
298.4512414665
 21
67.8899898862
 31
0.0
  0
ARC
  5
9B
  8
0
  6
CONTINUOUS
 62
     7
 10
479.2063200359
 20
102.1899898862
 30
0.0
 40
195.4322133119308
 50
186.681165346
 51
190.1082466645
  0
LINE
  5
9C
  8
0
  6
CONTINUOUS
 62
     7
 10
284.4512414665
 20
79.4525757852
 30
0.0
 11
284.4512414665
 21
124.9274039872
 31
0.0
  0
ARC
  5
9D
  8
0
  6
CONTINUOUS
 62
     7
 10
475.0275522168
 20
107.1763169165
 30
0.0
 40
192.9760767589277
 50
168.7905898534
 51
170.954732184
  0
LINE
  5
9E
  8
0
  6
CONTINUOUS
 62
     7
 10
286.8076194165
 20
144.6899898862
 30
0.0
 11
285.7328334802
 21
144.6899898862
 31
0.0
  0
POLYLINE
  5
9F
  8
0
  6
CONTINUOUS
 62
     7
 66
     1
 10
0.0
 20
0.0
 30
0.0
 70
   128
  0
VERTEX
  5
3F6
  8
0
  6
CONTINUOUS
 62
     7
 10
286.8076194165
 20
136.4899898862
 30
0.0
  0
VERTEX
  5
3F7
  8
0
  6
CONTINUOUS
 62
     7
 10
287.0284719487
 20
137.8409680347
 30
0.0
  0
VERTEX
  5
3F8
  8
0
  6
CONTINUOUS
 62
     7
 10
287.20451357
 20
139.1613077465
 30
0.0
  0
VERTEX
  5
3F9
  8
0
  6
CONTINUOUS
 62
     7
 10
287.3294239597
 20
140.4136499642
 30
0.0
  0
VERTEX
  5
3FA
  8
0
  6
CONTINUOUS
 62
     7
 10
287.3994891679
 20
141.5604136365
 30
0.0
  0
VERTEX
  5
3FB
  8
0
  6
CONTINUOUS
 62
     7
 10
287.4116678638
 20
142.5492442706
 30
0.0
  0
VERTEX
  5
3FC
  8
0
  6
CONTINUOUS
 62
     7
 10
287.3680686125
 20
143.3744497528
 30
0.0
  0
VERTEX
  5
3FD
  8
0
  6
CONTINUOUS
 62
     7
 10
287.2703875811
 20
144.0060194514
 30
0.0
  0
VERTEX
  5
3FE
  8
0
  6
CONTINUOUS
 62
     7
 10
287.1224838551
 20
144.4381695537
 30
0.0
  0
VERTEX
  5
3FF
  8
0
  6
CONTINUOUS
 62
     7
 10
286.8076194165
 20
144.6899898862
 30
0.0
  0
SEQEND
  5
539
  8
0
  6
CONTINUOUS
 62
     7
  0
ARC
  5
A0
  8
0
  6
CONTINUOUS
 62
     7
 10
299.0045945351
 20
140.0479120578
 30
0.0
 40
17.2844246497957
 50
212.6488928602
 51
216.4492882759
  0
POLYLINE
  5
A1
  8
0
  6
CONTINUOUS
 62
     7
 66
     1
 10
0.0
 20
0.0
 30
0.0
 70
   128
  0
VERTEX
  5
400
  8
0
  6
CONTINUOUS
 62
     7
 10
284.4512414665
 20
131.1903245488
 30
0.0
  0
VERTEX
  5
401
  8
0
  6
CONTINUOUS
 62
     7
 10
284.6536372587
 20
131.2902779826
 30
0.0
  0
VERTEX
  5
402
  8
0
  6
CONTINUOUS
 62
     7
 10
284.880476938
 20
131.5613729376
 30
0.0
  0
VERTEX
  5
403
  8
0
  6
CONTINUOUS
 62
     7
 10
285.3810658698
 20
132.5777175982
 30
0.0
  0
VERTEX
  5
404
  8
0
  6
CONTINUOUS
 62
     7
 10
285.6456776768
 20
133.3066362381
 30
0.0
  0
VERTEX
  5
405
  8
0
  6
CONTINUOUS
 62
     7
 10
285.907143937
 20
134.1511494999
 30
0.0
  0
VERTEX
  5
406
  8
0
  6
CONTINUOUS
 62
     7
 10
286.1596010292
 20
135.0959859843
 30
0.0
  0
VERTEX
  5
407
  8
0
  6
CONTINUOUS
 62
     7
 10
286.3939222707
 20
136.1080494602
 30
0.0
  0
VERTEX
  5
408
  8
0
  6
CONTINUOUS
 62
     7
 10
286.5998013221
 20
137.1441104153
 30
0.0
  0
VERTEX
  5
409
  8
0
  6
CONTINUOUS
 62
     7
 10
286.7743902573
 20
138.1870135131
 30
0.0
  0
VERTEX
  5
40A
  8
0
  6
CONTINUOUS
 62
     7
 10
286.9078300832
 20
139.1759173441
 30
0.0
  0
VERTEX
  5
40B
  8
0
  6
CONTINUOUS
 62
     7
 10
287.0016172349
 20
140.1114537518
 30
0.0
  0
VERTEX
  5
40C
  8
0
  6
CONTINUOUS
 62
     7
 10
287.0580212705
 20
141.6643213712
 30
0.0
  0
VERTEX
  5
40D
  8
0
  6
CONTINUOUS
 62
     7
 10
286.9485104721
 20
142.7107425798
 30
0.0
  0
VERTEX
  5
40E
  8
0
  6
CONTINUOUS
 62
     7
 10
286.6890137166
 20
143.1721839642
 30
0.0
  0
VERTEX
  5
40F
  8
0
  6
CONTINUOUS
 62
     7
 10
286.3023258997
 20
143.0005945075
 30
0.0
  0
VERTEX
  5
410
  8
0
  6
CONTINUOUS
 62
     7
 10
285.8218649039
 20
142.1820943425
 30
0.0
  0
VERTEX
  5
411
  8
0
  6
CONTINUOUS
 62
     7
 10
285.5598544064
 20
141.5383303724
 30
0.0
  0
VERTEX
  5
412
  8
0
  6
CONTINUOUS
 62
     7
 10
285.2971019106
 20
140.7672081214
 30
0.0
  0
VERTEX
  5
413
  8
0
  6
CONTINUOUS
 62
     7
 10
285.037940449
 20
139.8772725693
 30
0.0
  0
VERTEX
  5
414
  8
0
  6
CONTINUOUS
 62
     7
 10
284.7928845154
 20
138.9032666679
 30
0.0
  0
VERTEX
  5
415
  8
0
  6
CONTINUOUS
 62
     7
 10
284.4512414665
 20
137.25336053
 30
0.0
  0
SEQEND
  5
53A
  8
0
  6
CONTINUOUS
 62
     7
  0
LINE
  5
A2
  8
0
  6
CONTINUOUS
 62
     7
 10
284.4512414665
 20
137.25336053
 30
0.0
 11
284.4512414665
 21
137.5150047928
 31
0.0
  0
LINE
  5
A3
  8
0
  6
CONTINUOUS
 62
     7
 10
284.4512414665
 20
130.7231466486
 30
0.0
 11
284.4512414665
 21
131.1903245488
 31
0.0
  0
LINE
  5
A4
  8
0
  6
CONTINUOUS
 62
     7
 10
285.1012969169
 20
74.6009357543
 30
0.0
 11
284.4512414665
 21
74.6009357543
 31
0.0
  0
LINE
  5
A5
  8
0
  6
CONTINUOUS
 62
     7
 10
285.1012969169
 20
79.4525757852
 30
0.0
 11
285.1012969169
 21
74.6009357543
 31
0.0
  0
LINE
  5
A6
  8
0
  6
CONTINUOUS
 62
     7
 10
284.4512414665
 20
74.6009357543
 30
0.0
 11
284.4512414665
 21
79.4525757852
 31
0.0
  0
ARC
  5
A7
  8
0
  6
CONTINUOUS
 62
     7
 10
299.004594535
 20
64.3320677147
 30
0.0
 40
17.28442464973236
 50
143.5507117241
 51
147.3511071398
  0
POLYLINE
  5
A8
  8
0
  6
CONTINUOUS
 62
     7
 66
     1
 10
0.0
 20
0.0
 30
0.0
 70
   128
  0
VERTEX
  5
416
  8
0
  6
CONTINUOUS
 62
     7
 10
286.8076194165
 20
59.6899898862
 30
0.0
  0
VERTEX
  5
417
  8
0
  6
CONTINUOUS
 62
     7
 10
287.0284719487
 20
59.8028542734
 30
0.0
  0
VERTEX
  5
418
  8
0
  6
CONTINUOUS
 62
     7
 10
287.20451357
 20
60.1373090022
 30
0.0
  0
VERTEX
  5
419
  8
0
  6
CONTINUOUS
 62
     7
 10
287.3294239597
 20
60.6906565733
 30
0.0
  0
VERTEX
  5
41A
  8
0
  6
CONTINUOUS
 62
     7
 10
287.3994891679
 20
61.4455501905
 30
0.0
  0
VERTEX
  5
41B
  8
0
  6
CONTINUOUS
 62
     7
 10
287.4116678638
 20
62.3662680031
 30
0.0
  0
VERTEX
  5
41C
  8
0
  6
CONTINUOUS
 62
     7
 10
287.3680686125
 20
63.4353055714
 30
0.0
  0
VERTEX
  5
41D
  8
0
  6
CONTINUOUS
 62
     7
 10
287.2703875811
 20
64.6133338896
 30
0.0
  0
VERTEX
  5
41E
  8
0
  6
CONTINUOUS
 62
     7
 10
287.1224838551
 20
65.8734482988
 30
0.0
  0
VERTEX
  5
41F
  8
0
  6
CONTINUOUS
 62
     7
 10
286.8076194165
 20
67.8899898862
 30
0.0
  0
SEQEND
  5
53B
  8
0
  6
CONTINUOUS
 62
     7
  0
LINE
  5
A9
  8
0
  6
CONTINUOUS
 62
     7
 10
285.7328334802
 20
59.6899898862
 30
0.0
 11
286.8076194165
 21
59.6899898862
 31
0.0
  0
ARC
  5
AA
  8
0
  6
CONTINUOUS
 62
     7
 10
475.0275522168
 20
97.203662856
 30
0.0
 40
192.9760767588994
 50
189.045267816
 51
191.2094101466
  0
POLYLINE
  5
AB
  8
0
  6
CONTINUOUS
 62
     7
 66
     1
 10
0.0
 20
0.0
 30
0.0
 70
   128
  0
VERTEX
  5
420
  8
0
  6
CONTINUOUS
 62
     7
 10
284.4512414665
 20
67.1266192424
 30
0.0
  0
VERTEX
  5
421
  8
0
  6
CONTINUOUS
 62
     7
 10
284.6536372587
 20
66.1009480931
 30
0.0
  0
VERTEX
  5
422
  8
0
  6
CONTINUOUS
 62
     7
 10
284.880476938
 20
65.1118485903
 30
0.0
  0
VERTEX
  5
423
  8
0
  6
CONTINUOUS
 62
     7
 10
285.3810658698
 20
63.3524197773
 30
0.0
  0
VERTEX
  5
424
  8
0
  6
CONTINUOUS
 62
     7
 10
285.6456776768
 20
62.6169682339
 30
0.0
  0
VERTEX
  5
425
  8
0
  6
CONTINUOUS
 62
     7
 10
285.907143937
 20
62.0164563639
 30
0.0
  0
VERTEX
  5
426
  8
0
  6
CONTINUOUS
 62
     7
 10
286.1596010292
 20
61.5679363699
 30
0.0
  0
VERTEX
  5
427
  8
0
  6
CONTINUOUS
 62
     7
 10
286.3939222707
 20
61.2883456311
 30
0.0
  0
VERTEX
  5
428
  8
0
  6
CONTINUOUS
 62
     7
 10
286.5998013221
 20
61.1908445643
 30
0.0
  0
VERTEX
  5
429
  8
0
  6
CONTINUOUS
 62
     7
 10
286.7743902573
 20
61.2734077743
 30
0.0
  0
VERTEX
  5
42A
  8
0
  6
CONTINUOUS
 62
     7
 10
286.9078300832
 20
61.5289039447
 30
0.0
  0
VERTEX
  5
42B
  8
0
  6
CONTINUOUS
 62
     7
 10
287.0016172349
 20
61.9492791633
 30
0.0
  0
VERTEX
  5
42C
  8
0
  6
CONTINUOUS
 62
     7
 10
287.0580212705
 20
63.1924459199
 30
0.0
  0
VERTEX
  5
42D
  8
0
  6
CONTINUOUS
 62
     7
 10
286.9485104721
 20
64.8402474118
 30
0.0
  0
VERTEX
  5
42E
  8
0
  6
CONTINUOUS
 62
     7
 10
286.6890137166
 20
66.7280872847
 30
0.0
  0
VERTEX
  5
42F
  8
0
  6
CONTINUOUS
 62
     7
 10
286.3023258997
 20
68.6856081315
 30
0.0
  0
VERTEX
  5
430
  8
0
  6
CONTINUOUS
 62
     7
 10
285.8218649039
 20
70.5184870093
 30
0.0
  0
VERTEX
  5
431
  8
0
  6
CONTINUOUS
 62
     7
 10
285.5598544064
 20
71.3233961677
 30
0.0
  0
VERTEX
  5
432
  8
0
  6
CONTINUOUS
 62
     7
 10
285.2971019106
 20
72.0069920347
 30
0.0
  0
VERTEX
  5
433
  8
0
  6
CONTINUOUS
 62
     7
 10
285.037940449
 20
72.5538512581
 30
0.0
  0
VERTEX
  5
434
  8
0
  6
CONTINUOUS
 62
     7
 10
284.7928845154
 20
72.9401796804
 30
0.0
  0
VERTEX
  5
435
  8
0
  6
CONTINUOUS
 62
     7
 10
284.4512414665
 20
73.1896552237
 30
0.0
  0
SEQEND
  5
53C
  8
0
  6
CONTINUOUS
 62
     7
  0
LINE
  5
AC
  8
0
  6
CONTINUOUS
 62
     7
 10
284.4512414665
 20
73.1896552237
 30
0.0
 11
284.4512414665
 21
73.6568331238
 31
0.0
  0
LINE
  5
AD
  8
0
  6
CONTINUOUS
 62
     7
 10
284.4512414665
 20
66.8649749797
 30
0.0
 11
284.4512414665
 21
67.1266192424
 31
0.0
  0
LINE
  5
AE
  8
0
  6
CONTINUOUS
 62
     7
 10
298.4512414665
 20
59.6899898862
 30
0.0
 11
286.8076194165
 21
59.6899898862
 31
0.0
  0
LINE
  5
AF
  8
0
  6
CONTINUOUS
 62
     7
 10
298.4512414665
 20
67.8899898862
 30
0.0
 11
298.4512414665
 21
59.6899898862
 31
0.0
  0
LINE
  5
B0
  8
0
  6
CONTINUOUS
 62
     7
 10
286.8076194165
 20
144.6899898862
 30
0.0
 11
298.4512414665
 21
144.6899898862
 31
0.0
  0
LINE
  5
B1
  8
0
  6
CONTINUOUS
 62
     7
 10
298.4512414665
 20
144.6899898862
 30
0.0
 11
298.4512414665
 21
136.4899898862
 31
0.0
  0
LINE
  5
B2
  8
0
  6
CONTINUOUS
 62
     7
 10
284.4512414665
 20
73.1896552237
 30
0.0
 11
284.4512414665
 21
67.1266192424
 31
0.0
  0
LINE
  5
B3
  8
0
  6
CONTINUOUS
 62
     7
 10
284.4512414665
 20
137.25336053
 30
0.0
 11
284.4512414665
 21
131.1903245488
 31
0.0
  0
LINE
  5
B4
  8
0
  6
CONTINUOUS
 62
     7
 10
284.4512414665
 20
129.7790440181
 30
0.0
 11
284.4512414665
 21
130.7231466486
 31
0.0
  0
LINE
  5
B5
  8
0
  6
CONTINUOUS
 62
     7
 10
284.4512414665
 20
73.6568331238
 30
0.0
 11
284.4512414665
 21
74.6009357543
 31
0.0
  0
LINE
  5
B6
  8
0
  6
CONTINUOUS
 62
     7
 10
301.4512414665
 20
102.1899898862
 30
0.0
 11
301.4512414665
 21
132.1899898862
 31
0.0
  0
LINE
  5
B7
  8
0
  6
CONTINUOUS
 62
     7
 10
301.4512414665
 20
72.1899898862
 30
0.0
 11
301.4512414665
 21
102.1899898862
 31
0.0
  0
LINE
  5
B8
  8
0
  6
CONTINUOUS
 62
     7
 10
285.7328334802
 20
144.6899898862
 30
0.0
 11
284.4512414665
 21
144.6899898862
 31
0.0
  0
LINE
  5
B9
  8
0
  6
CONTINUOUS
 62
     7
 10
284.4512414665
 20
137.5150047928
 30
0.0
 11
284.4512414665
 21
144.6899898862
 31
0.0
  0
LINE
  5
BA
  8
0
  6
CONTINUOUS
 62
     7
 10
285.7328334802
 20
59.6899898862
 30
0.0
 11
284.4512414665
 21
59.6899898862
 31
0.0
  0
LINE
  5
BB
  8
0
  6
CONTINUOUS
 62
     7
 10
284.4512414665
 20
59.6899898862
 30
0.0
 11
284.4512414665
 21
66.8649749797
 31
0.0
  0
LINE
  5
BC
  8
0
  6
CONTINUOUS
 62
     7
 10
335.4512414665
 20
110.1899898862
 30
0.0
 11
335.4512414665
 21
94.1899898862
 31
0.0
  0
LINE
  5
BD
  8
0
  6
CONTINUOUS
 62
     7
 10
139.3512414665
 20
124.9274039872
 30
0.0
 11
139.3512414665
 21
129.7790440181
 31
0.0
  0
LINE
  5
BE
  8
0
  6
CONTINUOUS
 62
     7
 10
126.7991389163
 20
124.9274039872
 30
0.0
 11
139.3512414665
 21
124.9274039872
 31
0.0
  0
LINE
  5
BF
  8
0
  6
CONTINUOUS
 62
     7
 10
126.7991389163
 20
129.7790440181
 30
0.0
 11
126.7991389163
 21
124.9274039872
 31
0.0
  0
LINE
  5
C0
  8
0
  6
CONTINUOUS
 62
     7
 10
126.7991389163
 20
129.7790440181
 30
0.0
 11
139.3512414665
 21
129.7790440181
 31
0.0
  0
LINE
  5
C1
  8
0
  6
CONTINUOUS
 62
     7
 10
139.3512414665
 20
79.4525757852
 30
0.0
 11
139.3512414665
 21
124.9274039872
 31
0.0
  0
LINE
  5
C2
  8
0
  6
CONTINUOUS
 62
     7
 10
126.7991389163
 20
79.4525757852
 30
0.0
 11
139.3512414665
 21
79.4525757852
 31
0.0
  0
ARC
  5
C3
  8
0
  6
CONTINUOUS
 62
     7
 10
320.9041620353
 20
102.1899898862
 30
0.0
 40
195.4322133119307
 50
173.318834654
 51
186.681165346
  0
LINE
  5
C4
  8
0
  6
CONTINUOUS
 62
     7
 10
125.4719487233
 20
144.6899898862
 30
0.0
 11
127.4306754796
 21
144.6899898862
 31
0.0
  0
ARC
  5
C5
  8
0
  6
CONTINUOUS
 62
     7
 10
316.7184446181
 20
107.1775955517
 30
0.0
 40
192.9690111756749
 50
168.7905611335
 51
171.3300304602
  0
ARC
  5
C6
  8
0
  6
CONTINUOUS
 62
     7
 10
136.4835602709
 20
133.5656959741
 30
0.0
 40
10.86989033917253
 50
165.6144889421
 51
192.8420981239
  0
ARC
  5
C7
  8
0
  6
CONTINUOUS
 62
     7
 10
140.3080009984
 20
139.7727858642
 30
0.0
 40
16.80369693960797
 50
210.8749439256
 51
216.493722571
  0
LINE
  5
C8
  8
0
  6
CONTINUOUS
 62
     7
 10
126.7991389163
 20
79.4525757852
 30
0.0
 11
126.7991389163
 21
74.6009357543
 31
0.0
  0
ARC
  5
C9
  8
0
  6
CONTINUOUS
 62
     7
 10
140.3080009984
 20
64.6071939083
 30
0.0
 40
16.80369693957456
 50
143.5062774289
 51
149.1250560744
  0
ARC
  5
CA
  8
0
  6
CONTINUOUS
 62
     7
 10
137.9990558278
 20
70.8346969676
 30
0.0
 40
12.34809497934954
 50
168.8134426152
 51
192.7299703187
  0
ARC
  5
CB
  8
0
  6
CONTINUOUS
 62
     7
 10
316.718444618
 20
97.2023842207
 30
0.0
 40
192.9690111756526
 50
188.6699695398
 51
191.2094388665
  0
LINE
  5
CC
  8
0
  6
CONTINUOUS
 62
     7
 10
127.4306754796
 20
59.6899898862
 30
0.0
 11
125.4719487233
 21
59.6899898862
 31
0.0
  0
LINE
  5
CD
  8
0
  6
CONTINUOUS
 62
     7
 10
124.4512414665
 20
102.1899898862
 30
0.0
 11
124.4512414665
 21
139.6899898862
 31
0.0
  0
LINE
  5
CE
  8
0
  6
CONTINUOUS
 62
     7
 10
124.4512414665
 20
64.6899898862
 30
0.0
 11
124.4512414665
 21
102.1899898862
 31
0.0
  0
LINE
  5
CF
  8
0
  6
CONTINUOUS
 62
     7
 10
126.7991389163
 20
74.6009357543
 30
0.0
 11
139.3512414665
 21
74.6009357543
 31
0.0
  0
LINE
  5
D0
  8
0
  6
CONTINUOUS
 62
     7
 10
139.3512414665
 20
74.6009357543
 30
0.0
 11
139.3512414665
 21
79.4525757852
 31
0.0
  0
LINE
  5
D1
  8
0
  6
CONTINUOUS
 62
     7
 10
125.8855660192
 20
131.1497005633
 30
0.0
 11
139.3512414665
 21
131.1497005633
 31
0.0
  0
LINE
  5
D2
  8
0
  6
CONTINUOUS
 62
     7
 10
139.3512414665
 20
129.7790440181
 30
0.0
 11
139.3512414665
 21
131.1497005633
 31
0.0
  0
LINE
  5
D3
  8
0
  6
CONTINUOUS
 62
     7
 10
125.8855660192
 20
73.2302792092
 30
0.0
 11
139.3512414665
 21
73.2302792092
 31
0.0
  0
LINE
  5
D4
  8
0
  6
CONTINUOUS
 62
     7
 10
139.3512414665
 20
73.2302792092
 30
0.0
 11
139.3512414665
 21
74.6009357543
 31
0.0
  0
LINE
  5
D5
  8
0
  6
CONTINUOUS
 62
     7
 10
125.9544842692
 20
136.2662652724
 30
0.0
 11
139.3512414665
 21
136.2662652724
 31
0.0
  0
LINE
  5
D6
  8
0
  6
CONTINUOUS
 62
     7
 10
139.3512414665
 20
131.1497005633
 30
0.0
 11
139.3512414665
 21
136.2662652724
 31
0.0
  0
LINE
  5
D7
  8
0
  6
CONTINUOUS
 62
     7
 10
125.9544842692
 20
68.1137145
 30
0.0
 11
139.3512414665
 21
68.1137145
 31
0.0
  0
LINE
  5
D8
  8
0
  6
CONTINUOUS
 62
     7
 10
139.3512414665
 20
68.1137145
 30
0.0
 11
139.3512414665
 21
73.2302792092
 31
0.0
  0
LINE
  5
D9
  8
0
  6
CONTINUOUS
 62
     7
 10
127.4306754796
 20
144.6899898862
 30
0.0
 11
139.3512414665
 21
144.6899898862
 31
0.0
  0
LINE
  5
DA
  8
0
  6
CONTINUOUS
 62
     7
 10
139.3512414665
 20
136.2662652724
 30
0.0
 11
139.3512414665
 21
144.6899898862
 31
0.0
  0
LINE
  5
DB
  8
0
  6
CONTINUOUS
 62
     7
 10
127.4306754796
 20
59.6899898862
 30
0.0
 11
139.3512414665
 21
59.6899898862
 31
0.0
  0
LINE
  5
DC
  8
0
  6
CONTINUOUS
 62
     7
 10
139.3512414665
 20
59.6899898862
 30
0.0
 11
139.3512414665
 21
68.1137145
 31
0.0
  0
LINE
  5
DD
  8
0
  6
CONTINUOUS
 62
     7
 10
139.3512414665
 20
79.4525757852
 30
0.0
 11
152.4512414665
 21
79.4525757852
 31
0.0
  0
LINE
  5
DE
  8
0
  6
CONTINUOUS
 62
     7
 10
139.3512414665
 20
124.9274039872
 30
0.0
 11
152.4512414665
 21
124.9274039872
 31
0.0
  0
LINE
  5
DF
  8
0
  6
CONTINUOUS
 62
     7
 10
152.4512414665
 20
79.4525757852
 30
0.0
 11
152.4512414665
 21
124.9274039872
 31
0.0
  0
LINE
  5
E0
  8
0
  6
CONTINUOUS
 62
     7
 10
139.3512414665
 20
129.7790440181
 30
0.0
 11
152.4512414665
 21
129.7790440181
 31
0.0
  0
LINE
  5
E1
  8
0
  6
CONTINUOUS
 62
     7
 10
152.4512414665
 20
124.9274039872
 30
0.0
 11
152.4512414665
 21
129.7790440181
 31
0.0
  0
LINE
  5
E2
  8
0
  6
CONTINUOUS
 62
     7
 10
139.3512414665
 20
74.6009357543
 30
0.0
 11
152.4512414665
 21
74.6009357543
 31
0.0
  0
LINE
  5
E3
  8
0
  6
CONTINUOUS
 62
     7
 10
152.4512414665
 20
74.6009357543
 30
0.0
 11
152.4512414665
 21
79.4525757852
 31
0.0
  0
LINE
  5
E4
  8
0
  6
CONTINUOUS
 62
     7
 10
139.3512414665
 20
131.1497005633
 30
0.0
 11
152.4512414665
 21
131.1497005633
 31
0.0
  0
LINE
  5
E5
  8
0
  6
CONTINUOUS
 62
     7
 10
152.4512414665
 20
129.7790440181
 30
0.0
 11
152.4512414665
 21
131.1497005633
 31
0.0
  0
LINE
  5
E6
  8
0
  6
CONTINUOUS
 62
     7
 10
139.3512414665
 20
73.2302792092
 30
0.0
 11
152.4512414665
 21
73.2302792092
 31
0.0
  0
LINE
  5
E7
  8
0
  6
CONTINUOUS
 62
     7
 10
152.4512414665
 20
73.2302792092
 30
0.0
 11
152.4512414665
 21
74.6009357543
 31
0.0
  0
LINE
  5
E8
  8
0
  6
CONTINUOUS
 62
     7
 10
139.3512414665
 20
136.2662652724
 30
0.0
 11
152.4512414665
 21
136.2662652724
 31
0.0
  0
LINE
  5
E9
  8
0
  6
CONTINUOUS
 62
     7
 10
152.4512414665
 20
131.1497005633
 30
0.0
 11
152.4512414665
 21
136.2662652724
 31
0.0
  0
LINE
  5
EA
  8
0
  6
CONTINUOUS
 62
     7
 10
139.3512414665
 20
68.1137145
 30
0.0
 11
152.4512414665
 21
68.1137145
 31
0.0
  0
LINE
  5
EB
  8
0
  6
CONTINUOUS
 62
     7
 10
152.4512414665
 20
68.1137145
 30
0.0
 11
152.4512414665
 21
73.2302792092
 31
0.0
  0
LINE
  5
EC
  8
0
  6
CONTINUOUS
 62
     7
 10
139.3512414665
 20
144.6899898862
 30
0.0
 11
152.4512414665
 21
144.6899898862
 31
0.0
  0
LINE
  5
ED
  8
0
  6
CONTINUOUS
 62
     7
 10
152.4512414665
 20
136.2662652724
 30
0.0
 11
152.4512414665
 21
144.6899898862
 31
0.0
  0
LINE
  5
EE
  8
0
  6
CONTINUOUS
 62
     7
 10
139.3512414665
 20
59.6899898862
 30
0.0
 11
152.4512414665
 21
59.6899898862
 31
0.0
  0
LINE
  5
EF
  8
0
  6
CONTINUOUS
 62
     7
 10
152.4512414665
 20
59.6899898862
 30
0.0
 11
152.4512414665
 21
68.1137145
 31
0.0
  0
LINE
  5
F0
  8
0
  6
CONTINUOUS
 62
     7
 10
152.4512414665
 20
79.4525757852
 30
0.0
 11
194.4512414665
 21
79.4525757852
 31
0.0
  0
LINE
  5
F1
  8
0
  6
CONTINUOUS
 62
     7
 10
152.4512414665
 20
124.9274039872
 30
0.0
 11
194.4512414665
 21
124.9274039872
 31
0.0
  0
LINE
  5
F2
  8
0
  6
CONTINUOUS
 62
     7
 10
194.4512414665
 20
79.4525757852
 30
0.0
 11
194.4512414665
 21
124.9274039872
 31
0.0
  0
LINE
  5
F3
  8
0
  6
CONTINUOUS
 62
     7
 10
152.4512414665
 20
129.7790440181
 30
0.0
 11
194.4512414665
 21
129.7790440181
 31
0.0
  0
LINE
  5
F4
  8
0
  6
CONTINUOUS
 62
     7
 10
194.4512414665
 20
124.9274039872
 30
0.0
 11
194.4512414665
 21
129.7790440181
 31
0.0
  0
LINE
  5
F5
  8
0
  6
CONTINUOUS
 62
     7
 10
152.4512414665
 20
74.6009357543
 30
0.0
 11
194.4512414665
 21
74.6009357543
 31
0.0
  0
LINE
  5
F6
  8
0
  6
CONTINUOUS
 62
     7
 10
194.4512414665
 20
74.6009357543
 30
0.0
 11
194.4512414665
 21
79.4525757852
 31
0.0
  0
LINE
  5
F7
  8
0
  6
CONTINUOUS
 62
     7
 10
152.4512414665
 20
131.1497005633
 30
0.0
 11
194.4512414665
 21
131.1497005633
 31
0.0
  0
LINE
  5
F8
  8
0
  6
CONTINUOUS
 62
     7
 10
194.4512414665
 20
129.7790440181
 30
0.0
 11
194.4512414665
 21
131.1497005633
 31
0.0
  0
LINE
  5
F9
  8
0
  6
CONTINUOUS
 62
     7
 10
152.4512414665
 20
73.2302792092
 30
0.0
 11
194.4512414665
 21
73.2302792092
 31
0.0
  0
LINE
  5
FA
  8
0
  6
CONTINUOUS
 62
     7
 10
194.4512414665
 20
73.2302792092
 30
0.0
 11
194.4512414665
 21
74.6009357543
 31
0.0
  0
LINE
  5
FB
  8
0
  6
CONTINUOUS
 62
     7
 10
152.4512414665
 20
136.2662652724
 30
0.0
 11
194.4512414665
 21
136.2662652724
 31
0.0
  0
LINE
  5
FC
  8
0
  6
CONTINUOUS
 62
     7
 10
194.4512414665
 20
131.1497005633
 30
0.0
 11
194.4512414665
 21
136.2662652724
 31
0.0
  0
LINE
  5
FD
  8
0
  6
CONTINUOUS
 62
     7
 10
152.4512414665
 20
68.1137145
 30
0.0
 11
194.4512414665
 21
68.1137145
 31
0.0
  0
LINE
  5
FE
  8
0
  6
CONTINUOUS
 62
     7
 10
194.4512414665
 20
68.1137145
 30
0.0
 11
194.4512414665
 21
73.2302792092
 31
0.0
  0
LINE
  5
FF
  8
0
  6
CONTINUOUS
 62
     7
 10
152.4512414665
 20
144.6899898862
 30
0.0
 11
194.4512414665
 21
144.6899898862
 31
0.0
  0
LINE
  5
100
  8
0
  6
CONTINUOUS
 62
     7
 10
194.4512414665
 20
136.2662652724
 30
0.0
 11
194.4512414665
 21
144.6899898862
 31
0.0
  0
LINE
  5
101
  8
0
  6
CONTINUOUS
 62
     7
 10
152.4512414665
 20
59.6899898862
 30
0.0
 11
194.4512414665
 21
59.6899898862
 31
0.0
  0
LINE
  5
102
  8
0
  6
CONTINUOUS
 62
     7
 10
194.4512414665
 20
59.6899898862
 30
0.0
 11
194.4512414665
 21
68.1137145
 31
0.0
  0
LINE
  5
103
  8
0
  6
CONTINUOUS
 62
     7
 10
194.4512414665
 20
79.4525757852
 30
0.0
 11
197.4512414665
 21
79.4525757852
 31
0.0
  0
LINE
  5
104
  8
0
  6
CONTINUOUS
 62
     7
 10
194.4512414665
 20
124.9274039872
 30
0.0
 11
197.4512414665
 21
124.9274039872
 31
0.0
  0
LINE
  5
105
  8
0
  6
CONTINUOUS
 62
     7
 10
197.4512414665
 20
79.4525757852
 30
0.0
 11
197.4512414665
 21
124.9274039872
 31
0.0
  0
LINE
  5
106
  8
0
  6
CONTINUOUS
 62
     7
 10
194.4512414665
 20
129.7790440181
 30
0.0
 11
197.4512414665
 21
129.7790440181
 31
0.0
  0
LINE
  5
107
  8
0
  6
CONTINUOUS
 62
     7
 10
197.4512414665
 20
124.9274039872
 30
0.0
 11
197.4512414665
 21
129.7790440181
 31
0.0
  0
LINE
  5
108
  8
0
  6
CONTINUOUS
 62
     7
 10
194.4512414665
 20
74.6009357543
 30
0.0
 11
197.4512414665
 21
74.6009357543
 31
0.0
  0
LINE
  5
109
  8
0
  6
CONTINUOUS
 62
     7
 10
197.4512414665
 20
74.6009357543
 30
0.0
 11
197.4512414665
 21
79.4525757852
 31
0.0
  0
LINE
  5
10A
  8
0
  6
CONTINUOUS
 62
     7
 10
194.4512414665
 20
131.1497005633
 30
0.0
 11
197.4512414665
 21
131.1497005633
 31
0.0
  0
LINE
  5
10B
  8
0
  6
CONTINUOUS
 62
     7
 10
197.4512414665
 20
129.7790440181
 30
0.0
 11
197.4512414665
 21
131.1497005633
 31
0.0
  0
LINE
  5
10C
  8
0
  6
CONTINUOUS
 62
     7
 10
194.4512414665
 20
73.2302792092
 30
0.0
 11
197.4512414665
 21
73.2302792092
 31
0.0
  0
LINE
  5
10D
  8
0
  6
CONTINUOUS
 62
     7
 10
197.4512414665
 20
73.2302792092
 30
0.0
 11
197.4512414665
 21
74.6009357543
 31
0.0
  0
LINE
  5
10E
  8
0
  6
CONTINUOUS
 62
     7
 10
194.4512414665
 20
136.2662652724
 30
0.0
 11
197.4512414665
 21
136.2662652724
 31
0.0
  0
LINE
  5
10F
  8
0
  6
CONTINUOUS
 62
     7
 10
197.4512414665
 20
131.1497005633
 30
0.0
 11
197.4512414665
 21
136.2662652724
 31
0.0
  0
LINE
  5
110
  8
0
  6
CONTINUOUS
 62
     7
 10
194.4512414665
 20
68.1137145
 30
0.0
 11
197.4512414665
 21
68.1137145
 31
0.0
  0
LINE
  5
111
  8
0
  6
CONTINUOUS
 62
     7
 10
197.4512414665
 20
68.1137145
 30
0.0
 11
197.4512414665
 21
73.2302792092
 31
0.0
  0
LINE
  5
112
  8
0
  6
CONTINUOUS
 62
     7
 10
194.4512414665
 20
144.6899898862
 30
0.0
 11
197.4512414665
 21
144.6899898862
 31
0.0
  0
LINE
  5
113
  8
0
  6
CONTINUOUS
 62
     7
 10
197.4512414665
 20
136.2662652724
 30
0.0
 11
197.4512414665
 21
144.6899898862
 31
0.0
  0
LINE
  5
114
  8
0
  6
CONTINUOUS
 62
     7
 10
194.4512414665
 20
59.6899898862
 30
0.0
 11
197.4512414665
 21
59.6899898862
 31
0.0
  0
LINE
  5
115
  8
0
  6
CONTINUOUS
 62
     7
 10
197.4512414665
 20
59.6899898862
 30
0.0
 11
197.4512414665
 21
68.1137145
 31
0.0
  0
LINE
  5
116
  8
0
  6
CONTINUOUS
 62
     7
 10
197.4512414665
 20
124.9274039872
 30
0.0
 11
284.4512414665
 21
124.9274039872
 31
0.0
  0
LINE
  5
117
  8
0
  6
CONTINUOUS
 62
     7
 10
197.4512414665
 20
129.7790440181
 30
0.0
 11
284.4512414665
 21
129.7790440181
 31
0.0
  0
LINE
  5
118
  8
0
  6
CONTINUOUS
 62
     7
 10
197.4512414665
 20
79.4525757852
 30
0.0
 11
284.4512414665
 21
79.4525757852
 31
0.0
  0
LINE
  5
119
  8
0
  6
CONTINUOUS
 62
     7
 10
197.4512414665
 20
74.6009357543
 30
0.0
 11
284.4512414665
 21
74.6009357543
 31
0.0
  0
LINE
  5
11A
  8
0
  6
CONTINUOUS
 62
     7
 10
197.4512414665
 20
131.1497005633
 30
0.0
 11
284.4512414665
 21
131.1497005633
 31
0.0
  0
LINE
  5
11B
  8
0
  6
CONTINUOUS
 62
     7
 10
197.4512414665
 20
73.2302792092
 30
0.0
 11
284.4512414665
 21
73.2302792092
 31
0.0
  0
LINE
  5
11C
  8
0
  6
CONTINUOUS
 62
     7
 10
197.4512414665
 20
136.2662652724
 30
0.0
 11
284.4512414665
 21
136.2662652724
 31
0.0
  0
LINE
  5
11D
  8
0
  6
CONTINUOUS
 62
     7
 10
197.4512414665
 20
68.1137145
 30
0.0
 11
284.4512414665
 21
68.1137145
 31
0.0
  0
LINE
  5
11E
  8
0
  6
CONTINUOUS
 62
     7
 10
197.4512414665
 20
144.6899898862
 30
0.0
 11
284.4512414665
 21
144.6899898862
 31
0.0
  0
LINE
  5
11F
  8
0
  6
CONTINUOUS
 62
     7
 10
197.4512414665
 20
59.6899898862
 30
0.0
 11
284.4512414665
 21
59.6899898862
 31
0.0
  0
ARC
  5
120
  8
0
  6
CONTINUOUS
 62
     7
 10
200.6512414665
 20
55.4899898862
 30
0.0
 40
2.200000000000025
 50
186.5249788441
 51
353.4750211559
  0
ARC
  5
121
  8
0
  6
CONTINUOUS
 62
     7
 10
200.6512414665
 20
55.4899898862
 30
0.0
 40
3.500000000000014
 50
184.0960437582
 51
355.9039562418
  0
LINE
  5
122
  8
0
  6
CONTINUOUS
 62
     7
 10
197.1601814556
 20
55.2399898862
 30
0.0
 11
198.4654921671
 21
55.2399898862
 31
0.0
  0
LINE
  5
123
  8
0
  6
CONTINUOUS
 62
     7
 10
202.8369907659
 20
55.2399898862
 30
0.0
 11
204.1423014774
 21
55.2399898862
 31
0.0
  0
ARC
  5
124
  8
0
  6
CONTINUOUS
 62
     7
 10
200.6512414665
 20
55.4899898862
 30
0.0
 40
2.200000000000026
 50
6.5249788441
 51
173.4750211559
  0
ARC
  5
125
  8
0
  6
CONTINUOUS
 62
     7
 10
200.6512414665
 20
55.4899898862
 30
0.0
 40
3.500000000000014
 50
4.0960437582
 51
175.9039562418
  0
LINE
  5
126
  8
0
  6
CONTINUOUS
 62
     7
 10
204.1423014774
 20
55.7399898862
 30
0.0
 11
202.8369907659
 21
55.7399898862
 31
0.0
  0
LINE
  5
127
  8
0
  6
CONTINUOUS
 62
     7
 10
198.4654921671
 20
55.7399898862
 30
0.0
 11
197.1601814556
 21
55.7399898862
 31
0.0
  0
ARC
  5
128
  8
0
  6
CONTINUOUS
 62
     7
 10
199.4012414665
 20
54.2399898862
 30
0.0
 40
1.0
 50
0.0
 51
90.0
  0
LINE
  5
129
  8
0
  6
CONTINUOUS
 62
     7
 10
200.4012414665
 20
54.2399898862
 30
0.0
 11
200.4012414665
 21
53.3899898862
 31
0.0
  0
LINE
  5
12A
  8
0
  6
CONTINUOUS
 62
     7
 10
200.4012414665
 20
53.3899898862
 30
0.0
 11
200.9012414665
 21
53.3899898862
 31
0.0
  0
LINE
  5
12B
  8
0
  6
CONTINUOUS
 62
     7
 10
200.9012414665
 20
53.3899898862
 30
0.0
 11
200.9012414665
 21
54.2399898862
 31
0.0
  0
ARC
  5
12C
  8
0
  6
CONTINUOUS
 62
     7
 10
201.9012414665
 20
54.2399898862
 30
0.0
 40
1.0
 50
90.0
 51
180.0
  0
LINE
  5
12D
  8
0
  6
CONTINUOUS
 62
     7
 10
198.4654921671
 20
55.2399898862
 30
0.0
 11
199.4012414665
 21
55.2399898862
 31
0.0
  0
LINE
  5
12E
  8
0
  6
CONTINUOUS
 62
     7
 10
201.9012414665
 20
55.2399898862
 30
0.0
 11
202.8369907659
 21
55.2399898862
 31
0.0
  0
ARC
  5
12F
  8
0
  6
CONTINUOUS
 62
     7
 10
199.4012414665
 20
56.7399898862
 30
0.0
 40
1.0
 50
270.0
 51
0.0
  0
LINE
  5
130
  8
0
  6
CONTINUOUS
 62
     7
 10
200.9012414665
 20
56.7399898862
 30
0.0
 11
200.9012414665
 21
57.5899898862
 31
0.0
  0
ARC
  5
131
  8
0
  6
CONTINUOUS
 62
     7
 10
201.9012414665
 20
56.7399898862
 30
0.0
 40
1.0
 50
180.0
 51
270.0
  0
LINE
  5
132
  8
0
  6
CONTINUOUS
 62
     7
 10
200.9012414665
 20
57.5899898862
 30
0.0
 11
200.4012414665
 21
57.5899898862
 31
0.0
  0
LINE
  5
133
  8
0
  6
CONTINUOUS
 62
     7
 10
200.4012414665
 20
57.5899898862
 30
0.0
 11
200.4012414665
 21
56.7399898862
 31
0.0
  0
LINE
  5
134
  8
0
  6
CONTINUOUS
 62
     7
 10
202.8369907659
 20
55.7399898862
 30
0.0
 11
201.9012414665
 21
55.7399898862
 31
0.0
  0
LINE
  5
135
  8
0
  6
CONTINUOUS
 62
     7
 10
199.4012414665
 20
55.7399898862
 30
0.0
 11
198.4654921671
 21
55.7399898862
 31
0.0
  0
ARC
  5
136
  8
0
  6
CONTINUOUS
 62
     7
 10
200.6512414665
 20
55.4899898862
 30
0.0
 40
3.499999999999986
 50
355.9039562418
 51
4.0960437582
  0
ARC
  5
137
  8
0
  6
CONTINUOUS
 62
     7
 10
200.6512414665
 20
55.4899898862
 30
0.0
 40
3.500000000000014
 50
175.9039562418
 51
184.0960437582
  0
LINE
  5
138
  8
0
  6
CONTINUOUS
 62
     7
 10
208.8512414665
 20
53.3899898862
 30
0.0
 11
210.4512414665
 21
53.3899898862
 31
0.0
  0
LINE
  5
139
  8
0
  6
CONTINUOUS
 62
     7
 10
208.8512414665
 20
53.7399898862
 30
0.0
 11
208.8512414665
 21
53.3899898862
 31
0.0
  0
LINE
  5
13A
  8
0
  6
CONTINUOUS
 62
     7
 10
208.8512414665
 20
53.7399898862
 30
0.0
 11
210.4512414665
 21
53.7399898862
 31
0.0
  0
LINE
  5
13B
  8
0
  6
CONTINUOUS
 62
     7
 10
210.4512414665
 20
53.7399898862
 30
0.0
 11
210.4512414665
 21
53.3899898862
 31
0.0
  0
LINE
  5
13C
  8
0
  6
CONTINUOUS
 62
     7
 10
208.2512414665
 20
54.3699898862
 30
0.0
 11
208.2512414665
 21
54.0199898862
 31
0.0
  0
LINE
  5
13D
  8
0
  6
CONTINUOUS
 62
     7
 10
208.2512414665
 20
54.3699898862
 30
0.0
 11
211.0512414665
 21
54.3699898862
 31
0.0
  0
LINE
  5
13E
  8
0
  6
CONTINUOUS
 62
     7
 10
211.0512414665
 20
54.3699898862
 30
0.0
 11
211.0512414665
 21
54.0199898862
 31
0.0
  0
LINE
  5
13F
  8
0
  6
CONTINUOUS
 62
     7
 10
208.2512414665
 20
54.0199898862
 30
0.0
 11
211.0512414665
 21
54.0199898862
 31
0.0
  0
CIRCLE
  5
140
  8
0
  6
CONTINUOUS
 62
     7
 10
209.6512414665
 20
55.4899898862
 30
0.0
 40
2.650000000000006
  0
CIRCLE
  5
141
  8
0
  6
CONTINUOUS
 62
     7
 10
209.6512414665
 20
55.4899898862
 30
0.0
 40
3.0
  0
LINE
  5
142
  8
0
  6
CONTINUOUS
 62
     7
 10
207.6512414665
 20
54.9999898862
 30
0.0
 11
209.4762414665
 21
54.9999898862
 31
0.0
  0
LINE
  5
143
  8
0
  6
CONTINUOUS
 62
     7
 10
209.4762414665
 20
57.5999898862
 30
0.0
 11
209.8262414665
 21
57.5999898862
 31
0.0
  0
LINE
  5
144
  8
0
  6
CONTINUOUS
 62
     7
 10
209.8262414665
 20
54.9999898862
 30
0.0
 11
211.6512414665
 21
54.9999898862
 31
0.0
  0
LINE
  5
145
  8
0
  6
CONTINUOUS
 62
     7
 10
207.6512414665
 20
54.9999898862
 30
0.0
 11
207.6512414665
 21
54.6499898862
 31
0.0
  0
LINE
  5
146
  8
0
  6
CONTINUOUS
 62
     7
 10
209.4762414665
 20
57.5999898862
 30
0.0
 11
209.4762414665
 21
54.9999898862
 31
0.0
  0
LINE
  5
147
  8
0
  6
CONTINUOUS
 62
     7
 10
211.6512414665
 20
54.9999898862
 30
0.0
 11
211.6512414665
 21
54.6499898862
 31
0.0
  0
LINE
  5
148
  8
0
  6
CONTINUOUS
 62
     7
 10
207.6512414665
 20
54.6499898862
 30
0.0
 11
211.6512414665
 21
54.6499898862
 31
0.0
  0
LINE
  5
149
  8
0
  6
CONTINUOUS
 62
     7
 10
209.8262414665
 20
57.5999898862
 30
0.0
 11
209.8262414665
 21
54.9999898862
 31
0.0
  0
LINE
  5
14A
  8
0
  6
CONTINUOUS
 62
     7
 10
195.4512414665
 20
50.2284640765
 30
0.0
 11
211.6512414665
 21
50.2284640765
 31
0.0
  0
LINE
  5
14B
  8
0
  6
CONTINUOUS
 62
     7
 10
219.9512414665
 20
54.2772445643
 30
0.0
 11
219.9512414665
 21
59.6899898862
 31
0.0
  0
LINE
  5
14C
  8
0
  6
CONTINUOUS
 62
     7
 10
219.9512414665
 20
54.2772445643
 30
0.0
 11
211.6512414665
 21
50.2284640765
 31
0.0
  0
LINE
  5
14D
  8
0
  6
CONTINUOUS
 62
     7
 10
195.4512414665
 20
50.2284640765
 30
0.0
 11
195.4512414665
 21
59.6899898862
 31
0.0
  0
LINE
  5
14E
  8
0
  6
CONTINUOUS
 62
     7
 10
211.6512414665
 20
50.2284640765
 30
0.0
 11
211.6512414665
 21
48.6899898864
 31
0.0
  0
POLYLINE
  5
14F
  8
0
  6
CONTINUOUS
 62
     7
 66
     1
 10
0.0
 20
0.0
 30
0.0
 70
   128
  0
VERTEX
  5
436
  8
0
  6
CONTINUOUS
 62
     7
 10
223.9512414665
 20
55.4468468231
 30
0.0
  0
VERTEX
  5
437
  8
0
  6
CONTINUOUS
 62
     7
 10
223.7625806186
 20
55.5622836573
 30
0.0
  0
VERTEX
  5
438
  8
0
  6
CONTINUOUS
 62
     7
 10
223.2114897767
 20
55.5044227162
 30
0.0
  0
VERTEX
  5
439
  8
0
  6
CONTINUOUS
 62
     7
 10
222.3765828502
 20
55.2772016363
 30
0.0
  0
VERTEX
  5
43A
  8
0
  6
CONTINUOUS
 62
     7
 10
221.3177131949
 20
54.8887674819
 30
0.0
  0
VERTEX
  5
43B
  8
0
  6
CONTINUOUS
 62
     7
 10
219.9512414665
 20
54.2772445643
 30
0.0
  0
SEQEND
  5
53D
  8
0
  6
CONTINUOUS
 62
     7
  0
LINE
  5
150
  8
0
  6
CONTINUOUS
 62
     7
 10
223.9512414665
 20
55.4468468231
 30
0.0
 11
223.9512414665
 21
54.7095209831
 31
0.0
  0
LINE
  5
151
  8
0
  6
CONTINUOUS
 62
     7
 10
223.9512414665
 20
59.6899898862
 30
0.0
 11
223.9512414665
 21
55.4468468231
 31
0.0
  0
ARC
  5
152
  8
0
  6
CONTINUOUS
 62
     7
 10
204.4510637244
 20
-11.1856261912
 30
0.0
 40
60.10532450945913
 50
85.0511233862
 51
95.0108111729
  0
LINE
  5
153
  8
0
  6
CONTINUOUS
 62
     7
 10
195.4512414665
 20
48.6899898862
 30
0.0
 11
195.4512414665
 21
50.2284640765
 31
0.0
  0
LINE
  5
154
  8
0
  6
CONTINUOUS
 62
     7
 10
199.2012414665
 20
46.6899898862
 30
0.0
 11
209.7012414665
 21
46.6899898862
 31
0.0
  0
LINE
  5
155
  8
0
  6
CONTINUOUS
 62
     7
 10
171.4512414665
 20
50.1152513038
 30
0.0
 11
171.4512414665
 21
59.6899898862
 31
0.0
  0
LINE
  5
156
  8
0
  6
CONTINUOUS
 62
     7
 10
159.4512414665
 20
50.1152513038
 30
0.0
 11
171.4512414665
 21
50.1152513038
 31
0.0
  0
LINE
  5
157
  8
0
  6
CONTINUOUS
 62
     7
 10
159.4512414665
 20
50.1152513038
 30
0.0
 11
159.4512414665
 21
59.6899898862
 31
0.0
  0
LINE
  5
158
  8
0
  6
CONTINUOUS
 62
     7
 10
171.4512414665
 20
48.6899898862
 30
0.0
 11
171.4512414665
 21
50.1152513038
 31
0.0
  0
ARC
  5
159
  8
0
  6
CONTINUOUS
 62
     7
 10
165.4510764649
 20
-11.1968594068
 30
0.0
 40
60.09520004343868
 50
85.2864580262
 51
94.7724438483
  0
LINE
  5
15A
  8
0
  6
CONTINUOUS
 62
     7
 10
159.4512414665
 20
48.6899898862
 30
0.0
 11
159.4512414665
 21
50.1152513038
 31
0.0
  0
LINE
  5
15B
  8
0
  6
CONTINUOUS
 62
     7
 10
160.4512414665
 20
46.6899898862
 30
0.0
 11
170.4512414665
 21
46.6899898862
 31
0.0
  0
LINE
  5
15C
  8
0
  6
CONTINUOUS
 62
     7
 10
126.3512414665
 20
48.6899898862
 30
0.0
 11
126.3512414665
 21
50.1152513038
 31
0.0
  0
LINE
  5
15D
  8
0
  6
CONTINUOUS
 62
     7
 10
126.3512414665
 20
50.1152513038
 30
0.0
 11
138.3512414665
 21
50.1152513038
 31
0.0
  0
LINE
  5
15E
  8
0
  6
CONTINUOUS
 62
     7
 10
138.3512414665
 20
48.6899898862
 30
0.0
 11
138.3512414665
 21
50.1152513038
 31
0.0
  0
ARC
  5
15F
  8
0
  6
CONTINUOUS
 62
     7
 10
132.3510764649
 20
-11.1968594068
 30
0.0
 40
60.09520004343862
 50
85.2864580262
 51
94.7724438483
  0
LINE
  5
160
  8
0
  6
CONTINUOUS
 62
     7
 10
138.3512414665
 20
50.1152513038
 30
0.0
 11
138.3512414665
 21
59.6899898862
 31
0.0
  0
LINE
  5
161
  8
0
  6
CONTINUOUS
 62
     7
 10
126.3512414665
 20
50.1152513038
 30
0.0
 11
126.3512414665
 21
59.6899898862
 31
0.0
  0
LINE
  5
162
  8
0
  6
CONTINUOUS
 62
     7
 10
127.3512414665
 20
46.6899898862
 30
0.0
 11
137.3512414665
 21
46.6899898862
 31
0.0
  0
LINE
  5
163
  8
0
  6
CONTINUOUS
 62
     7
 10
48.689426043
 20
46.6899898862
 30
0.0
 11
48.689426043
 21
9.6899898862
 31
0.0
  0
LINE
  5
164
  8
0
  6
CONTINUOUS
 62
     7
 10
56.689426043
 20
9.6899898862
 30
0.0
 11
56.689426043
 21
46.6899898862
 31
0.0
  0
LINE
  5
165
  8
0
  6
CONTINUOUS
 62
     7
 10
49.689426043
 20
46.6899898862
 30
0.0
 11
49.689426043
 21
9.6899898862
 31
0.0
  0
LINE
  5
166
  8
0
  6
CONTINUOUS
 62
     7
 10
55.689426043
 20
9.6899898862
 30
0.0
 11
55.689426043
 21
46.6899898862
 31
0.0
  0
ARC
  5
167
  8
0
  6
CONTINUOUS
 62
     7
 10
69.889426043
 20
57.6899898862
 30
0.0
 40
1.300000000000004
 50
0.0
 51
90.0
  0
ARC
  5
168
  8
0
  6
CONTINUOUS
 62
     7
 10
69.889426043
 20
53.2899898862
 30
0.0
 40
1.300000000000004
 50
270.0
 51
0.0
  0
LINE
  5
169
  8
0
  6
CONTINUOUS
 62
     7
 10
68.789426043
 20
51.9899898862
 30
0.0
 11
69.889426043
 21
51.9899898862
 31
0.0
  0
LINE
  5
16A
  8
0
  6
CONTINUOUS
 62
     7
 10
69.889426043
 20
58.9899898862
 30
0.0
 11
68.789426043
 21
58.9899898862
 31
0.0
  0
LINE
  5
16B
  8
0
  6
CONTINUOUS
 62
     7
 10
66.189426043
 20
51.9899898862
 30
0.0
 11
68.789426043
 21
51.9899898862
 31
0.0
  0
LINE
  5
16C
  8
0
  6
CONTINUOUS
 62
     7
 10
68.789426043
 20
58.9899898862
 30
0.0
 11
66.189426043
 21
58.9899898862
 31
0.0
  0
LINE
  5
16D
  8
0
  6
CONTINUOUS
 62
     7
 10
47.439426043
 20
48.914328529
 30
0.0
 11
47.439426043
 21
46.6899898862
 31
0.0
  0
LINE
  5
16E
  8
0
  6
CONTINUOUS
 62
     7
 10
57.939426043
 20
46.6899898862
 30
0.0
 11
57.939426043
 21
48.9197710077
 31
0.0
  0
LINE
  5
16F
  8
0
  6
CONTINUOUS
 62
     7
 10
47.689426043
 20
48.8934315908
 30
0.0
 11
47.689426043
 21
46.6899898862
 31
0.0
  0
LINE
  5
170
  8
0
  6
CONTINUOUS
 62
     7
 10
57.689426043
 20
46.6899898862
 30
0.0
 11
57.689426043
 21
48.8983342447
 31
0.0
  0
LINE
  5
171
  8
0
  6
CONTINUOUS
 62
     7
 10
55.689426043
 20
9.6899898862
 30
0.0
 11
56.689426043
 21
9.6899898862
 31
0.0
  0
LINE
  5
172
  8
0
  6
CONTINUOUS
 62
     7
 10
48.689426043
 20
9.6899898862
 30
0.0
 11
49.689426043
 21
9.6899898862
 31
0.0
  0
LINE
  5
173
  8
0
  6
CONTINUOUS
 62
     7
 10
52.689426043
 20
9.6899898862
 30
0.0
 11
55.689426043
 21
9.6899898862
 31
0.0
  0
LINE
  5
174
  8
0
  6
CONTINUOUS
 62
     7
 10
49.689426043
 20
9.6899898862
 30
0.0
 11
52.689426043
 21
9.6899898862
 31
0.0
  0
LINE
  5
175
  8
0
  6
CONTINUOUS
 62
     7
 10
18.389426043
 20
59.6899898862
 30
0.0
 11
25.089426043
 21
59.6899898862
 31
0.0
  0
ARC
  5
176
  8
0
  6
CONTINUOUS
 62
     7
 10
18.3909369016
 20
67.8915007448
 30
0.0
 40
8.201510997773145
 50
180.0105548627
 51
269.9894451373
  0
LINE
  5
177
  8
0
  6
CONTINUOUS
 62
     7
 10
10.189426043
 20
79.4525757852
 30
0.0
 11
10.189426043
 21
67.8899898862
 31
0.0
  0
ARC
  5
178
  8
0
  6
CONTINUOUS
 62
     7
 10
52.689426043
 20
102.1899898862
 30
0.0
 40
45.50230072694307
 50
218.8343287018
 51
219.5935886023
  0
ARC
  5
179
  8
0
  6
CONTINUOUS
 62
     7
 10
17.689426043
 20
67.1899898862
 30
0.0
 40
6.000000000000017
 50
90.605156324
 51
359.394843676
  0
ARC
  5
17A
  8
0
  6
CONTINUOUS
 62
     7
 10
52.689426043
 20
102.1899898862
 30
0.0
 40
45.50230072694306
 50
230.4064113977
 51
230.9261981181
  0
LINE
  5
17B
  8
0
  6
CONTINUOUS
 62
     7
 10
10.189426043
 20
136.4899898862
 30
0.0
 11
10.189426043
 21
124.9274039872
 31
0.0
  0
ARC
  5
17C
  8
0
  6
CONTINUOUS
 62
     7
 10
18.3909369016
 20
136.4884790276
 30
0.0
 40
8.201510997773164
 50
90.0105548627
 51
179.9894451373
  0
LINE
  5
17D
  8
0
  6
CONTINUOUS
 62
     7
 10
25.089426043
 20
144.6899898862
 30
0.0
 11
18.389426043
 21
144.6899898862
 31
0.0
  0
ARC
  5
17E
  8
0
  6
CONTINUOUS
 62
     7
 10
52.689426043
 20
102.1899898862
 30
0.0
 40
45.50230072694322
 50
129.0738018819
 51
129.5935886023
  0
ARC
  5
17F
  8
0
  6
CONTINUOUS
 62
     7
 10
17.689426043
 20
137.1899898862
 30
0.0
 40
6.000000000000008
 50
0.605156324
 51
269.394843676
  0
ARC
  5
180
  8
0
  6
CONTINUOUS
 62
     7
 10
52.689426043
 20
102.1899898862
 30
0.0
 40
45.50230072694321
 50
140.4064113977
 51
141.1656712982
  0
LINE
  5
181
  8
0
  6
CONTINUOUS
 62
     7
 10
95.189426043
 20
67.8899898862
 30
0.0
 11
95.189426043
 21
79.4525757852
 31
0.0
  0
ARC
  5
182
  8
0
  6
CONTINUOUS
 62
     7
 10
86.9879151844
 20
67.8915007448
 30
0.0
 40
8.201510997773122
 50
270.0105548627
 51
359.9894451373
  0
LINE
  5
183
  8
0
  6
CONTINUOUS
 62
     7
 10
80.289426043
 20
59.6899898862
 30
0.0
 11
86.989426043
 21
59.6899898862
 31
0.0
  0
ARC
  5
184
  8
0
  6
CONTINUOUS
 62
     7
 10
52.689426043
 20
102.1899898862
 30
0.0
 40
45.50230072694308
 50
309.0738018819
 51
309.5935886023
  0
ARC
  5
185
  8
0
  6
CONTINUOUS
 62
     7
 10
87.689426043
 20
67.1899898862
 30
0.0
 40
6.00000000000002
 50
180.605156324
 51
89.394843676
  0
ARC
  5
186
  8
0
  6
CONTINUOUS
 62
     7
 10
52.689426043
 20
102.1899898862
 30
0.0
 40
45.50230072694307
 50
320.4064113977
 51
321.1656712982
  0
LINE
  5
187
  8
0
  6
CONTINUOUS
 62
     7
 10
86.989426043
 20
144.6899898862
 30
0.0
 11
80.289426043
 21
144.6899898862
 31
0.0
  0
ARC
  5
188
  8
0
  6
CONTINUOUS
 62
     7
 10
86.9879151844
 20
136.4884790276
 30
0.0
 40
8.201510997773193
 50
0.0105548627
 51
89.9894451373
  0
LINE
  5
189
  8
0
  6
CONTINUOUS
 62
     7
 10
95.189426043
 20
124.9274039872
 30
0.0
 11
95.189426043
 21
136.4899898862
 31
0.0
  0
ARC
  5
18A
  8
0
  6
CONTINUOUS
 62
     7
 10
52.689426043
 20
102.1899898862
 30
0.0
 40
45.50230072694306
 50
38.8343287018
 51
39.5935886023
  0
ARC
  5
18B
  8
0
  6
CONTINUOUS
 62
     7
 10
87.689426043
 20
137.1899898862
 30
0.0
 40
6.000000000000005
 50
270.605156324
 51
179.394843676
  0
ARC
  5
18C
  8
0
  6
CONTINUOUS
 62
     7
 10
52.689426043
 20
102.1899898862
 30
0.0
 40
45.50230072694305
 50
50.4064113977
 51
50.9261981181
  0
CIRCLE
  5
18D
  8
0
  6
CONTINUOUS
 62
     7
 10
87.689426043
 20
67.1899898862
 30
0.0
 40
3.25
  0
CIRCLE
  5
18E
  8
0
  6
CONTINUOUS
 62
     7
 10
17.689426043
 20
137.1899898862
 30
0.0
 40
3.249999999999989
  0
CIRCLE
  5
18F
  8
0
  6
CONTINUOUS
 62
     7
 10
87.689426043
 20
137.1899898862
 30
0.0
 40
3.25
  0
CIRCLE
  5
190
  8
0
  6
CONTINUOUS
 62
     7
 10
17.689426043
 20
67.1899898862
 30
0.0
 40
3.250000000000004
  0
ARC
  5
191
  8
0
  6
CONTINUOUS
 62
     7
 10
52.689426043
 20
102.1899898862
 30
0.0
 40
48.20000000000001
 50
145.0831521188
 51
151.8533088196
  0
LINE
  5
192
  8
0
  6
CONTINUOUS
 62
     7
 10
13.166216506
 20
129.7790440181
 30
0.0
 11
19.0876051785
 21
131.1497005633
 31
0.0
  0
ARC
  5
193
  8
0
  6
CONTINUOUS
 62
     7
 10
17.689426043
 20
137.1899898862
 30
0.0
 40
6.199999999999976
 50
283.0330323408
 51
351.4317249746
  0
LINE
  5
194
  8
0
  6
CONTINUOUS
 62
     7
 10
23.8202280164
 20
136.2662652724
 30
0.0
 11
25.089426043
 21
144.6899898862
 31
0.0
  0
LINE
  5
195
  8
0
  6
CONTINUOUS
 62
     7
 10
25.089426043
 20
144.6899898862
 30
0.0
 11
80.289426043
 21
144.6899898862
 31
0.0
  0
LINE
  5
196
  8
0
  6
CONTINUOUS
 62
     7
 10
80.289426043
 20
144.6899898862
 30
0.0
 11
81.5586240695
 21
136.2662652724
 31
0.0
  0
ARC
  5
197
  8
0
  6
CONTINUOUS
 62
     7
 10
87.689426043
 20
137.1899898862
 30
0.0
 40
6.199999999999969
 50
188.5682750254
 51
256.9669676592
  0
LINE
  5
198
  8
0
  6
CONTINUOUS
 62
     7
 10
86.2912469075
 20
131.1497005633
 30
0.0
 11
92.21263558
 21
129.7790440181
 31
0.0
  0
ARC
  5
199
  8
0
  6
CONTINUOUS
 62
     7
 10
52.689426043
 20
102.1899898862
 30
0.0
 40
48.20000000000001
 50
28.1466911804
 51
34.9168478812
  0
LINE
  5
19A
  8
0
  6
CONTINUOUS
 62
     7
 10
95.189426043
 20
124.9274039872
 30
0.0
 11
95.189426043
 21
79.4525757852
 31
0.0
  0
ARC
  5
19B
  8
0
  6
CONTINUOUS
 62
     7
 10
52.689426043
 20
102.1899898862
 30
0.0
 40
48.19999999999997
 50
325.0831521188
 51
331.8533088196
  0
LINE
  5
19C
  8
0
  6
CONTINUOUS
 62
     7
 10
92.21263558
 20
74.6009357543
 30
0.0
 11
86.2912469075
 21
73.2302792092
 31
0.0
  0
ARC
  5
19D
  8
0
  6
CONTINUOUS
 62
     7
 10
87.689426043
 20
67.1899898862
 30
0.0
 40
6.199999999999949
 50
103.0330323408
 51
171.4317249746
  0
LINE
  5
19E
  8
0
  6
CONTINUOUS
 62
     7
 10
81.5586240695
 20
68.1137145
 30
0.0
 11
80.289426043
 21
59.6899898862
 31
0.0
  0
LINE
  5
19F
  8
0
  6
CONTINUOUS
 62
     7
 10
80.289426043
 20
59.6899898862
 30
0.0
 11
25.089426043
 21
59.6899898862
 31
0.0
  0
LINE
  5
1A0
  8
0
  6
CONTINUOUS
 62
     7
 10
25.089426043
 20
59.6899898862
 30
0.0
 11
23.8202280164
 21
68.1137145
 31
0.0
  0
ARC
  5
1A1
  8
0
  6
CONTINUOUS
 62
     7
 10
17.689426043
 20
67.1899898862
 30
0.0
 40
6.199999999999998
 50
8.5682750254
 51
76.9669676592
  0
LINE
  5
1A2
  8
0
  6
CONTINUOUS
 62
     7
 10
19.0876051785
 20
73.2302792092
 30
0.0
 11
13.166216506
 21
74.6009357543
 31
0.0
  0
ARC
  5
1A3
  8
0
  6
CONTINUOUS
 62
     7
 10
52.689426043
 20
102.1899898862
 30
0.0
 40
48.20000000000001
 50
208.1466911804
 51
214.9168478812
  0
LINE
  5
1A4
  8
0
  6
CONTINUOUS
 62
     7
 10
10.189426043
 20
79.4525757852
 30
0.0
 11
10.189426043
 21
124.9274039872
 31
0.0
  0
CIRCLE
  5
1A5
  8
0
  6
CONTINUOUS
 62
     7
 10
52.689426043
 20
102.1899898862
 30
0.0
 40
37.50000000000001
  0
LINE
  5
1A6
  8
0
  6
CONTINUOUS
 62
     7
 10
71.189426043
 20
57.6899898862
 30
0.0
 11
71.189426043
 21
55.7399898862
 31
0.0
  0
LINE
  5
1A7
  8
0
  6
CONTINUOUS
 62
     7
 10
71.189426043
 20
55.7399898862
 30
0.0
 11
69.889426043
 21
55.7399898862
 31
0.0
  0
LINE
  5
1A8
  8
0
  6
CONTINUOUS
 62
     7
 10
71.189426043
 20
55.2399898862
 30
0.0
 11
71.189426043
 21
53.2899898862
 31
0.0
  0
LINE
  5
1A9
  8
0
  6
CONTINUOUS
 62
     7
 10
69.889426043
 20
55.2399898862
 30
0.0
 11
71.189426043
 21
55.2399898862
 31
0.0
  0
LINE
  5
1AA
  8
0
  6
CONTINUOUS
 62
     7
 10
68.789426043
 20
58.9899898862
 30
0.0
 11
68.789426043
 21
51.9899898862
 31
0.0
  0
LINE
  5
1AB
  8
0
  6
CONTINUOUS
 62
     7
 10
69.889426043
 20
55.7399898862
 30
0.0
 11
69.889426043
 21
55.2399898862
 31
0.0
  0
LINE
  5
1AC
  8
0
  6
CONTINUOUS
 62
     7
 10
66.189426043
 20
50.2284640765
 30
0.0
 11
66.189426043
 21
59.6899898862
 31
0.0
  0
LINE
  5
1AD
  8
0
  6
CONTINUOUS
 62
     7
 10
39.189426043
 20
50.2284640765
 30
0.0
 11
39.689426043
 21
50.1152513038
 31
0.0
  0
LINE
  5
1AE
  8
0
  6
CONTINUOUS
 62
     7
 10
65.689426043
 20
50.1152513038
 30
0.0
 11
66.189426043
 21
50.2284640765
 31
0.0
  0
LINE
  5
1AF
  8
0
  6
CONTINUOUS
 62
     7
 10
39.189426043
 20
50.2284640765
 30
0.0
 11
39.189426043
 21
59.6899898862
 31
0.0
  0
LINE
  5
1B0
  8
0
  6
CONTINUOUS
 62
     7
 10
57.689426043
 20
46.6899898862
 30
0.0
 11
57.939426043
 21
46.6899898862
 31
0.0
  0
LINE
  5
1B1
  8
0
  6
CONTINUOUS
 62
     7
 10
47.439426043
 20
46.6899898862
 30
0.0
 11
47.689426043
 21
46.6899898862
 31
0.0
  0
LINE
  5
1B2
  8
0
  6
CONTINUOUS
 62
     7
 10
65.689426043
 20
50.1152513038
 30
0.0
 11
65.689426043
 21
59.6899898862
 31
0.0
  0
ARC
  5
1B3
  8
0
  6
CONTINUOUS
 62
     7
 10
52.689426043
 20
108.6899898862
 30
0.0
 40
60.00000000000001
 50
257.4866746371
 51
282.5133253629
  0
LINE
  5
1B4
  8
0
  6
CONTINUOUS
 62
     7
 10
39.689426043
 20
50.1152513038
 30
0.0
 11
39.689426043
 21
59.6899898862
 31
0.0
  0
LINE
  5
1B5
  8
0
  6
CONTINUOUS
 62
     7
 10
52.689426043
 20
46.6899898862
 30
0.0
 11
57.689426043
 21
46.6899898862
 31
0.0
  0
LINE
  5
1B6
  8
0
  6
CONTINUOUS
 62
     7
 10
47.689426043
 20
46.6899898862
 30
0.0
 11
52.689426043
 21
46.6899898862
 31
0.0
  0
LINE
  5
1B7
  8
0
  6
CONTINUOUS
 62
     8
 10
69.889426043
 20
55.7399898862
 30
0.0
 11
69.889426043
 21
58.9899898862
 31
0.0
  0
LINE
  5
1B8
  8
0
  6
CONTINUOUS
 62
     8
 10
69.889426043
 20
51.9899898862
 30
0.0
 11
69.889426043
 21
55.2399898862
 31
0.0
  0
LINE
  5
1B9
  8
0
  6
CONTINUOUS
 62
     7
 10
396.0072920354
 20
46.6899898862
 30
0.0
 11
396.0072920354
 21
9.6899898862
 31
0.0
  0
LINE
  5
1BA
  8
0
  6
CONTINUOUS
 62
     7
 10
404.0072920354
 20
9.6899898862
 30
0.0
 11
404.0072920354
 21
46.6899898862
 31
0.0
  0
ARC
  5
1BB
  8
0
  6
CONTINUOUS
 62
     7
 10
382.8072920354
 20
53.2899898862
 30
0.0
 40
1.300000000000068
 50
180.0
 51
270.0
  0
ARC
  5
1BC
  8
0
  6
CONTINUOUS
 62
     7
 10
382.8072920354
 20
57.6899898862
 30
0.0
 40
1.300000000000068
 50
90.0
 51
180.0
  0
LINE
  5
1BD
  8
0
  6
CONTINUOUS
 62
     7
 10
383.9072920354
 20
58.9899898862
 30
0.0
 11
382.8072920354
 21
58.9899898862
 31
0.0
  0
LINE
  5
1BE
  8
0
  6
CONTINUOUS
 62
     7
 10
382.8072920354
 20
51.9899898862
 30
0.0
 11
383.9072920354
 21
51.9899898862
 31
0.0
  0
LINE
  5
1BF
  8
0
  6
CONTINUOUS
 62
     7
 10
386.5072920354
 20
58.4899898862
 30
0.0
 11
386.2072920354
 21
58.4899898862
 31
0.0
  0
LINE
  5
1C0
  8
0
  6
CONTINUOUS
 62
     7
 10
386.2072920354
 20
52.4899898862
 30
0.0
 11
386.5072920354
 21
52.4899898862
 31
0.0
  0
LINE
  5
1C1
  8
0
  6
CONTINUOUS
 62
     7
 10
394.7572920354
 20
48.9197710077
 30
0.0
 11
394.7572920354
 21
46.6899898862
 31
0.0
  0
LINE
  5
1C2
  8
0
  6
CONTINUOUS
 62
     7
 10
405.2572920354
 20
46.6899898862
 30
0.0
 11
405.2572920354
 21
48.914328529
 31
0.0
  0
LINE
  5
1C3
  8
0
  6
CONTINUOUS
 62
     7
 10
386.5072920354
 20
58.9899898862
 30
0.0
 11
383.9072920354
 21
58.9899898862
 31
0.0
  0
LINE
  5
1C4
  8
0
  6
CONTINUOUS
 62
     7
 10
383.9072920354
 20
51.9899898862
 30
0.0
 11
386.5072920354
 21
51.9899898862
 31
0.0
  0
LINE
  5
1C5
  8
0
  6
CONTINUOUS
 62
     7
 10
396.0072920354
 20
9.6899898862
 30
0.0
 11
404.0072920354
 21
9.6899898862
 31
0.0
  0
CIRCLE
  5
1C6
  8
0
  6
CONTINUOUS
 62
     7
 10
400.0072920354
 20
102.1899898862
 30
0.0
 40
7.999999999999943
  0
CIRCLE
  5
1C7
  8
0
  6
CONTINUOUS
 62
     7
 10
400.0072920354
 20
102.1899898862
 30
0.0
 40
30.00000000000006
  0
LINE
  5
1C8
  8
0
  6
CONTINUOUS
 62
     7
 10
434.3072920354
 20
59.6899898862
 30
0.0
 11
365.7072920354
 21
59.6899898862
 31
0.0
  0
ARC
  5
1C9
  8
0
  6
CONTINUOUS
 62
     7
 10
365.7072920354
 20
67.8899898862
 30
0.0
 40
8.199999999999996
 50
180.0
 51
270.0
  0
LINE
  5
1CA
  8
0
  6
CONTINUOUS
 62
     7
 10
357.5072920354
 20
67.8899898862
 30
0.0
 11
357.5072920354
 21
136.4899898862
 31
0.0
  0
ARC
  5
1CB
  8
0
  6
CONTINUOUS
 62
     7
 10
365.7072920354
 20
136.4899898862
 30
0.0
 40
8.200000000000017
 50
90.0
 51
180.0
  0
LINE
  5
1CC
  8
0
  6
CONTINUOUS
 62
     7
 10
365.7072920354
 20
144.6899898862
 30
0.0
 11
434.3072920354
 21
144.6899898862
 31
0.0
  0
ARC
  5
1CD
  8
0
  6
CONTINUOUS
 62
     7
 10
434.3072920354
 20
136.4899898862
 30
0.0
 40
8.199999999999989
 50
0.0
 51
90.0
  0
LINE
  5
1CE
  8
0
  6
CONTINUOUS
 62
     7
 10
442.5072920354
 20
136.4899898862
 30
0.0
 11
442.5072920354
 21
67.8899898862
 31
0.0
  0
CIRCLE
  5
1CF
  8
0
  6
CONTINUOUS
 62
     7
 10
365.0072920354
 20
137.1899898862
 30
0.0
 40
3.249999999999943
  0
CIRCLE
  5
1D0
  8
0
  6
CONTINUOUS
 62
     7
 10
365.0072920354
 20
67.1899898862
 30
0.0
 40
3.249999999999943
  0
CIRCLE
  5
1D1
  8
0
  6
CONTINUOUS
 62
     7
 10
435.0072920354
 20
67.1899898862
 30
0.0
 40
3.249999999999943
  0
CIRCLE
  5
1D2
  8
0
  6
CONTINUOUS
 62
     7
 10
435.0072920354
 20
137.1899898862
 30
0.0
 40
3.249999999999943
  0
ARC
  5
1D3
  8
0
  6
CONTINUOUS
 62
     7
 10
434.3072920354
 20
67.8899898862
 30
0.0
 40
8.199999999999996
 50
270.0
 51
0.0
  0
LINE
  5
1D4
  8
0
  6
CONTINUOUS
 62
     7
 10
381.5072920354
 20
53.2899898862
 30
0.0
 11
381.5072920354
 21
55.2399898862
 31
0.0
  0
LINE
  5
1D5
  8
0
  6
CONTINUOUS
 62
     7
 10
381.5072920354
 20
55.2399898862
 30
0.0
 11
382.8072920354
 21
55.2399898862
 31
0.0
  0
LINE
  5
1D6
  8
0
  6
CONTINUOUS
 62
     7
 10
381.5072920354
 20
55.7399898862
 30
0.0
 11
381.5072920354
 21
57.6899898862
 31
0.0
  0
LINE
  5
1D7
  8
0
  6
CONTINUOUS
 62
     7
 10
382.8072920354
 20
55.7399898862
 30
0.0
 11
381.5072920354
 21
55.7399898862
 31
0.0
  0
LINE
  5
1D8
  8
0
  6
CONTINUOUS
 62
     7
 10
383.9072920354
 20
55.4899898862
 30
0.0
 11
383.9072920354
 21
58.9899898862
 31
0.0
  0
LINE
  5
1D9
  8
0
  6
CONTINUOUS
 62
     7
 10
383.9072920354
 20
51.9899898862
 30
0.0
 11
383.9072920354
 21
55.4899898862
 31
0.0
  0
LINE
  5
1DA
  8
0
  6
CONTINUOUS
 62
     7
 10
382.8072920354
 20
55.2399898862
 30
0.0
 11
382.8072920354
 21
55.7399898862
 31
0.0
  0
ARC
  5
1DB
  8
0
  6
CONTINUOUS
 62
     7
 10
400.0072920354
 20
108.6899898862
 30
0.0
 40
60.00000000000001
 50
256.9971218371
 51
283.0028781629
  0
LINE
  5
1DC
  8
0
  6
CONTINUOUS
 62
     7
 10
386.5072920354
 20
54.2772445643
 30
0.0
 11
386.5072920354
 21
50.2284640765
 31
0.0
  0
POLYLINE
  5
1DD
  8
0
  6
CONTINUOUS
 62
     7
 66
     1
 10
0.0
 20
0.0
 30
0.0
 70
   128
  0
VERTEX
  5
43C
  8
0
  6
CONTINUOUS
 62
     7
 10
390.5072920354
 20
55.4468468231
 30
0.0
  0
VERTEX
  5
43D
  8
0
  6
CONTINUOUS
 62
     7
 10
389.2933341004
 20
55.5622836573
 30
0.0
  0
VERTEX
  5
43E
  8
0
  6
CONTINUOUS
 62
     7
 10
388.1897974927
 20
55.5044227162
 30
0.0
  0
VERTEX
  5
43F
  8
0
  6
CONTINUOUS
 62
     7
 10
387.3264557975
 20
55.2772016363
 30
0.0
  0
VERTEX
  5
440
  8
0
  6
CONTINUOUS
 62
     7
 10
386.7479363705
 20
54.8887674819
 30
0.0
  0
VERTEX
  5
441
  8
0
  6
CONTINUOUS
 62
     7
 10
386.5072920354
 20
54.2772445643
 30
0.0
  0
SEQEND
  5
53E
  8
0
  6
CONTINUOUS
 62
     7
  0
ARC
  5
1DE
  8
0
  6
CONTINUOUS
 62
     7
 10
400.0072920354
 20
114.7004736878
 30
0.0
 40
60.01035157894859
 50
260.891414695
 51
279.108585305
  0
POLYLINE
  5
1DF
  8
0
  6
CONTINUOUS
 62
     7
 66
     1
 10
0.0
 20
0.0
 30
0.0
 70
   128
  0
VERTEX
  5
442
  8
0
  6
CONTINUOUS
 62
     7
 10
413.5072920354
 20
54.2772445643
 30
0.0
  0
VERTEX
  5
443
  8
0
  6
CONTINUOUS
 62
     7
 10
413.2692966171
 20
54.8858020789
 30
0.0
  0
VERTEX
  5
444
  8
0
  6
CONTINUOUS
 62
     7
 10
412.5404428935
 20
55.3344076699
 30
0.0
  0
VERTEX
  5
445
  8
0
  6
CONTINUOUS
 62
     7
 10
411.4938769509
 20
55.5421143136
 30
0.0
  0
VERTEX
  5
446
  8
0
  6
CONTINUOUS
 62
     7
 10
410.3215166395
 20
55.5423126587
 30
0.0
  0
VERTEX
  5
447
  8
0
  6
CONTINUOUS
 62
     7
 10
409.5072920354
 20
55.4468468231
 30
0.0
  0
SEQEND
  5
53F
  8
0
  6
CONTINUOUS
 62
     7
  0
LINE
  5
1E0
  8
0
  6
CONTINUOUS
 62
     7
 10
413.5072920354
 20
54.2772445643
 30
0.0
 11
413.5072920354
 21
50.2284640765
 31
0.0
  0
LINE
  5
1E1
  8
0
  6
CONTINUOUS
 62
     7
 10
409.5072920354
 20
55.4468468231
 30
0.0
 11
409.5072920354
 21
59.6899898862
 31
0.0
  0
LINE
  5
1E2
  8
0
  6
CONTINUOUS
 62
     7
 10
413.5072920354
 20
59.6899898862
 30
0.0
 11
413.5072920354
 21
54.2772445643
 31
0.0
  0
LINE
  5
1E3
  8
0
  6
CONTINUOUS
 62
     7
 10
390.5072920354
 20
59.6899898862
 30
0.0
 11
390.5072920354
 21
55.4468468231
 31
0.0
  0
LINE
  5
1E4
  8
0
  6
CONTINUOUS
 62
     7
 10
386.5072920354
 20
54.2772445643
 30
0.0
 11
386.5072920354
 21
59.6899898862
 31
0.0
  0
LINE
  5
1E5
  8
0
  6
CONTINUOUS
 62
     7
 10
386.2072920354
 20
55.4899898862
 30
0.0
 11
386.2072920354
 21
58.4899898862
 31
0.0
  0
LINE
  5
1E6
  8
0
  6
CONTINUOUS
 62
     7
 10
386.2072920354
 20
52.4899898862
 30
0.0
 11
386.2072920354
 21
55.4899898862
 31
0.0
  0
LINE
  5
1E7
  8
0
  6
CONTINUOUS
 62
     7
 10
394.7572920354
 20
46.6899898862
 30
0.0
 11
405.2572920354
 21
46.6899898862
 31
0.0
  0
LINE
  5
1E8
  8
0
  6
CONTINUOUS
 62
     8
 10
382.8072920354
 20
55.2399898862
 30
0.0
 11
382.8072920354
 21
51.9899898862
 31
0.0
  0
LINE
  5
1E9
  8
0
  6
CONTINUOUS
 62
     8
 10
382.8072920354
 20
58.9899898862
 30
0.0
 11
382.8072920354
 21
55.7399898862
 31
0.0
  0
LINE
  5
1EA
  8
0
  6
CONTINUOUS
 62
     7
 10
298.4512414665
 20
197.1203392162
 30
0.0
 11
301.4512414665
 21
197.1203392162
 31
0.0
  0
LINE
  5
1EB
  8
0
  6
CONTINUOUS
 62
     7
 10
301.4512414665
 20
257.1203392162
 30
0.0
 11
298.4512414665
 21
257.1203392162
 31
0.0
  0
LINE
  5
1EC
  8
0
  6
CONTINUOUS
 62
     7
 10
335.4512414665
 20
235.1203392162
 30
0.0
 11
301.4512414665
 21
235.1203392162
 31
0.0
  0
LINE
  5
1ED
  8
0
  6
CONTINUOUS
 62
     7
 10
301.4512414665
 20
219.1203392162
 30
0.0
 11
335.4512414665
 21
219.1203392162
 31
0.0
  0
ARC
  5
1EE
  8
0
  6
CONTINUOUS
 62
     7
 10
320.9041620353
 20
227.1203392162
 30
0.0
 40
200.0000000000001
 50
190.8069228749
 51
192.268898996
  0
ARC
  5
1EF
  8
0
  6
CONTINUOUS
 62
     7
 10
320.9041620353
 20
227.1203392162
 30
0.0
 40
200.0
 50
167.731101004
 51
169.1930771251
  0
ARC
  5
1F0
  8
0
  6
CONTINUOUS
 62
     7
 10
469.5509461296
 20
235.1546804733
 30
0.0
 40
187.1182030702178
 50
170.3119786612
 51
171.5766470985
  0
LINE
  5
1F1
  8
0
  6
CONTINUOUS
 62
     7
 10
285.1012969169
 20
269.6203392162
 30
0.0
 11
285.1012969169
 21
266.6435487532
 31
0.0
  0
LINE
  5
1F2
  8
0
  6
CONTINUOUS
 62
     7
 10
286.8076194165
 20
269.6203392162
 30
0.0
 11
285.1012969169
 21
269.6203392162
 31
0.0
  0
POLYLINE
  5
1F3
  8
0
  6
CONTINUOUS
 62
     7
 66
     1
 10
0.0
 20
0.0
 30
0.0
 70
   128
  0
VERTEX
  5
448
  8
0
  6
CONTINUOUS
 62
     7
 10
286.8076194165
 20
261.4203392162
 30
0.0
  0
VERTEX
  5
449
  8
0
  6
CONTINUOUS
 62
     7
 10
287.0284719487
 20
262.7713173647
 30
0.0
  0
VERTEX
  5
44A
  8
0
  6
CONTINUOUS
 62
     7
 10
287.20451357
 20
264.0916570765
 30
0.0
  0
VERTEX
  5
44B
  8
0
  6
CONTINUOUS
 62
     7
 10
287.3294239597
 20
265.3439992942
 30
0.0
  0
VERTEX
  5
44C
  8
0
  6
CONTINUOUS
 62
     7
 10
287.3994891679
 20
266.4907629665
 30
0.0
  0
VERTEX
  5
44D
  8
0
  6
CONTINUOUS
 62
     7
 10
287.4116678638
 20
267.4795936006
 30
0.0
  0
VERTEX
  5
44E
  8
0
  6
CONTINUOUS
 62
     7
 10
287.3680686125
 20
268.3047990828
 30
0.0
  0
VERTEX
  5
44F
  8
0
  6
CONTINUOUS
 62
     7
 10
287.2703875811
 20
268.9363687814
 30
0.0
  0
VERTEX
  5
450
  8
0
  6
CONTINUOUS
 62
     7
 10
287.1224838551
 20
269.3685188836
 30
0.0
  0
VERTEX
  5
451
  8
0
  6
CONTINUOUS
 62
     7
 10
286.8076194165
 20
269.6203392162
 30
0.0
  0
SEQEND
  5
540
  8
0
  6
CONTINUOUS
 62
     7
  0
ARC
  5
1F4
  8
0
  6
CONTINUOUS
 62
     7
 10
479.2063200359
 20
227.1203392162
 30
0.0
 40
195.4322133119308
 50
169.8917533355
 51
171.8812367166
  0
ARC
  5
1F5
  8
0
  6
CONTINUOUS
 62
     7
 10
295.1300581351
 20
267.1609931653
 30
0.0
 40
15.59094935841177
 50
226.7693543648
 51
232.9339067285
  0
POLYLINE
  5
1F6
  8
0
  6
CONTINUOUS
 62
     7
 66
     1
 10
0.0
 20
0.0
 30
0.0
 70
   128
  0
VERTEX
  5
452
  8
0
  6
CONTINUOUS
 62
     7
 10
284.4512414665
 20
256.1206738787
 30
0.0
  0
VERTEX
  5
453
  8
0
  6
CONTINUOUS
 62
     7
 10
284.6536372587
 20
256.2206273125
 30
0.0
  0
VERTEX
  5
454
  8
0
  6
CONTINUOUS
 62
     7
 10
284.880476938
 20
256.4917222676
 30
0.0
  0
VERTEX
  5
455
  8
0
  6
CONTINUOUS
 62
     7
 10
285.3810658698
 20
257.5080669281
 30
0.0
  0
VERTEX
  5
456
  8
0
  6
CONTINUOUS
 62
     7
 10
285.6456776768
 20
258.236985568
 30
0.0
  0
VERTEX
  5
457
  8
0
  6
CONTINUOUS
 62
     7
 10
285.907143937
 20
259.0814988298
 30
0.0
  0
VERTEX
  5
458
  8
0
  6
CONTINUOUS
 62
     7
 10
286.1596010292
 20
260.0263353143
 30
0.0
  0
VERTEX
  5
459
  8
0
  6
CONTINUOUS
 62
     7
 10
286.3939222707
 20
261.0383987901
 30
0.0
  0
VERTEX
  5
45A
  8
0
  6
CONTINUOUS
 62
     7
 10
286.5998013221
 20
262.0744597452
 30
0.0
  0
VERTEX
  5
45B
  8
0
  6
CONTINUOUS
 62
     7
 10
286.7743902573
 20
263.1173628431
 30
0.0
  0
VERTEX
  5
45C
  8
0
  6
CONTINUOUS
 62
     7
 10
286.9078300832
 20
264.106266674
 30
0.0
  0
VERTEX
  5
45D
  8
0
  6
CONTINUOUS
 62
     7
 10
287.0016172349
 20
265.0418030818
 30
0.0
  0
VERTEX
  5
45E
  8
0
  6
CONTINUOUS
 62
     7
 10
287.0580212705
 20
266.5946707011
 30
0.0
  0
VERTEX
  5
45F
  8
0
  6
CONTINUOUS
 62
     7
 10
286.9485104721
 20
267.6410919098
 30
0.0
  0
VERTEX
  5
460
  8
0
  6
CONTINUOUS
 62
     7
 10
286.6890137166
 20
268.1025332942
 30
0.0
  0
VERTEX
  5
461
  8
0
  6
CONTINUOUS
 62
     7
 10
286.3023258997
 20
267.9309438374
 30
0.0
  0
VERTEX
  5
462
  8
0
  6
CONTINUOUS
 62
     7
 10
285.8218649039
 20
267.1124436724
 30
0.0
  0
VERTEX
  5
463
  8
0
  6
CONTINUOUS
 62
     7
 10
285.5598544064
 20
266.4686797024
 30
0.0
  0
VERTEX
  5
464
  8
0
  6
CONTINUOUS
 62
     7
 10
285.2971019106
 20
265.6975574513
 30
0.0
  0
VERTEX
  5
465
  8
0
  6
CONTINUOUS
 62
     7
 10
285.037940449
 20
264.8076218993
 30
0.0
  0
VERTEX
  5
466
  8
0
  6
CONTINUOUS
 62
     7
 10
284.7928845154
 20
263.8336159979
 30
0.0
  0
VERTEX
  5
467
  8
0
  6
CONTINUOUS
 62
     7
 10
284.4512414665
 20
262.18370986
 30
0.0
  0
SEQEND
  5
541
  8
0
  6
CONTINUOUS
 62
     7
  0
LINE
  5
1F7
  8
0
  6
CONTINUOUS
 62
     7
 10
284.4512414665
 20
262.5649204186
 30
0.0
 11
284.4512414665
 21
262.18370986
 31
0.0
  0
LINE
  5
1F8
  8
0
  6
CONTINUOUS
 62
     7
 10
284.4512414665
 20
256.1206738787
 30
0.0
 11
284.4512414665
 21
255.8013903353
 31
0.0
  0
LINE
  5
1F9
  8
0
  6
CONTINUOUS
 62
     7
 10
286.8076194165
 20
192.8203392162
 30
0.0
 11
298.4512414665
 21
192.8203392162
 31
0.0
  0
ARC
  5
1FA
  8
0
  6
CONTINUOUS
 62
     7
 10
479.2063200359
 20
227.1203392162
 30
0.0
 40
195.4322133119308
 50
188.1187632834
 51
190.1082466645
  0
LINE
  5
1FB
  8
0
  6
CONTINUOUS
 62
     7
 10
285.7328334802
 20
199.5203392162
 30
0.0
 11
284.4512414665
 21
199.5203392162
 31
0.0
  0
LINE
  5
1FC
  8
0
  6
CONTINUOUS
 62
     7
 10
285.7328334802
 20
254.7203392162
 30
0.0
 11
284.4512414665
 21
254.7203392162
 31
0.0
  0
LINE
  5
1FD
  8
0
  6
CONTINUOUS
 62
     7
 10
298.4512414665
 20
261.4203392162
 30
0.0
 11
286.8076194165
 21
261.4203392162
 31
0.0
  0
LINE
  5
1FE
  8
0
  6
CONTINUOUS
 62
     7
 10
298.4512414665
 20
192.8203392162
 30
0.0
 11
298.4512414665
 21
261.4203392162
 31
0.0
  0
LINE
  5
1FF
  8
0
  6
CONTINUOUS
 62
     7
 10
284.4512414665
 20
199.5203392162
 30
0.0
 11
284.4512414665
 21
254.7203392162
 31
0.0
  0
LINE
  5
200
  8
0
  6
CONTINUOUS
 62
     7
 10
286.8076194165
 20
269.6203392162
 30
0.0
 11
298.4512414665
 21
269.6203392162
 31
0.0
  0
LINE
  5
201
  8
0
  6
CONTINUOUS
 62
     7
 10
298.4512414665
 20
269.6203392162
 30
0.0
 11
298.4512414665
 21
261.4203392162
 31
0.0
  0
LINE
  5
202
  8
0
  6
CONTINUOUS
 62
     7
 10
284.4512414665
 20
254.7203392162
 30
0.0
 11
284.4512414665
 21
255.8013903353
 31
0.0
  0
ARC
  5
203
  8
0
  6
CONTINUOUS
 62
     7
 10
295.130058135
 20
187.0796852671
 30
0.0
 40
15.5909493583318
 50
127.0660932715
 51
133.2306456352
  0
LINE
  5
204
  8
0
  6
CONTINUOUS
 62
     7
 10
284.4512414665
 20
198.439288097
 30
0.0
 11
284.4512414665
 21
199.5203392162
 31
0.0
  0
POLYLINE
  5
205
  8
0
  6
CONTINUOUS
 62
     7
 66
     1
 10
0.0
 20
0.0
 30
0.0
 70
   128
  0
VERTEX
  5
468
  8
0
  6
CONTINUOUS
 62
     7
 10
286.8076194165
 20
184.6203392162
 30
0.0
  0
VERTEX
  5
469
  8
0
  6
CONTINUOUS
 62
     7
 10
287.0284719487
 20
184.7332036034
 30
0.0
  0
VERTEX
  5
46A
  8
0
  6
CONTINUOUS
 62
     7
 10
287.20451357
 20
185.0676583322
 30
0.0
  0
VERTEX
  5
46B
  8
0
  6
CONTINUOUS
 62
     7
 10
287.3294239597
 20
185.6210059032
 30
0.0
  0
VERTEX
  5
46C
  8
0
  6
CONTINUOUS
 62
     7
 10
287.3994891679
 20
186.3758995204
 30
0.0
  0
VERTEX
  5
46D
  8
0
  6
CONTINUOUS
 62
     7
 10
287.4116678638
 20
187.2966173331
 30
0.0
  0
VERTEX
  5
46E
  8
0
  6
CONTINUOUS
 62
     7
 10
287.3680686125
 20
188.3656549013
 30
0.0
  0
VERTEX
  5
46F
  8
0
  6
CONTINUOUS
 62
     7
 10
287.2703875811
 20
189.5436832196
 30
0.0
  0
VERTEX
  5
470
  8
0
  6
CONTINUOUS
 62
     7
 10
287.1224838551
 20
190.8037976288
 30
0.0
  0
VERTEX
  5
471
  8
0
  6
CONTINUOUS
 62
     7
 10
286.8076194165
 20
192.8203392162
 30
0.0
  0
SEQEND
  5
542
  8
0
  6
CONTINUOUS
 62
     7
  0
LINE
  5
206
  8
0
  6
CONTINUOUS
 62
     7
 10
285.1012969169
 20
184.6203392162
 30
0.0
 11
286.8076194165
 21
184.6203392162
 31
0.0
  0
LINE
  5
207
  8
0
  6
CONTINUOUS
 62
     7
 10
285.1012969169
 20
187.5971296792
 30
0.0
 11
285.1012969169
 21
184.6203392162
 31
0.0
  0
ARC
  5
208
  8
0
  6
CONTINUOUS
 62
     7
 10
469.5509461301
 20
219.0859979592
 30
0.0
 40
187.118203070746
 50
188.4233529015
 51
189.6880213388
  0
POLYLINE
  5
209
  8
0
  6
CONTINUOUS
 62
     7
 66
     1
 10
0.0
 20
0.0
 30
0.0
 70
   128
  0
VERTEX
  5
472
  8
0
  6
CONTINUOUS
 62
     7
 10
284.4512414665
 20
192.0569685724
 30
0.0
  0
VERTEX
  5
473
  8
0
  6
CONTINUOUS
 62
     7
 10
284.6536372587
 20
191.031297423
 30
0.0
  0
VERTEX
  5
474
  8
0
  6
CONTINUOUS
 62
     7
 10
284.880476938
 20
190.0421979203
 30
0.0
  0
VERTEX
  5
475
  8
0
  6
CONTINUOUS
 62
     7
 10
285.3810658698
 20
188.2827691072
 30
0.0
  0
VERTEX
  5
476
  8
0
  6
CONTINUOUS
 62
     7
 10
285.6456776768
 20
187.5473175638
 30
0.0
  0
VERTEX
  5
477
  8
0
  6
CONTINUOUS
 62
     7
 10
285.907143937
 20
186.9468056939
 30
0.0
  0
VERTEX
  5
478
  8
0
  6
CONTINUOUS
 62
     7
 10
286.1596010292
 20
186.4982856999
 30
0.0
  0
VERTEX
  5
479
  8
0
  6
CONTINUOUS
 62
     7
 10
286.3939222707
 20
186.218694961
 30
0.0
  0
VERTEX
  5
47A
  8
0
  6
CONTINUOUS
 62
     7
 10
286.5998013221
 20
186.1211938943
 30
0.0
  0
VERTEX
  5
47B
  8
0
  6
CONTINUOUS
 62
     7
 10
286.7743902573
 20
186.2037571042
 30
0.0
  0
VERTEX
  5
47C
  8
0
  6
CONTINUOUS
 62
     7
 10
286.9078300832
 20
186.4592532746
 30
0.0
  0
VERTEX
  5
47D
  8
0
  6
CONTINUOUS
 62
     7
 10
287.0016172349
 20
186.8796284932
 30
0.0
  0
VERTEX
  5
47E
  8
0
  6
CONTINUOUS
 62
     7
 10
287.0580212705
 20
188.1227952499
 30
0.0
  0
VERTEX
  5
47F
  8
0
  6
CONTINUOUS
 62
     7
 10
286.9485104721
 20
189.7705967418
 30
0.0
  0
VERTEX
  5
480
  8
0
  6
CONTINUOUS
 62
     7
 10
286.6890137166
 20
191.6584366146
 30
0.0
  0
VERTEX
  5
481
  8
0
  6
CONTINUOUS
 62
     7
 10
286.3023258997
 20
193.6159574614
 30
0.0
  0
VERTEX
  5
482
  8
0
  6
CONTINUOUS
 62
     7
 10
285.8218649039
 20
195.4488363392
 30
0.0
  0
VERTEX
  5
483
  8
0
  6
CONTINUOUS
 62
     7
 10
285.5598544064
 20
196.2537454977
 30
0.0
  0
VERTEX
  5
484
  8
0
  6
CONTINUOUS
 62
     7
 10
285.2971019106
 20
196.9373413646
 30
0.0
  0
VERTEX
  5
485
  8
0
  6
CONTINUOUS
 62
     7
 10
285.037940449
 20
197.4842005881
 30
0.0
  0
VERTEX
  5
486
  8
0
  6
CONTINUOUS
 62
     7
 10
284.7928845154
 20
197.8705290104
 30
0.0
  0
VERTEX
  5
487
  8
0
  6
CONTINUOUS
 62
     7
 10
284.4512414665
 20
198.1200045536
 30
0.0
  0
SEQEND
  5
543
  8
0
  6
CONTINUOUS
 62
     7
  0
LINE
  5
20A
  8
0
  6
CONTINUOUS
 62
     7
 10
284.4512414665
 20
198.1200045536
 30
0.0
 11
284.4512414665
 21
198.439288097
 31
0.0
  0
LINE
  5
20B
  8
0
  6
CONTINUOUS
 62
     7
 10
284.4512414665
 20
191.6757580137
 30
0.0
 11
284.4512414665
 21
192.0569685724
 31
0.0
  0
LINE
  5
20C
  8
0
  6
CONTINUOUS
 62
     7
 10
298.4512414665
 20
184.6203392162
 30
0.0
 11
286.8076194165
 21
184.6203392162
 31
0.0
  0
LINE
  5
20D
  8
0
  6
CONTINUOUS
 62
     7
 10
298.4512414665
 20
192.8203392162
 30
0.0
 11
298.4512414665
 21
184.6203392162
 31
0.0
  0
LINE
  5
20E
  8
0
  6
CONTINUOUS
 62
     7
 10
284.4512414665
 20
262.18370986
 30
0.0
 11
284.4512414665
 21
256.1206738787
 31
0.0
  0
LINE
  5
20F
  8
0
  6
CONTINUOUS
 62
     7
 10
284.4512414665
 20
198.1200045536
 30
0.0
 11
284.4512414665
 21
192.0569685724
 31
0.0
  0
LINE
  5
210
  8
0
  6
CONTINUOUS
 62
     7
 10
301.4512414665
 20
197.1203392162
 30
0.0
 11
301.4512414665
 21
257.1203392162
 31
0.0
  0
LINE
  5
211
  8
0
  6
CONTINUOUS
 62
     7
 10
285.1012969169
 20
266.6435487532
 30
0.0
 11
284.4512414665
 21
266.6435487532
 31
0.0
  0
LINE
  5
212
  8
0
  6
CONTINUOUS
 62
     7
 10
284.4512414665
 20
262.5649204186
 30
0.0
 11
284.4512414665
 21
266.6435487532
 31
0.0
  0
LINE
  5
213
  8
0
  6
CONTINUOUS
 62
     7
 10
285.1012969169
 20
187.5971296792
 30
0.0
 11
284.4512414665
 21
187.5971296792
 31
0.0
  0
LINE
  5
214
  8
0
  6
CONTINUOUS
 62
     7
 10
284.4512414665
 20
187.5971296792
 30
0.0
 11
284.4512414665
 21
191.6757580137
 31
0.0
  0
LINE
  5
215
  8
0
  6
CONTINUOUS
 62
     7
 10
285.1012969169
 20
269.6203392162
 30
0.0
 11
284.4512414665
 21
269.6203392162
 31
0.0
  0
LINE
  5
216
  8
0
  6
CONTINUOUS
 62
     7
 10
284.4512414665
 20
266.6435487532
 30
0.0
 11
284.4512414665
 21
269.6203392162
 31
0.0
  0
LINE
  5
217
  8
0
  6
CONTINUOUS
 62
     7
 10
285.1012969169
 20
184.6203392162
 30
0.0
 11
284.4512414665
 21
184.6203392162
 31
0.0
  0
LINE
  5
218
  8
0
  6
CONTINUOUS
 62
     7
 10
284.4512414665
 20
184.6203392162
 30
0.0
 11
284.4512414665
 21
187.5971296792
 31
0.0
  0
LINE
  5
219
  8
0
  6
CONTINUOUS
 62
     7
 10
335.4512414665
 20
235.1203392162
 30
0.0
 11
335.4512414665
 21
219.1203392162
 31
0.0
  0
LINE
  5
21A
  8
0
  6
CONTINUOUS
 62
     7
 10
126.7991389163
 20
269.6203392162
 30
0.0
 11
126.7991389163
 21
266.6435487532
 31
0.0
  0
ARC
  5
21B
  8
0
  6
CONTINUOUS
 62
     7
 10
311.2276539106
 20
235.158092773
 30
0.0
 40
187.0967960208664
 50
170.3119195882
 51
172.1467954868
  0
POLYLINE
  5
21C
  8
0
  6
CONTINUOUS
 62
     7
 66
     1
 10
0.0
 20
0.0
 30
0.0
 70
   128
  0
VERTEX
  5
488
  8
0
  6
CONTINUOUS
 62
     7
 10
125.8855660192
 20
260.7221600807
 30
0.0
  0
VERTEX
  5
489
  8
0
  6
CONTINUOUS
 62
     7
 10
125.6882164613
 20
258.8474433865
 30
0.0
  0
VERTEX
  5
48A
  8
0
  6
CONTINUOUS
 62
     7
 10
125.6550994466
 20
257.3163040982
 30
0.0
  0
VERTEX
  5
48B
  8
0
  6
CONTINUOUS
 62
     7
 10
125.7886803389
 20
256.3128476576
 30
0.0
  0
VERTEX
  5
48C
  8
0
  6
CONTINUOUS
 62
     7
 10
125.9544842692
 20
255.9895372427
 30
0.0
  0
SEQEND
  5
544
  8
0
  6
CONTINUOUS
 62
     7
  0
ARC
  5
21D
  8
0
  6
CONTINUOUS
 62
     7
 10
136.5217677939
 20
266.7871659112
 30
0.0
 40
15.10815230114197
 50
225.6177087515
 51
233.0057964162
  0
ARC
  5
21E
  8
0
  6
CONTINUOUS
 62
     7
 10
320.9041620353
 20
227.1203392162
 30
0.0
 40
195.4322133119308
 50
171.8812367166
 51
188.1187632834
  0
ARC
  5
21F
  8
0
  6
CONTINUOUS
 62
     7
 10
136.5217677939
 20
187.4535125211
 30
0.0
 40
15.10815230114239
 50
126.9942035838
 51
134.3822912485
  0
ARC
  5
220
  8
0
  6
CONTINUOUS
 62
     7
 10
135.3512282168
 20
195.747489012
 30
0.0
 40
9.724560197946415
 50
165.0808010235
 51
193.2505911451
  0
ARC
  5
221
  8
0
  6
CONTINUOUS
 62
     7
 10
311.2276539106
 20
219.0825856594
 30
0.0
 40
187.0967960208986
 50
187.8532045132
 51
189.6880804118
  0
LINE
  5
222
  8
0
  6
CONTINUOUS
 62
     7
 10
126.7991389163
 20
187.5971296792
 30
0.0
 11
126.7991389163
 21
184.6203392162
 31
0.0
  0
LINE
  5
223
  8
0
  6
CONTINUOUS
 62
     7
 10
126.7991389163
 20
184.6203392162
 30
0.0
 11
125.4719487233
 21
184.6203392162
 31
0.0
  0
LINE
  5
224
  8
0
  6
CONTINUOUS
 62
     7
 10
125.4719487233
 20
269.6203392162
 30
0.0
 11
126.7991389163
 21
269.6203392162
 31
0.0
  0
LINE
  5
225
  8
0
  6
CONTINUOUS
 62
     7
 10
124.4512414665
 20
189.6203392162
 30
0.0
 11
124.4512414665
 21
264.6203392162
 31
0.0
  0
LINE
  5
226
  8
0
  6
CONTINUOUS
 62
     7
 10
127.4306754796
 20
254.7203392162
 30
0.0
 11
139.3512414665
 21
254.7203392162
 31
0.0
  0
LINE
  5
227
  8
0
  6
CONTINUOUS
 62
     7
 10
125.9544842692
 20
255.9895372427
 30
0.0
 11
139.3512414665
 21
255.9895372427
 31
0.0
  0
LINE
  5
228
  8
0
  6
CONTINUOUS
 62
     7
 10
139.3512414665
 20
254.7203392162
 30
0.0
 11
139.3512414665
 21
255.9895372427
 31
0.0
  0
LINE
  5
229
  8
0
  6
CONTINUOUS
 62
     7
 10
127.4306754796
 20
199.5203392162
 30
0.0
 11
139.3512414665
 21
199.5203392162
 31
0.0
  0
LINE
  5
22A
  8
0
  6
CONTINUOUS
 62
     7
 10
139.3512414665
 20
199.5203392162
 30
0.0
 11
139.3512414665
 21
254.7203392162
 31
0.0
  0
LINE
  5
22B
  8
0
  6
CONTINUOUS
 62
     7
 10
125.9544842692
 20
198.2511411896
 30
0.0
 11
139.3512414665
 21
198.2511411896
 31
0.0
  0
LINE
  5
22C
  8
0
  6
CONTINUOUS
 62
     7
 10
139.3512414665
 20
198.2511411896
 30
0.0
 11
139.3512414665
 21
199.5203392162
 31
0.0
  0
LINE
  5
22D
  8
0
  6
CONTINUOUS
 62
     7
 10
125.8855660192
 20
193.5185183517
 30
0.0
 11
139.3512414665
 21
193.5185183517
 31
0.0
  0
LINE
  5
22E
  8
0
  6
CONTINUOUS
 62
     7
 10
139.3512414665
 20
193.5185183517
 30
0.0
 11
139.3512414665
 21
198.2511411896
 31
0.0
  0
LINE
  5
22F
  8
0
  6
CONTINUOUS
 62
     7
 10
125.8855660192
 20
260.7221600807
 30
0.0
 11
139.3512414665
 21
260.7221600807
 31
0.0
  0
LINE
  5
230
  8
0
  6
CONTINUOUS
 62
     7
 10
139.3512414665
 20
255.9895372427
 30
0.0
 11
139.3512414665
 21
260.7221600807
 31
0.0
  0
LINE
  5
231
  8
0
  6
CONTINUOUS
 62
     7
 10
126.7991389163
 20
266.6435487532
 30
0.0
 11
139.3512414665
 21
266.6435487532
 31
0.0
  0
LINE
  5
232
  8
0
  6
CONTINUOUS
 62
     7
 10
139.3512414665
 20
260.7221600807
 30
0.0
 11
139.3512414665
 21
266.6435487532
 31
0.0
  0
LINE
  5
233
  8
0
  6
CONTINUOUS
 62
     7
 10
126.7991389163
 20
187.5971296792
 30
0.0
 11
139.3512414665
 21
187.5971296792
 31
0.0
  0
LINE
  5
234
  8
0
  6
CONTINUOUS
 62
     7
 10
139.3512414665
 20
187.5971296792
 30
0.0
 11
139.3512414665
 21
193.5185183517
 31
0.0
  0
LINE
  5
235
  8
0
  6
CONTINUOUS
 62
     7
 10
126.7991389163
 20
269.6203392162
 30
0.0
 11
139.3512414665
 21
269.6203392162
 31
0.0
  0
LINE
  5
236
  8
0
  6
CONTINUOUS
 62
     7
 10
139.3512414665
 20
266.6435487532
 30
0.0
 11
139.3512414665
 21
269.6203392162
 31
0.0
  0
LINE
  5
237
  8
0
  6
CONTINUOUS
 62
     7
 10
126.7991389163
 20
184.6203392162
 30
0.0
 11
139.3512414665
 21
184.6203392162
 31
0.0
  0
LINE
  5
238
  8
0
  6
CONTINUOUS
 62
     7
 10
139.3512414665
 20
184.6203392162
 30
0.0
 11
139.3512414665
 21
187.5971296792
 31
0.0
  0
LINE
  5
239
  8
0
  6
CONTINUOUS
 62
     7
 10
139.3512414665
 20
254.7203392162
 30
0.0
 11
152.4512414665
 21
254.7203392162
 31
0.0
  0
LINE
  5
23A
  8
0
  6
CONTINUOUS
 62
     7
 10
139.3512414665
 20
255.9895372427
 30
0.0
 11
152.4512414665
 21
255.9895372427
 31
0.0
  0
LINE
  5
23B
  8
0
  6
CONTINUOUS
 62
     7
 10
152.4512414665
 20
254.7203392162
 30
0.0
 11
152.4512414665
 21
255.9895372427
 31
0.0
  0
LINE
  5
23C
  8
0
  6
CONTINUOUS
 62
     7
 10
139.3512414665
 20
199.5203392162
 30
0.0
 11
152.4512414665
 21
199.5203392162
 31
0.0
  0
LINE
  5
23D
  8
0
  6
CONTINUOUS
 62
     7
 10
152.4512414665
 20
199.5203392162
 30
0.0
 11
152.4512414665
 21
254.7203392162
 31
0.0
  0
LINE
  5
23E
  8
0
  6
CONTINUOUS
 62
     7
 10
139.3512414665
 20
198.2511411896
 30
0.0
 11
152.4512414665
 21
198.2511411896
 31
0.0
  0
LINE
  5
23F
  8
0
  6
CONTINUOUS
 62
     7
 10
152.4512414665
 20
198.2511411896
 30
0.0
 11
152.4512414665
 21
199.5203392162
 31
0.0
  0
LINE
  5
240
  8
0
  6
CONTINUOUS
 62
     7
 10
139.3512414665
 20
260.7221600807
 30
0.0
 11
152.4512414665
 21
260.7221600807
 31
0.0
  0
LINE
  5
241
  8
0
  6
CONTINUOUS
 62
     7
 10
152.4512414665
 20
255.9895372427
 30
0.0
 11
152.4512414665
 21
260.7221600807
 31
0.0
  0
LINE
  5
242
  8
0
  6
CONTINUOUS
 62
     7
 10
139.3512414665
 20
193.5185183517
 30
0.0
 11
152.4512414665
 21
193.5185183517
 31
0.0
  0
LINE
  5
243
  8
0
  6
CONTINUOUS
 62
     7
 10
152.4512414665
 20
193.5185183517
 30
0.0
 11
152.4512414665
 21
198.2511411896
 31
0.0
  0
LINE
  5
244
  8
0
  6
CONTINUOUS
 62
     7
 10
139.3512414665
 20
266.6435487532
 30
0.0
 11
152.4512414665
 21
266.6435487532
 31
0.0
  0
LINE
  5
245
  8
0
  6
CONTINUOUS
 62
     7
 10
152.4512414665
 20
260.7221600807
 30
0.0
 11
152.4512414665
 21
266.6435487532
 31
0.0
  0
LINE
  5
246
  8
0
  6
CONTINUOUS
 62
     7
 10
139.3512414665
 20
187.5971296792
 30
0.0
 11
152.4512414665
 21
187.5971296792
 31
0.0
  0
LINE
  5
247
  8
0
  6
CONTINUOUS
 62
     7
 10
152.4512414665
 20
187.5971296792
 30
0.0
 11
152.4512414665
 21
193.5185183517
 31
0.0
  0
LINE
  5
248
  8
0
  6
CONTINUOUS
 62
     7
 10
139.3512414665
 20
269.6203392162
 30
0.0
 11
152.4512414665
 21
269.6203392162
 31
0.0
  0
LINE
  5
249
  8
0
  6
CONTINUOUS
 62
     7
 10
152.4512414665
 20
266.6435487532
 30
0.0
 11
152.4512414665
 21
269.6203392162
 31
0.0
  0
LINE
  5
24A
  8
0
  6
CONTINUOUS
 62
     7
 10
139.3512414665
 20
184.6203392162
 30
0.0
 11
152.4512414665
 21
184.6203392162
 31
0.0
  0
LINE
  5
24B
  8
0
  6
CONTINUOUS
 62
     7
 10
152.4512414665
 20
184.6203392162
 30
0.0
 11
152.4512414665
 21
187.5971296792
 31
0.0
  0
LINE
  5
24C
  8
0
  6
CONTINUOUS
 62
     7
 10
152.4512414665
 20
254.7203392162
 30
0.0
 11
194.4512414665
 21
254.7203392162
 31
0.0
  0
LINE
  5
24D
  8
0
  6
CONTINUOUS
 62
     7
 10
152.4512414665
 20
255.9895372427
 30
0.0
 11
194.4512414665
 21
255.9895372427
 31
0.0
  0
LINE
  5
24E
  8
0
  6
CONTINUOUS
 62
     7
 10
194.4512414665
 20
254.7203392162
 30
0.0
 11
194.4512414665
 21
255.9895372427
 31
0.0
  0
LINE
  5
24F
  8
0
  6
CONTINUOUS
 62
     7
 10
152.4512414665
 20
199.5203392162
 30
0.0
 11
194.4512414665
 21
199.5203392162
 31
0.0
  0
LINE
  5
250
  8
0
  6
CONTINUOUS
 62
     7
 10
194.4512414665
 20
199.5203392162
 30
0.0
 11
194.4512414665
 21
254.7203392162
 31
0.0
  0
LINE
  5
251
  8
0
  6
CONTINUOUS
 62
     7
 10
152.4512414665
 20
198.2511411896
 30
0.0
 11
194.4512414665
 21
198.2511411896
 31
0.0
  0
LINE
  5
252
  8
0
  6
CONTINUOUS
 62
     7
 10
194.4512414665
 20
198.2511411896
 30
0.0
 11
194.4512414665
 21
199.5203392162
 31
0.0
  0
LINE
  5
253
  8
0
  6
CONTINUOUS
 62
     7
 10
152.4512414665
 20
260.7221600807
 30
0.0
 11
194.4512414665
 21
260.7221600807
 31
0.0
  0
LINE
  5
254
  8
0
  6
CONTINUOUS
 62
     7
 10
194.4512414665
 20
255.9895372427
 30
0.0
 11
194.4512414665
 21
260.7221600807
 31
0.0
  0
LINE
  5
255
  8
0
  6
CONTINUOUS
 62
     7
 10
152.4512414665
 20
193.5185183517
 30
0.0
 11
194.4512414665
 21
193.5185183517
 31
0.0
  0
LINE
  5
256
  8
0
  6
CONTINUOUS
 62
     7
 10
194.4512414665
 20
193.5185183517
 30
0.0
 11
194.4512414665
 21
198.2511411896
 31
0.0
  0
LINE
  5
257
  8
0
  6
CONTINUOUS
 62
     7
 10
152.4512414665
 20
266.6435487532
 30
0.0
 11
194.4512414665
 21
266.6435487532
 31
0.0
  0
LINE
  5
258
  8
0
  6
CONTINUOUS
 62
     7
 10
194.4512414665
 20
260.7221600807
 30
0.0
 11
194.4512414665
 21
266.6435487532
 31
0.0
  0
LINE
  5
259
  8
0
  6
CONTINUOUS
 62
     7
 10
152.4512414665
 20
187.5971296792
 30
0.0
 11
194.4512414665
 21
187.5971296792
 31
0.0
  0
LINE
  5
25A
  8
0
  6
CONTINUOUS
 62
     7
 10
194.4512414665
 20
187.5971296792
 30
0.0
 11
194.4512414665
 21
193.5185183517
 31
0.0
  0
LINE
  5
25B
  8
0
  6
CONTINUOUS
 62
     7
 10
152.4512414665
 20
269.6203392162
 30
0.0
 11
194.4512414665
 21
269.6203392162
 31
0.0
  0
LINE
  5
25C
  8
0
  6
CONTINUOUS
 62
     7
 10
194.4512414665
 20
266.6435487532
 30
0.0
 11
194.4512414665
 21
269.6203392162
 31
0.0
  0
LINE
  5
25D
  8
0
  6
CONTINUOUS
 62
     7
 10
152.4512414665
 20
184.6203392162
 30
0.0
 11
194.4512414665
 21
184.6203392162
 31
0.0
  0
LINE
  5
25E
  8
0
  6
CONTINUOUS
 62
     7
 10
194.4512414665
 20
184.6203392162
 30
0.0
 11
194.4512414665
 21
187.5971296792
 31
0.0
  0
LINE
  5
25F
  8
0
  6
CONTINUOUS
 62
     7
 10
194.4512414665
 20
254.7203392162
 30
0.0
 11
197.4512414665
 21
254.7203392162
 31
0.0
  0
LINE
  5
260
  8
0
  6
CONTINUOUS
 62
     7
 10
194.4512414665
 20
255.9895372427
 30
0.0
 11
197.4512414665
 21
255.9895372427
 31
0.0
  0
LINE
  5
261
  8
0
  6
CONTINUOUS
 62
     7
 10
197.4512414665
 20
254.7203392162
 30
0.0
 11
197.4512414665
 21
255.9895372427
 31
0.0
  0
LINE
  5
262
  8
0
  6
CONTINUOUS
 62
     7
 10
194.4512414665
 20
199.5203392162
 30
0.0
 11
197.4512414665
 21
199.5203392162
 31
0.0
  0
LINE
  5
263
  8
0
  6
CONTINUOUS
 62
     7
 10
197.4512414665
 20
199.5203392162
 30
0.0
 11
197.4512414665
 21
254.7203392162
 31
0.0
  0
LINE
  5
264
  8
0
  6
CONTINUOUS
 62
     7
 10
194.4512414665
 20
198.2511411896
 30
0.0
 11
197.4512414665
 21
198.2511411896
 31
0.0
  0
LINE
  5
265
  8
0
  6
CONTINUOUS
 62
     7
 10
197.4512414665
 20
198.2511411896
 30
0.0
 11
197.4512414665
 21
199.5203392162
 31
0.0
  0
LINE
  5
266
  8
0
  6
CONTINUOUS
 62
     7
 10
194.4512414665
 20
260.7221600807
 30
0.0
 11
197.4512414665
 21
260.7221600807
 31
0.0
  0
LINE
  5
267
  8
0
  6
CONTINUOUS
 62
     7
 10
197.4512414665
 20
255.9895372427
 30
0.0
 11
197.4512414665
 21
260.7221600807
 31
0.0
  0
LINE
  5
268
  8
0
  6
CONTINUOUS
 62
     7
 10
194.4512414665
 20
193.5185183517
 30
0.0
 11
197.4512414665
 21
193.5185183517
 31
0.0
  0
LINE
  5
269
  8
0
  6
CONTINUOUS
 62
     7
 10
197.4512414665
 20
193.5185183517
 30
0.0
 11
197.4512414665
 21
198.2511411896
 31
0.0
  0
LINE
  5
26A
  8
0
  6
CONTINUOUS
 62
     7
 10
194.4512414665
 20
266.6435487532
 30
0.0
 11
197.4512414665
 21
266.6435487532
 31
0.0
  0
LINE
  5
26B
  8
0
  6
CONTINUOUS
 62
     7
 10
197.4512414665
 20
260.7221600807
 30
0.0
 11
197.4512414665
 21
266.6435487532
 31
0.0
  0
LINE
  5
26C
  8
0
  6
CONTINUOUS
 62
     7
 10
194.4512414665
 20
187.5971296792
 30
0.0
 11
197.4512414665
 21
187.5971296792
 31
0.0
  0
LINE
  5
26D
  8
0
  6
CONTINUOUS
 62
     7
 10
197.4512414665
 20
187.5971296792
 30
0.0
 11
197.4512414665
 21
193.5185183517
 31
0.0
  0
LINE
  5
26E
  8
0
  6
CONTINUOUS
 62
     7
 10
194.4512414665
 20
269.6203392162
 30
0.0
 11
197.4512414665
 21
269.6203392162
 31
0.0
  0
LINE
  5
26F
  8
0
  6
CONTINUOUS
 62
     7
 10
197.4512414665
 20
266.6435487532
 30
0.0
 11
197.4512414665
 21
269.6203392162
 31
0.0
  0
LINE
  5
270
  8
0
  6
CONTINUOUS
 62
     7
 10
194.4512414665
 20
184.6203392162
 30
0.0
 11
197.4512414665
 21
184.6203392162
 31
0.0
  0
LINE
  5
271
  8
0
  6
CONTINUOUS
 62
     7
 10
197.4512414665
 20
184.6203392162
 30
0.0
 11
197.4512414665
 21
187.5971296792
 31
0.0
  0
LINE
  5
272
  8
0
  6
CONTINUOUS
 62
     7
 10
197.4512414665
 20
254.7203392162
 30
0.0
 11
284.4512414665
 21
254.7203392162
 31
0.0
  0
LINE
  5
273
  8
0
  6
CONTINUOUS
 62
     7
 10
197.4512414665
 20
255.9895372427
 30
0.0
 11
284.4512414665
 21
255.9895372427
 31
0.0
  0
LINE
  5
274
  8
0
  6
CONTINUOUS
 62
     7
 10
197.4512414665
 20
199.5203392162
 30
0.0
 11
284.4512414665
 21
199.5203392162
 31
0.0
  0
LINE
  5
275
  8
0
  6
CONTINUOUS
 62
     7
 10
197.4512414665
 20
198.2511411896
 30
0.0
 11
284.4512414665
 21
198.2511411896
 31
0.0
  0
LINE
  5
276
  8
0
  6
CONTINUOUS
 62
     7
 10
197.4512414665
 20
260.7221600807
 30
0.0
 11
284.4512414665
 21
260.7221600807
 31
0.0
  0
LINE
  5
277
  8
0
  6
CONTINUOUS
 62
     7
 10
197.4512414665
 20
193.5185183517
 30
0.0
 11
284.4512414665
 21
193.5185183517
 31
0.0
  0
LINE
  5
278
  8
0
  6
CONTINUOUS
 62
     7
 10
197.4512414665
 20
266.6435487532
 30
0.0
 11
284.4512414665
 21
266.6435487532
 31
0.0
  0
LINE
  5
279
  8
0
  6
CONTINUOUS
 62
     7
 10
197.4512414665
 20
187.5971296792
 30
0.0
 11
284.4512414665
 21
187.5971296792
 31
0.0
  0
LINE
  5
27A
  8
0
  6
CONTINUOUS
 62
     7
 10
197.4512414665
 20
269.6203392162
 30
0.0
 11
284.4512414665
 21
269.6203392162
 31
0.0
  0
LINE
  5
27B
  8
0
  6
CONTINUOUS
 62
     7
 10
197.4512414665
 20
184.6203392162
 30
0.0
 11
284.4512414665
 21
184.6203392162
 31
0.0
  0
LINE
  5
27C
  8
0
  6
CONTINUOUS
 62
     7
 10
208.4512414665
 20
404.4138749896
 30
0.0
 11
208.4512414665
 21
441.4138749896
 31
0.0
  0
LINE
  5
27D
  8
0
  6
CONTINUOUS
 62
     7
 10
200.4512414665
 20
441.4138749896
 30
0.0
 11
200.4512414665
 21
404.4138749896
 31
0.0
  0
LINE
  5
27E
  8
0
  6
CONTINUOUS
 62
     7
 10
168.4512414665
 20
404.4138749896
 30
0.0
 11
168.4512414665
 21
441.4138749896
 31
0.0
  0
LINE
  5
27F
  8
0
  6
CONTINUOUS
 62
     7
 10
162.4512414665
 20
441.4138749896
 30
0.0
 11
162.4512414665
 21
404.4138749896
 31
0.0
  0
LINE
  5
280
  8
0
  6
CONTINUOUS
 62
     7
 10
135.3512414665
 20
404.4138749896
 30
0.0
 11
135.3512414665
 21
441.4138749896
 31
0.0
  0
LINE
  5
281
  8
0
  6
CONTINUOUS
 62
     7
 10
129.3512414665
 20
441.4138749896
 30
0.0
 11
129.3512414665
 21
404.4138749896
 31
0.0
  0
LINE
  5
282
  8
0
  6
CONTINUOUS
 62
     7
 10
298.4512414665
 20
318.9138749896
 30
0.0
 11
301.4512414665
 21
318.9138749896
 31
0.0
  0
LINE
  5
283
  8
0
  6
CONTINUOUS
 62
     7
 10
301.4512414665
 20
378.9138749896
 30
0.0
 11
298.4512414665
 21
378.9138749896
 31
0.0
  0
LINE
  5
284
  8
0
  6
CONTINUOUS
 62
     7
 10
335.4512414665
 20
356.9138749896
 30
0.0
 11
301.4512414665
 21
356.9138749896
 31
0.0
  0
LINE
  5
285
  8
0
  6
CONTINUOUS
 62
     7
 10
301.4512414665
 20
340.9138749896
 30
0.0
 11
335.4512414665
 21
340.9138749896
 31
0.0
  0
ARC
  5
286
  8
0
  6
CONTINUOUS
 62
     7
 10
320.9041620353
 20
348.9138749896
 30
0.0
 40
200.0
 50
190.8069228749
 51
192.268898996
  0
ARC
  5
287
  8
0
  6
CONTINUOUS
 62
     7
 10
320.9041620353
 20
348.9138749896
 30
0.0
 40
200.0000000000001
 50
167.731101004
 51
169.1930771251
  0
LINE
  5
288
  8
0
  6
CONTINUOUS
 62
     7
 10
199.2012414665
 20
402.4138749896
 30
0.0
 11
195.4512414665
 21
402.4138749896
 31
0.0
  0
LINE
  5
289
  8
0
  6
CONTINUOUS
 62
     7
 10
211.6512414665
 20
402.4138749896
 30
0.0
 11
209.6361596633
 21
402.4138749896
 31
0.0
  0
LINE
  5
28A
  8
0
  6
CONTINUOUS
 62
     7
 10
223.9640692917
 20
396.4076175139
 30
0.0
 11
211.6602952847
 21
402.409458493
 31
0.0
  0
LINE
  5
28B
  8
0
  6
CONTINUOUS
 62
     7
 10
209.7012414665
 20
402.4082546738
 30
0.0
 11
209.7012414665
 21
404.4138749896
 31
0.0
  0
LINE
  5
28C
  8
0
  6
CONTINUOUS
 62
     7
 10
199.2012414665
 20
404.4138749896
 30
0.0
 11
199.2012414665
 21
402.4138749896
 31
0.0
  0
LINE
  5
28D
  8
0
  6
CONTINUOUS
 62
     7
 10
160.4512414665
 20
402.4138749896
 30
0.0
 11
159.4512414665
 21
402.4138749896
 31
0.0
  0
LINE
  5
28E
  8
0
  6
CONTINUOUS
 62
     7
 10
171.4512414665
 20
402.4138749896
 30
0.0
 11
170.3893432559
 21
402.4138749896
 31
0.0
  0
LINE
  5
28F
  8
0
  6
CONTINUOUS
 62
     7
 10
170.4512414665
 20
402.4087846031
 30
0.0
 11
170.4512414665
 21
404.4138749896
 31
0.0
  0
LINE
  5
290
  8
0
  6
CONTINUOUS
 62
     7
 10
160.4512414665
 20
404.4138749896
 30
0.0
 11
160.4512414665
 21
402.4138749896
 31
0.0
  0
LINE
  5
291
  8
0
  6
CONTINUOUS
 62
     7
 10
127.3512414665
 20
402.4138749896
 30
0.0
 11
126.3512414665
 21
402.4138749896
 31
0.0
  0
LINE
  5
292
  8
0
  6
CONTINUOUS
 62
     7
 10
138.3512414665
 20
402.4138749896
 30
0.0
 11
137.2893432559
 21
402.4138749896
 31
0.0
  0
LINE
  5
293
  8
0
  6
CONTINUOUS
 62
     7
 10
137.3512414665
 20
402.4087846031
 30
0.0
 11
137.3512414665
 21
404.4138749896
 31
0.0
  0
LINE
  5
294
  8
0
  6
CONTINUOUS
 62
     7
 10
127.3512414665
 20
404.4138749896
 30
0.0
 11
127.3512414665
 21
402.4138749896
 31
0.0
  0
LINE
  5
295
  8
0
  6
CONTINUOUS
 62
     7
 10
208.4512414665
 20
441.4138749896
 30
0.0
 11
200.4512414665
 21
441.4138749896
 31
0.0
  0
LINE
  5
296
  8
0
  6
CONTINUOUS
 62
     7
 10
168.4512414665
 20
441.4138749896
 30
0.0
 11
162.4512414665
 21
441.4138749896
 31
0.0
  0
LINE
  5
297
  8
0
  6
CONTINUOUS
 62
     7
 10
135.3512414665
 20
441.4138749896
 30
0.0
 11
129.3512414665
 21
441.4138749896
 31
0.0
  0
ARC
  5
298
  8
0
  6
CONTINUOUS
 62
     7
 10
475.0275522164
 20
353.90020202
 30
0.0
 40
192.9760767585204
 50
168.7905898534
 51
170.954732184
  0
LINE
  5
299
  8
0
  6
CONTINUOUS
 62
     7
 10
286.8076194165
 20
391.4138749896
 30
0.0
 11
285.7328334802
 21
391.4138749896
 31
0.0
  0
POLYLINE
  5
29A
  8
0
  6
CONTINUOUS
 62
     7
 66
     1
 10
0.0
 20
0.0
 30
0.0
 70
   128
  0
VERTEX
  5
48D
  8
0
  6
CONTINUOUS
 62
     7
 10
286.8076194165
 20
383.2138749896
 30
0.0
  0
VERTEX
  5
48E
  8
0
  6
CONTINUOUS
 62
     7
 10
287.0284719487
 20
384.5648531381
 30
0.0
  0
VERTEX
  5
48F
  8
0
  6
CONTINUOUS
 62
     7
 10
287.20451357
 20
385.8851928499
 30
0.0
  0
VERTEX
  5
490
  8
0
  6
CONTINUOUS
 62
     7
 10
287.3294239597
 20
387.1375350676
 30
0.0
  0
VERTEX
  5
491
  8
0
  6
CONTINUOUS
 62
     7
 10
287.3994891679
 20
388.2842987399
 30
0.0
  0
VERTEX
  5
492
  8
0
  6
CONTINUOUS
 62
     7
 10
287.4116678638
 20
389.2731293741
 30
0.0
  0
VERTEX
  5
493
  8
0
  6
CONTINUOUS
 62
     7
 10
287.3680686125
 20
390.0983348562
 30
0.0
  0
VERTEX
  5
494
  8
0
  6
CONTINUOUS
 62
     7
 10
287.2703875811
 20
390.7299045548
 30
0.0
  0
VERTEX
  5
495
  8
0
  6
CONTINUOUS
 62
     7
 10
287.1224838551
 20
391.1620546571
 30
0.0
  0
VERTEX
  5
496
  8
0
  6
CONTINUOUS
 62
     7
 10
286.8076194165
 20
391.4138749896
 30
0.0
  0
SEQEND
  5
545
  8
0
  6
CONTINUOUS
 62
     7
  0
ARC
  5
29B
  8
0
  6
CONTINUOUS
 62
     7
 10
479.2063200359
 20
348.9138749896
 30
0.0
 40
195.4322133119308
 50
169.8917533355
 51
173.318834654
  0
LINE
  5
29C
  8
0
  6
CONTINUOUS
 62
     7
 10
285.1012969169
 20
376.5029291216
 30
0.0
 11
285.1012969169
 21
371.6512890906
 31
0.0
  0
ARC
  5
29D
  8
0
  6
CONTINUOUS
 62
     7
 10
299.0045945351
 20
386.7717971612
 30
0.0
 40
17.28442464976144
 50
212.6488928602
 51
216.4492882759
  0
POLYLINE
  5
29E
  8
0
  6
CONTINUOUS
 62
     7
 66
     1
 10
0.0
 20
0.0
 30
0.0
 70
   128
  0
VERTEX
  5
497
  8
0
  6
CONTINUOUS
 62
     7
 10
284.4512414665
 20
377.9142096522
 30
0.0
  0
VERTEX
  5
498
  8
0
  6
CONTINUOUS
 62
     7
 10
284.6536372587
 20
378.014163086
 30
0.0
  0
VERTEX
  5
499
  8
0
  6
CONTINUOUS
 62
     7
 10
284.880476938
 20
378.285258041
 30
0.0
  0
VERTEX
  5
49A
  8
0
  6
CONTINUOUS
 62
     7
 10
285.3810658698
 20
379.3016027016
 30
0.0
  0
VERTEX
  5
49B
  8
0
  6
CONTINUOUS
 62
     7
 10
285.6456776768
 20
380.0305213415
 30
0.0
  0
VERTEX
  5
49C
  8
0
  6
CONTINUOUS
 62
     7
 10
285.907143937
 20
380.8750346033
 30
0.0
  0
VERTEX
  5
49D
  8
0
  6
CONTINUOUS
 62
     7
 10
286.1596010292
 20
381.8198710877
 30
0.0
  0
VERTEX
  5
49E
  8
0
  6
CONTINUOUS
 62
     7
 10
286.3939222707
 20
382.8319345636
 30
0.0
  0
VERTEX
  5
49F
  8
0
  6
CONTINUOUS
 62
     7
 10
286.5998013221
 20
383.8679955187
 30
0.0
  0
VERTEX
  5
4A0
  8
0
  6
CONTINUOUS
 62
     7
 10
286.7743902573
 20
384.9108986165
 30
0.0
  0
VERTEX
  5
4A1
  8
0
  6
CONTINUOUS
 62
     7
 10
286.9078300832
 20
385.8998024475
 30
0.0
  0
VERTEX
  5
4A2
  8
0
  6
CONTINUOUS
 62
     7
 10
287.0016172349
 20
386.8353388553
 30
0.0
  0
VERTEX
  5
4A3
  8
0
  6
CONTINUOUS
 62
     7
 10
287.0580212705
 20
388.3882064746
 30
0.0
  0
VERTEX
  5
4A4
  8
0
  6
CONTINUOUS
 62
     7
 10
286.9485104721
 20
389.4346276832
 30
0.0
  0
VERTEX
  5
4A5
  8
0
  6
CONTINUOUS
 62
     7
 10
286.6890137166
 20
389.8960690676
 30
0.0
  0
VERTEX
  5
4A6
  8
0
  6
CONTINUOUS
 62
     7
 10
286.3023258997
 20
389.7244796109
 30
0.0
  0
VERTEX
  5
4A7
  8
0
  6
CONTINUOUS
 62
     7
 10
285.8218649039
 20
388.9059794459
 30
0.0
  0
VERTEX
  5
4A8
  8
0
  6
CONTINUOUS
 62
     7
 10
285.5598544064
 20
388.2622154758
 30
0.0
  0
VERTEX
  5
4A9
  8
0
  6
CONTINUOUS
 62
     7
 10
285.2971019106
 20
387.4910932248
 30
0.0
  0
VERTEX
  5
4AA
  8
0
  6
CONTINUOUS
 62
     7
 10
285.037940449
 20
386.6011576728
 30
0.0
  0
VERTEX
  5
4AB
  8
0
  6
CONTINUOUS
 62
     7
 10
284.7928845154
 20
385.6271517713
 30
0.0
  0
VERTEX
  5
4AC
  8
0
  6
CONTINUOUS
 62
     7
 10
284.4512414665
 20
383.9772456335
 30
0.0
  0
SEQEND
  5
546
  8
0
  6
CONTINUOUS
 62
     7
  0
LINE
  5
29F
  8
0
  6
CONTINUOUS
 62
     7
 10
284.4512414665
 20
383.9772456335
 30
0.0
 11
284.4512414665
 21
384.2388898962
 31
0.0
  0
LINE
  5
2A0
  8
0
  6
CONTINUOUS
 62
     7
 10
284.4512414665
 20
377.447031752
 30
0.0
 11
284.4512414665
 21
377.9142096522
 31
0.0
  0
LINE
  5
2A1
  8
0
  6
CONTINUOUS
 62
     7
 10
285.1012969169
 20
326.1764608886
 30
0.0
 11
284.4512414665
 21
326.1764608886
 31
0.0
  0
LINE
  5
2A2
  8
0
  6
CONTINUOUS
 62
     7
 10
285.1012969169
 20
371.6512890906
 30
0.0
 11
284.4512414665
 21
371.6512890906
 31
0.0
  0
LINE
  5
2A3
  8
0
  6
CONTINUOUS
 62
     7
 10
298.4512414665
 20
383.2138749896
 30
0.0
 11
286.8076194165
 21
383.2138749896
 31
0.0
  0
LINE
  5
2A4
  8
0
  6
CONTINUOUS
 62
     7
 10
298.4512414665
 20
314.6138749896
 30
0.0
 11
298.4512414665
 21
383.2138749896
 31
0.0
  0
LINE
  5
2A5
  8
0
  6
CONTINUOUS
 62
     7
 10
286.8076194165
 20
314.6138749896
 30
0.0
 11
298.4512414665
 21
314.6138749896
 31
0.0
  0
ARC
  5
2A6
  8
0
  6
CONTINUOUS
 62
     7
 10
479.2063200359
 20
348.9138749896
 30
0.0
 40
195.4322133119308
 50
186.681165346
 51
190.1082466645
  0
LINE
  5
2A7
  8
0
  6
CONTINUOUS
 62
     7
 10
284.4512414665
 20
326.1764608886
 30
0.0
 11
284.4512414665
 21
371.6512890906
 31
0.0
  0
LINE
  5
2A8
  8
0
  6
CONTINUOUS
 62
     7
 10
285.1012969169
 20
376.5029291216
 30
0.0
 11
284.4512414665
 21
376.5029291216
 31
0.0
  0
LINE
  5
2A9
  8
0
  6
CONTINUOUS
 62
     7
 10
284.4512414665
 20
371.6512890906
 30
0.0
 11
284.4512414665
 21
376.5029291216
 31
0.0
  0
LINE
  5
2AA
  8
0
  6
CONTINUOUS
 62
     7
 10
286.8076194165
 20
391.4138749896
 30
0.0
 11
298.4512414665
 21
391.4138749896
 31
0.0
  0
LINE
  5
2AB
  8
0
  6
CONTINUOUS
 62
     7
 10
298.4512414665
 20
391.4138749896
 30
0.0
 11
298.4512414665
 21
383.2138749896
 31
0.0
  0
LINE
  5
2AC
  8
0
  6
CONTINUOUS
 62
     7
 10
285.1012969169
 20
321.3248208577
 30
0.0
 11
284.4512414665
 21
321.3248208577
 31
0.0
  0
LINE
  5
2AD
  8
0
  6
CONTINUOUS
 62
     7
 10
285.1012969169
 20
326.1764608886
 30
0.0
 11
285.1012969169
 21
321.3248208577
 31
0.0
  0
LINE
  5
2AE
  8
0
  6
CONTINUOUS
 62
     7
 10
284.4512414665
 20
321.3248208577
 30
0.0
 11
284.4512414665
 21
326.1764608886
 31
0.0
  0
ARC
  5
2AF
  8
0
  6
CONTINUOUS
 62
     7
 10
299.0045945351
 20
311.0559528181
 30
0.0
 40
17.28442464975264
 50
143.5507117241
 51
147.3511071398
  0
POLYLINE
  5
2B0
  8
0
  6
CONTINUOUS
 62
     7
 66
     1
 10
0.0
 20
0.0
 30
0.0
 70
   128
  0
VERTEX
  5
4AD
  8
0
  6
CONTINUOUS
 62
     7
 10
286.8076194165
 20
306.4138749896
 30
0.0
  0
VERTEX
  5
4AE
  8
0
  6
CONTINUOUS
 62
     7
 10
287.0284719487
 20
306.5267393768
 30
0.0
  0
VERTEX
  5
4AF
  8
0
  6
CONTINUOUS
 62
     7
 10
287.20451357
 20
306.8611941056
 30
0.0
  0
VERTEX
  5
4B0
  8
0
  6
CONTINUOUS
 62
     7
 10
287.3294239597
 20
307.4145416767
 30
0.0
  0
VERTEX
  5
4B1
  8
0
  6
CONTINUOUS
 62
     7
 10
287.3994891679
 20
308.1694352939
 30
0.0
  0
VERTEX
  5
4B2
  8
0
  6
CONTINUOUS
 62
     7
 10
287.4116678638
 20
309.0901531065
 30
0.0
  0
VERTEX
  5
4B3
  8
0
  6
CONTINUOUS
 62
     7
 10
287.3680686125
 20
310.1591906748
 30
0.0
  0
VERTEX
  5
4B4
  8
0
  6
CONTINUOUS
 62
     7
 10
287.2703875811
 20
311.337218993
 30
0.0
  0
VERTEX
  5
4B5
  8
0
  6
CONTINUOUS
 62
     7
 10
287.1224838551
 20
312.5973334022
 30
0.0
  0
VERTEX
  5
4B6
  8
0
  6
CONTINUOUS
 62
     7
 10
286.8076194165
 20
314.6138749896
 30
0.0
  0
SEQEND
  5
547
  8
0
  6
CONTINUOUS
 62
     7
  0
LINE
  5
2B1
  8
0
  6
CONTINUOUS
 62
     7
 10
285.7328334802
 20
306.4138749896
 30
0.0
 11
286.8076194165
 21
306.4138749896
 31
0.0
  0
ARC
  5
2B2
  8
0
  6
CONTINUOUS
 62
     7
 10
475.0275522168
 20
343.9275479594
 30
0.0
 40
192.9760767588747
 50
189.045267816
 51
191.2094101466
  0
POLYLINE
  5
2B3
  8
0
  6
CONTINUOUS
 62
     7
 66
     1
 10
0.0
 20
0.0
 30
0.0
 70
   128
  0
VERTEX
  5
4B7
  8
0
  6
CONTINUOUS
 62
     7
 10
284.4512414665
 20
313.8505043458
 30
0.0
  0
VERTEX
  5
4B8
  8
0
  6
CONTINUOUS
 62
     7
 10
284.6536372587
 20
312.8248331965
 30
0.0
  0
VERTEX
  5
4B9
  8
0
  6
CONTINUOUS
 62
     7
 10
284.880476938
 20
311.8357336938
 30
0.0
  0
VERTEX
  5
4BA
  8
0
  6
CONTINUOUS
 62
     7
 10
285.3810658698
 20
310.0763048807
 30
0.0
  0
VERTEX
  5
4BB
  8
0
  6
CONTINUOUS
 62
     7
 10
285.6456776768
 20
309.3408533373
 30
0.0
  0
VERTEX
  5
4BC
  8
0
  6
CONTINUOUS
 62
     7
 10
285.907143937
 20
308.7403414673
 30
0.0
  0
VERTEX
  5
4BD
  8
0
  6
CONTINUOUS
 62
     7
 10
286.1596010292
 20
308.2918214733
 30
0.0
  0
VERTEX
  5
4BE
  8
0
  6
CONTINUOUS
 62
     7
 10
286.3939222707
 20
308.0122307345
 30
0.0
  0
VERTEX
  5
4BF
  8
0
  6
CONTINUOUS
 62
     7
 10
286.5998013221
 20
307.9147296678
 30
0.0
  0
VERTEX
  5
4C0
  8
0
  6
CONTINUOUS
 62
     7
 10
286.7743902573
 20
307.9972928777
 30
0.0
  0
VERTEX
  5
4C1
  8
0
  6
CONTINUOUS
 62
     7
 10
286.9078300832
 20
308.2527890481
 30
0.0
  0
VERTEX
  5
4C2
  8
0
  6
CONTINUOUS
 62
     7
 10
287.0016172349
 20
308.6731642667
 30
0.0
  0
VERTEX
  5
4C3
  8
0
  6
CONTINUOUS
 62
     7
 10
287.0580212705
 20
309.9163310233
 30
0.0
  0
VERTEX
  5
4C4
  8
0
  6
CONTINUOUS
 62
     7
 10
286.9485104721
 20
311.5641325152
 30
0.0
  0
VERTEX
  5
4C5
  8
0
  6
CONTINUOUS
 62
     7
 10
286.6890137166
 20
313.4519723881
 30
0.0
  0
VERTEX
  5
4C6
  8
0
  6
CONTINUOUS
 62
     7
 10
286.3023258997
 20
315.4094932349
 30
0.0
  0
VERTEX
  5
4C7
  8
0
  6
CONTINUOUS
 62
     7
 10
285.8218649039
 20
317.2423721127
 30
0.0
  0
VERTEX
  5
4C8
  8
0
  6
CONTINUOUS
 62
     7
 10
285.5598544064
 20
318.0472812711
 30
0.0
  0
VERTEX
  5
4C9
  8
0
  6
CONTINUOUS
 62
     7
 10
285.2971019106
 20
318.7308771381
 30
0.0
  0
VERTEX
  5
4CA
  8
0
  6
CONTINUOUS
 62
     7
 10
285.037940449
 20
319.2777363615
 30
0.0
  0
VERTEX
  5
4CB
  8
0
  6
CONTINUOUS
 62
     7
 10
284.7928845154
 20
319.6640647838
 30
0.0
  0
VERTEX
  5
4CC
  8
0
  6
CONTINUOUS
 62
     7
 10
284.4512414665
 20
319.9135403271
 30
0.0
  0
SEQEND
  5
548
  8
0
  6
CONTINUOUS
 62
     7
  0
LINE
  5
2B4
  8
0
  6
CONTINUOUS
 62
     7
 10
284.4512414665
 20
320.3807182272
 30
0.0
 11
284.4512414665
 21
319.9135403271
 31
0.0
  0
LINE
  5
2B5
  8
0
  6
CONTINUOUS
 62
     7
 10
284.4512414665
 20
313.8505043458
 30
0.0
 11
284.4512414665
 21
313.5888600831
 31
0.0
  0
LINE
  5
2B6
  8
0
  6
CONTINUOUS
 62
     7
 10
298.4512414665
 20
306.4138749896
 30
0.0
 11
286.8076194165
 21
306.4138749896
 31
0.0
  0
LINE
  5
2B7
  8
0
  6
CONTINUOUS
 62
     7
 10
298.4512414665
 20
314.6138749896
 30
0.0
 11
298.4512414665
 21
306.4138749896
 31
0.0
  0
LINE
  5
2B8
  8
0
  6
CONTINUOUS
 62
     7
 10
284.4512414665
 20
383.9772456335
 30
0.0
 11
284.4512414665
 21
377.9142096522
 31
0.0
  0
LINE
  5
2B9
  8
0
  6
CONTINUOUS
 62
     7
 10
284.4512414665
 20
319.9135403271
 30
0.0
 11
284.4512414665
 21
313.8505043458
 31
0.0
  0
LINE
  5
2BA
  8
0
  6
CONTINUOUS
 62
     7
 10
284.4512414665
 20
376.5029291216
 30
0.0
 11
284.4512414665
 21
377.447031752
 31
0.0
  0
LINE
  5
2BB
  8
0
  6
CONTINUOUS
 62
     7
 10
284.4512414665
 20
320.3807182272
 30
0.0
 11
284.4512414665
 21
321.3248208577
 31
0.0
  0
LINE
  5
2BC
  8
0
  6
CONTINUOUS
 62
     7
 10
301.4512414665
 20
318.9138749896
 30
0.0
 11
301.4512414665
 21
378.9138749896
 31
0.0
  0
LINE
  5
2BD
  8
0
  6
CONTINUOUS
 62
     7
 10
285.7328334802
 20
391.4138749896
 30
0.0
 11
284.4512414665
 21
391.4138749896
 31
0.0
  0
LINE
  5
2BE
  8
0
  6
CONTINUOUS
 62
     7
 10
284.4512414665
 20
384.2388898962
 30
0.0
 11
284.4512414665
 21
391.4138749896
 31
0.0
  0
LINE
  5
2BF
  8
0
  6
CONTINUOUS
 62
     7
 10
285.7328334802
 20
306.4138749896
 30
0.0
 11
284.4512414665
 21
306.4138749896
 31
0.0
  0
LINE
  5
2C0
  8
0
  6
CONTINUOUS
 62
     7
 10
284.4512414665
 20
306.4138749896
 30
0.0
 11
284.4512414665
 21
313.5888600831
 31
0.0
  0
LINE
  5
2C1
  8
0
  6
CONTINUOUS
 62
     7
 10
335.4512414665
 20
348.9138749896
 30
0.0
 11
335.4512414665
 21
340.9138749896
 31
0.0
  0
LINE
  5
2C2
  8
0
  6
CONTINUOUS
 62
     7
 10
335.4512414665
 20
356.9138749896
 30
0.0
 11
335.4512414665
 21
348.9138749896
 31
0.0
  0
LINE
  5
2C3
  8
0
  6
CONTINUOUS
 62
     7
 10
126.7991389163
 20
326.1764608886
 30
0.0
 11
126.7991389163
 21
321.3248208577
 31
0.0
  0
ARC
  5
2C4
  8
0
  6
CONTINUOUS
 62
     7
 10
140.3080009984
 20
311.3310790117
 30
0.0
 40
16.80369693960244
 50
143.506277429
 51
149.1250560744
  0
ARC
  5
2C5
  8
0
  6
CONTINUOUS
 62
     7
 10
137.9990558278
 20
317.558582071
 30
0.0
 40
12.34809497935149
 50
168.8134426152
 51
192.7299703187
  0
ARC
  5
2C6
  8
0
  6
CONTINUOUS
 62
     7
 10
316.7184446181
 20
343.9262693241
 30
0.0
 40
192.9690111757156
 50
188.6699695398
 51
191.2094388665
  0
LINE
  5
2C7
  8
0
  6
CONTINUOUS
 62
     7
 10
127.4306754796
 20
306.4138749896
 30
0.0
 11
125.4719487233
 21
306.4138749896
 31
0.0
  0
LINE
  5
2C8
  8
0
  6
CONTINUOUS
 62
     7
 10
125.4719487233
 20
391.4138749896
 30
0.0
 11
127.4306754796
 21
391.4138749896
 31
0.0
  0
ARC
  5
2C9
  8
0
  6
CONTINUOUS
 62
     7
 10
316.7184446183
 20
353.9014806551
 30
0.0
 40
192.9690111759228
 50
168.7905611335
 51
171.3300304602
  0
ARC
  5
2CA
  8
0
  6
CONTINUOUS
 62
     7
 10
136.4835602709
 20
380.2895810776
 30
0.0
 40
10.86989033917176
 50
165.6144889421
 51
192.8420981239
  0
ARC
  5
2CB
  8
0
  6
CONTINUOUS
 62
     7
 10
140.3080009984
 20
386.4966709676
 30
0.0
 40
16.80369693956985
 50
210.8749439256
 51
216.4937225711
  0
LINE
  5
2CC
  8
0
  6
CONTINUOUS
 62
     7
 10
126.7991389163
 20
376.5029291216
 30
0.0
 11
126.7991389163
 21
371.6512890906
 31
0.0
  0
ARC
  5
2CD
  8
0
  6
CONTINUOUS
 62
     7
 10
320.9041620353
 20
348.9138749896
 30
0.0
 40
195.4322133119308
 50
173.318834654
 51
186.681165346
  0
LINE
  5
2CE
  8
0
  6
CONTINUOUS
 62
     7
 10
124.4512414665
 20
311.4138749896
 30
0.0
 11
124.4512414665
 21
386.4138749896
 31
0.0
  0
LINE
  5
2CF
  8
0
  6
CONTINUOUS
 62
     7
 10
126.7991389163
 20
371.6512890906
 30
0.0
 11
139.3512414665
 21
371.6512890906
 31
0.0
  0
LINE
  5
2D0
  8
0
  6
CONTINUOUS
 62
     7
 10
126.7991389163
 20
376.5029291216
 30
0.0
 11
139.3512414665
 21
376.5029291216
 31
0.0
  0
LINE
  5
2D1
  8
0
  6
CONTINUOUS
 62
     7
 10
139.3512414665
 20
371.6512890906
 30
0.0
 11
139.3512414665
 21
376.5029291216
 31
0.0
  0
LINE
  5
2D2
  8
0
  6
CONTINUOUS
 62
     7
 10
126.7991389163
 20
326.1764608886
 30
0.0
 11
139.3512414665
 21
326.1764608886
 31
0.0
  0
LINE
  5
2D3
  8
0
  6
CONTINUOUS
 62
     7
 10
139.3512414665
 20
326.1764608886
 30
0.0
 11
139.3512414665
 21
371.6512890906
 31
0.0
  0
LINE
  5
2D4
  8
0
  6
CONTINUOUS
 62
     7
 10
126.7991389163
 20
321.3248208577
 30
0.0
 11
139.3512414665
 21
321.3248208577
 31
0.0
  0
LINE
  5
2D5
  8
0
  6
CONTINUOUS
 62
     7
 10
139.3512414665
 20
321.3248208577
 30
0.0
 11
139.3512414665
 21
326.1764608886
 31
0.0
  0
LINE
  5
2D6
  8
0
  6
CONTINUOUS
 62
     7
 10
125.8855660192
 20
377.8735856667
 30
0.0
 11
139.3512414665
 21
377.8735856667
 31
0.0
  0
LINE
  5
2D7
  8
0
  6
CONTINUOUS
 62
     7
 10
139.3512414665
 20
376.5029291216
 30
0.0
 11
139.3512414665
 21
377.8735856667
 31
0.0
  0
LINE
  5
2D8
  8
0
  6
CONTINUOUS
 62
     7
 10
125.8855660192
 20
319.9541643126
 30
0.0
 11
139.3512414665
 21
319.9541643126
 31
0.0
  0
LINE
  5
2D9
  8
0
  6
CONTINUOUS
 62
     7
 10
139.3512414665
 20
319.9541643126
 30
0.0
 11
139.3512414665
 21
321.3248208577
 31
0.0
  0
LINE
  5
2DA
  8
0
  6
CONTINUOUS
 62
     7
 10
125.9544842692
 20
382.9901503758
 30
0.0
 11
139.3512414665
 21
382.9901503758
 31
0.0
  0
LINE
  5
2DB
  8
0
  6
CONTINUOUS
 62
     7
 10
139.3512414665
 20
377.8735856667
 30
0.0
 11
139.3512414665
 21
382.9901503758
 31
0.0
  0
LINE
  5
2DC
  8
0
  6
CONTINUOUS
 62
     7
 10
125.9544842692
 20
314.8375996035
 30
0.0
 11
139.3512414665
 21
314.8375996035
 31
0.0
  0
LINE
  5
2DD
  8
0
  6
CONTINUOUS
 62
     7
 10
139.3512414665
 20
314.8375996035
 30
0.0
 11
139.3512414665
 21
319.9541643126
 31
0.0
  0
LINE
  5
2DE
  8
0
  6
CONTINUOUS
 62
     7
 10
127.4306754796
 20
391.4138749896
 30
0.0
 11
139.3512414665
 21
391.4138749896
 31
0.0
  0
LINE
  5
2DF
  8
0
  6
CONTINUOUS
 62
     7
 10
139.3512414665
 20
382.9901503758
 30
0.0
 11
139.3512414665
 21
391.4138749896
 31
0.0
  0
LINE
  5
2E0
  8
0
  6
CONTINUOUS
 62
     7
 10
127.4306754796
 20
306.4138749896
 30
0.0
 11
139.3512414665
 21
306.4138749896
 31
0.0
  0
LINE
  5
2E1
  8
0
  6
CONTINUOUS
 62
     7
 10
139.3512414665
 20
306.4138749896
 30
0.0
 11
139.3512414665
 21
314.8375996035
 31
0.0
  0
LINE
  5
2E2
  8
0
  6
CONTINUOUS
 62
     7
 10
139.3512414665
 20
371.6512890906
 30
0.0
 11
152.4512414665
 21
371.6512890906
 31
0.0
  0
LINE
  5
2E3
  8
0
  6
CONTINUOUS
 62
     7
 10
139.3512414665
 20
376.5029291216
 30
0.0
 11
152.4512414665
 21
376.5029291216
 31
0.0
  0
LINE
  5
2E4
  8
0
  6
CONTINUOUS
 62
     7
 10
152.4512414665
 20
371.6512890906
 30
0.0
 11
152.4512414665
 21
376.5029291216
 31
0.0
  0
LINE
  5
2E5
  8
0
  6
CONTINUOUS
 62
     7
 10
139.3512414665
 20
326.1764608886
 30
0.0
 11
152.4512414665
 21
326.1764608886
 31
0.0
  0
LINE
  5
2E6
  8
0
  6
CONTINUOUS
 62
     7
 10
152.4512414665
 20
326.1764608886
 30
0.0
 11
152.4512414665
 21
371.6512890906
 31
0.0
  0
LINE
  5
2E7
  8
0
  6
CONTINUOUS
 62
     7
 10
139.3512414665
 20
321.3248208577
 30
0.0
 11
152.4512414665
 21
321.3248208577
 31
0.0
  0
LINE
  5
2E8
  8
0
  6
CONTINUOUS
 62
     7
 10
152.4512414665
 20
321.3248208577
 30
0.0
 11
152.4512414665
 21
326.1764608886
 31
0.0
  0
LINE
  5
2E9
  8
0
  6
CONTINUOUS
 62
     7
 10
139.3512414665
 20
377.8735856667
 30
0.0
 11
152.4512414665
 21
377.8735856667
 31
0.0
  0
LINE
  5
2EA
  8
0
  6
CONTINUOUS
 62
     7
 10
152.4512414665
 20
376.5029291216
 30
0.0
 11
152.4512414665
 21
377.8735856667
 31
0.0
  0
LINE
  5
2EB
  8
0
  6
CONTINUOUS
 62
     7
 10
139.3512414665
 20
319.9541643126
 30
0.0
 11
152.4512414665
 21
319.9541643126
 31
0.0
  0
LINE
  5
2EC
  8
0
  6
CONTINUOUS
 62
     7
 10
152.4512414665
 20
319.9541643126
 30
0.0
 11
152.4512414665
 21
321.3248208577
 31
0.0
  0
LINE
  5
2ED
  8
0
  6
CONTINUOUS
 62
     7
 10
139.3512414665
 20
382.9901503758
 30
0.0
 11
152.4512414665
 21
382.9901503758
 31
0.0
  0
LINE
  5
2EE
  8
0
  6
CONTINUOUS
 62
     7
 10
152.4512414665
 20
377.8735856667
 30
0.0
 11
152.4512414665
 21
382.9901503758
 31
0.0
  0
LINE
  5
2EF
  8
0
  6
CONTINUOUS
 62
     7
 10
139.3512414665
 20
314.8375996035
 30
0.0
 11
152.4512414665
 21
314.8375996035
 31
0.0
  0
LINE
  5
2F0
  8
0
  6
CONTINUOUS
 62
     7
 10
152.4512414665
 20
314.8375996035
 30
0.0
 11
152.4512414665
 21
319.9541643126
 31
0.0
  0
LINE
  5
2F1
  8
0
  6
CONTINUOUS
 62
     7
 10
139.3512414665
 20
391.4138749896
 30
0.0
 11
152.4512414665
 21
391.4138749896
 31
0.0
  0
LINE
  5
2F2
  8
0
  6
CONTINUOUS
 62
     7
 10
152.4512414665
 20
382.9901503758
 30
0.0
 11
152.4512414665
 21
391.4138749896
 31
0.0
  0
LINE
  5
2F3
  8
0
  6
CONTINUOUS
 62
     7
 10
139.3512414665
 20
306.4138749896
 30
0.0
 11
152.4512414665
 21
306.4138749896
 31
0.0
  0
LINE
  5
2F4
  8
0
  6
CONTINUOUS
 62
     7
 10
152.4512414665
 20
306.4138749896
 30
0.0
 11
152.4512414665
 21
314.8375996035
 31
0.0
  0
LINE
  5
2F5
  8
0
  6
CONTINUOUS
 62
     7
 10
152.4512414665
 20
371.6512890906
 30
0.0
 11
194.4512414665
 21
371.6512890906
 31
0.0
  0
LINE
  5
2F6
  8
0
  6
CONTINUOUS
 62
     7
 10
152.4512414665
 20
376.5029291216
 30
0.0
 11
194.4512414665
 21
376.5029291216
 31
0.0
  0
LINE
  5
2F7
  8
0
  6
CONTINUOUS
 62
     7
 10
194.4512414665
 20
371.6512890906
 30
0.0
 11
194.4512414665
 21
376.5029291216
 31
0.0
  0
LINE
  5
2F8
  8
0
  6
CONTINUOUS
 62
     7
 10
152.4512414665
 20
326.1764608886
 30
0.0
 11
194.4512414665
 21
326.1764608886
 31
0.0
  0
LINE
  5
2F9
  8
0
  6
CONTINUOUS
 62
     7
 10
194.4512414665
 20
326.1764608886
 30
0.0
 11
194.4512414665
 21
371.6512890906
 31
0.0
  0
LINE
  5
2FA
  8
0
  6
CONTINUOUS
 62
     7
 10
152.4512414665
 20
321.3248208577
 30
0.0
 11
194.4512414665
 21
321.3248208577
 31
0.0
  0
LINE
  5
2FB
  8
0
  6
CONTINUOUS
 62
     7
 10
194.4512414665
 20
321.3248208577
 30
0.0
 11
194.4512414665
 21
326.1764608886
 31
0.0
  0
LINE
  5
2FC
  8
0
  6
CONTINUOUS
 62
     7
 10
152.4512414665
 20
377.8735856667
 30
0.0
 11
194.4512414665
 21
377.8735856667
 31
0.0
  0
LINE
  5
2FD
  8
0
  6
CONTINUOUS
 62
     7
 10
194.4512414665
 20
376.5029291216
 30
0.0
 11
194.4512414665
 21
377.8735856667
 31
0.0
  0
LINE
  5
2FE
  8
0
  6
CONTINUOUS
 62
     7
 10
152.4512414665
 20
319.9541643126
 30
0.0
 11
194.4512414665
 21
319.9541643126
 31
0.0
  0
LINE
  5
2FF
  8
0
  6
CONTINUOUS
 62
     7
 10
194.4512414665
 20
319.9541643126
 30
0.0
 11
194.4512414665
 21
321.3248208577
 31
0.0
  0
LINE
  5
300
  8
0
  6
CONTINUOUS
 62
     7
 10
152.4512414665
 20
382.9901503758
 30
0.0
 11
194.4512414665
 21
382.9901503758
 31
0.0
  0
LINE
  5
301
  8
0
  6
CONTINUOUS
 62
     7
 10
194.4512414665
 20
377.8735856667
 30
0.0
 11
194.4512414665
 21
382.9901503758
 31
0.0
  0
LINE
  5
302
  8
0
  6
CONTINUOUS
 62
     7
 10
152.4512414665
 20
314.8375996035
 30
0.0
 11
194.4512414665
 21
314.8375996035
 31
0.0
  0
LINE
  5
303
  8
0
  6
CONTINUOUS
 62
     7
 10
194.4512414665
 20
314.8375996035
 30
0.0
 11
194.4512414665
 21
319.9541643126
 31
0.0
  0
LINE
  5
304
  8
0
  6
CONTINUOUS
 62
     7
 10
152.4512414665
 20
391.4138749896
 30
0.0
 11
194.4512414665
 21
391.4138749896
 31
0.0
  0
LINE
  5
305
  8
0
  6
CONTINUOUS
 62
     7
 10
194.4512414665
 20
382.9901503758
 30
0.0
 11
194.4512414665
 21
391.4138749896
 31
0.0
  0
LINE
  5
306
  8
0
  6
CONTINUOUS
 62
     7
 10
152.4512414665
 20
306.4138749896
 30
0.0
 11
194.4512414665
 21
306.4138749896
 31
0.0
  0
LINE
  5
307
  8
0
  6
CONTINUOUS
 62
     7
 10
194.4512414665
 20
306.4138749896
 30
0.0
 11
194.4512414665
 21
314.8375996035
 31
0.0
  0
LINE
  5
308
  8
0
  6
CONTINUOUS
 62
     7
 10
194.4512414665
 20
371.6512890906
 30
0.0
 11
197.4512414665
 21
371.6512890906
 31
0.0
  0
LINE
  5
309
  8
0
  6
CONTINUOUS
 62
     7
 10
194.4512414665
 20
376.5029291216
 30
0.0
 11
197.4512414665
 21
376.5029291216
 31
0.0
  0
LINE
  5
30A
  8
0
  6
CONTINUOUS
 62
     7
 10
197.4512414665
 20
371.6512890906
 30
0.0
 11
197.4512414665
 21
376.5029291216
 31
0.0
  0
LINE
  5
30B
  8
0
  6
CONTINUOUS
 62
     7
 10
194.4512414665
 20
326.1764608886
 30
0.0
 11
197.4512414665
 21
326.1764608886
 31
0.0
  0
LINE
  5
30C
  8
0
  6
CONTINUOUS
 62
     7
 10
197.4512414665
 20
326.1764608886
 30
0.0
 11
197.4512414665
 21
371.6512890906
 31
0.0
  0
LINE
  5
30D
  8
0
  6
CONTINUOUS
 62
     7
 10
194.4512414665
 20
321.3248208577
 30
0.0
 11
197.4512414665
 21
321.3248208577
 31
0.0
  0
LINE
  5
30E
  8
0
  6
CONTINUOUS
 62
     7
 10
197.4512414665
 20
321.3248208577
 30
0.0
 11
197.4512414665
 21
326.1764608886
 31
0.0
  0
LINE
  5
30F
  8
0
  6
CONTINUOUS
 62
     7
 10
194.4512414665
 20
377.8735856667
 30
0.0
 11
197.4512414665
 21
377.8735856667
 31
0.0
  0
LINE
  5
310
  8
0
  6
CONTINUOUS
 62
     7
 10
197.4512414665
 20
376.5029291216
 30
0.0
 11
197.4512414665
 21
377.8735856667
 31
0.0
  0
LINE
  5
311
  8
0
  6
CONTINUOUS
 62
     7
 10
194.4512414665
 20
319.9541643126
 30
0.0
 11
197.4512414665
 21
319.9541643126
 31
0.0
  0
LINE
  5
312
  8
0
  6
CONTINUOUS
 62
     7
 10
197.4512414665
 20
319.9541643126
 30
0.0
 11
197.4512414665
 21
321.3248208577
 31
0.0
  0
LINE
  5
313
  8
0
  6
CONTINUOUS
 62
     7
 10
194.4512414665
 20
382.9901503758
 30
0.0
 11
197.4512414665
 21
382.9901503758
 31
0.0
  0
LINE
  5
314
  8
0
  6
CONTINUOUS
 62
     7
 10
197.4512414665
 20
377.8735856667
 30
0.0
 11
197.4512414665
 21
382.9901503758
 31
0.0
  0
LINE
  5
315
  8
0
  6
CONTINUOUS
 62
     7
 10
194.4512414665
 20
314.8375996035
 30
0.0
 11
197.4512414665
 21
314.8375996035
 31
0.0
  0
LINE
  5
316
  8
0
  6
CONTINUOUS
 62
     7
 10
197.4512414665
 20
314.8375996035
 30
0.0
 11
197.4512414665
 21
319.9541643126
 31
0.0
  0
LINE
  5
317
  8
0
  6
CONTINUOUS
 62
     7
 10
194.4512414665
 20
391.4138749896
 30
0.0
 11
197.4512414665
 21
391.4138749896
 31
0.0
  0
LINE
  5
318
  8
0
  6
CONTINUOUS
 62
     7
 10
197.4512414665
 20
382.9901503758
 30
0.0
 11
197.4512414665
 21
391.4138749896
 31
0.0
  0
LINE
  5
319
  8
0
  6
CONTINUOUS
 62
     7
 10
194.4512414665
 20
306.4138749896
 30
0.0
 11
197.4512414665
 21
306.4138749896
 31
0.0
  0
LINE
  5
31A
  8
0
  6
CONTINUOUS
 62
     7
 10
197.4512414665
 20
306.4138749896
 30
0.0
 11
197.4512414665
 21
314.8375996035
 31
0.0
  0
LINE
  5
31B
  8
0
  6
CONTINUOUS
 62
     7
 10
197.4512414665
 20
371.6512890906
 30
0.0
 11
284.4512414665
 21
371.6512890906
 31
0.0
  0
LINE
  5
31C
  8
0
  6
CONTINUOUS
 62
     7
 10
197.4512414665
 20
376.5029291216
 30
0.0
 11
284.4512414665
 21
376.5029291216
 31
0.0
  0
LINE
  5
31D
  8
0
  6
CONTINUOUS
 62
     7
 10
197.4512414665
 20
326.1764608886
 30
0.0
 11
284.4512414665
 21
326.1764608886
 31
0.0
  0
LINE
  5
31E
  8
0
  6
CONTINUOUS
 62
     7
 10
197.4512414665
 20
321.3248208577
 30
0.0
 11
284.4512414665
 21
321.3248208577
 31
0.0
  0
LINE
  5
31F
  8
0
  6
CONTINUOUS
 62
     7
 10
197.4512414665
 20
377.8735856667
 30
0.0
 11
284.4512414665
 21
377.8735856667
 31
0.0
  0
LINE
  5
320
  8
0
  6
CONTINUOUS
 62
     7
 10
197.4512414665
 20
319.9541643126
 30
0.0
 11
284.4512414665
 21
319.9541643126
 31
0.0
  0
LINE
  5
321
  8
0
  6
CONTINUOUS
 62
     7
 10
197.4512414665
 20
382.9901503758
 30
0.0
 11
284.4512414665
 21
382.9901503758
 31
0.0
  0
LINE
  5
322
  8
0
  6
CONTINUOUS
 62
     7
 10
197.4512414665
 20
314.8375996035
 30
0.0
 11
284.4512414665
 21
314.8375996035
 31
0.0
  0
LINE
  5
323
  8
0
  6
CONTINUOUS
 62
     7
 10
197.4512414665
 20
391.4138749896
 30
0.0
 11
284.4512414665
 21
391.4138749896
 31
0.0
  0
LINE
  5
324
  8
0
  6
CONTINUOUS
 62
     7
 10
197.4512414665
 20
306.4138749896
 30
0.0
 11
284.4512414665
 21
306.4138749896
 31
0.0
  0
LINE
  5
325
  8
0
  6
CONTINUOUS
 62
     7
 10
211.6512414665
 20
400.8754007993
 30
0.0
 11
195.4512414665
 21
400.8754007993
 31
0.0
  0
LINE
  5
326
  8
0
  6
CONTINUOUS
 62
     7
 10
195.4512414665
 20
400.8754007993
 30
0.0
 11
195.4512414665
 21
402.4138749896
 31
0.0
  0
LINE
  5
327
  8
0
  6
CONTINUOUS
 62
     7
 10
211.6512414665
 20
402.4138749896
 30
0.0
 11
211.6512414665
 21
400.8754007993
 31
0.0
  0
POLYLINE
  5
328
  8
0
  6
CONTINUOUS
 62
     7
 66
     1
 10
0.0
 20
0.0
 30
0.0
 70
   128
  0
VERTEX
  5
4CD
  8
0
  6
CONTINUOUS
 62
     7
 10
199.2012414665
 20
402.4138749896
 30
0.0
  0
VERTEX
  5
4CE
  8
0
  6
CONTINUOUS
 62
     7
 10
199.4958740454
 20
402.3888128077
 30
0.0
  0
VERTEX
  5
4CF
  8
0
  6
CONTINUOUS
 62
     7
 10
200.345970309
 20
402.324564781
 30
0.0
  0
VERTEX
  5
4D0
  8
0
  6
CONTINUOUS
 62
     7
 10
201.6594636026
 20
402.2489109104
 30
0.0
  0
VERTEX
  5
4D1
  8
0
  6
CONTINUOUS
 62
     7
 10
203.2908053486
 20
402.1950100741
 30
0.0
  0
VERTEX
  5
4D2
  8
0
  6
CONTINUOUS
 62
     7
 10
205.0494998486
 20
402.1867401802
 30
0.0
  0
VERTEX
  5
4D3
  8
0
  6
CONTINUOUS
 62
     7
 10
206.7360397442
 20
402.2274002425
 30
0.0
  0
VERTEX
  5
4D4
  8
0
  6
CONTINUOUS
 62
     7
 10
208.1680200903
 20
402.2991982612
 30
0.0
  0
VERTEX
  5
4D5
  8
0
  6
CONTINUOUS
 62
     7
 10
209.1860767841
 20
402.3709943791
 30
0.0
  0
VERTEX
  5
4D6
  8
0
  6
CONTINUOUS
 62
     7
 10
209.6700831183
 20
402.4111566629
 30
0.0
  0
VERTEX
  5
4D7
  8
0
  6
CONTINUOUS
 62
     7
 10
209.6361596633
 20
402.4082351142
 30
0.0
  0
SEQEND
  5
549
  8
0
  6
CONTINUOUS
 62
     7
  0
LINE
  5
329
  8
0
  6
CONTINUOUS
 62
     7
 10
223.9512414665
 20
396.3813204722
 30
0.0
 11
223.9512414665
 21
395.6570180528
 31
0.0
  0
POLYLINE
  5
32A
  8
0
  6
CONTINUOUS
 62
     7
 66
     1
 10
0.0
 20
0.0
 30
0.0
 70
   128
  0
VERTEX
  5
4D8
  8
0
  6
CONTINUOUS
 62
     7
 10
219.9512414665
 20
396.8266203115
 30
0.0
  0
VERTEX
  5
4D9
  8
0
  6
CONTINUOUS
 62
     7
 10
221.3104035346
 20
396.218062797
 30
0.0
  0
VERTEX
  5
4DA
  8
0
  6
CONTINUOUS
 62
     7
 10
222.5589216371
 20
395.7694572059
 30
0.0
  0
VERTEX
  5
4DB
  8
0
  6
CONTINUOUS
 62
     7
 10
223.4230537272
 20
395.5617505623
 30
0.0
  0
VERTEX
  5
4DC
  8
0
  6
CONTINUOUS
 62
     7
 10
223.8674945602
 20
395.5615522172
 30
0.0
  0
VERTEX
  5
4DD
  8
0
  6
CONTINUOUS
 62
     7
 10
223.9512414665
 20
395.6570180528
 30
0.0
  0
SEQEND
  5
54A
  8
0
  6
CONTINUOUS
 62
     7
  0
LINE
  5
32B
  8
0
  6
CONTINUOUS
 62
     7
 10
219.9512414665
 20
396.8266203115
 30
0.0
 11
211.6512414665
 21
400.8754007993
 31
0.0
  0
LINE
  5
32C
  8
0
  6
CONTINUOUS
 62
     7
 10
195.4512414665
 20
400.8754007993
 30
0.0
 11
195.4512414665
 21
391.4138749896
 31
0.0
  0
LINE
  5
32D
  8
0
  6
CONTINUOUS
 62
     7
 10
219.9512414665
 20
391.4138749896
 30
0.0
 11
219.9512414665
 21
396.8266203115
 31
0.0
  0
LINE
  5
32E
  8
0
  6
CONTINUOUS
 62
     7
 10
223.9512414665
 20
395.6570180528
 30
0.0
 11
223.9512414665
 21
391.4138749896
 31
0.0
  0
LINE
  5
32F
  8
0
  6
CONTINUOUS
 62
     7
 10
209.7012414665
 20
404.4138749896
 30
0.0
 11
199.2012414665
 21
404.4138749896
 31
0.0
  0
LINE
  5
330
  8
0
  6
CONTINUOUS
 62
     7
 10
171.4512414665
 20
400.9886135721
 30
0.0
 11
159.4512414665
 21
400.9886135721
 31
0.0
  0
LINE
  5
331
  8
0
  6
CONTINUOUS
 62
     7
 10
159.4512414665
 20
400.9886135721
 30
0.0
 11
159.4512414665
 21
402.4138749896
 31
0.0
  0
LINE
  5
332
  8
0
  6
CONTINUOUS
 62
     7
 10
171.4512414665
 20
400.9886135721
 30
0.0
 11
171.4512414665
 21
402.4138749896
 31
0.0
  0
POLYLINE
  5
333
  8
0
  6
CONTINUOUS
 62
     7
 66
     1
 10
0.0
 20
0.0
 30
0.0
 70
   128
  0
VERTEX
  5
4DE
  8
0
  6
CONTINUOUS
 62
     7
 10
160.4512414665
 20
402.4138749896
 30
0.0
  0
VERTEX
  5
4DF
  8
0
  6
CONTINUOUS
 62
     7
 10
160.7319600346
 20
402.391134157
 30
0.0
  0
VERTEX
  5
4E0
  8
0
  6
CONTINUOUS
 62
     7
 10
161.5419621585
 20
402.3328408077
 30
0.0
  0
VERTEX
  5
4E1
  8
0
  6
CONTINUOUS
 62
     7
 10
162.7931917183
 20
402.2642319515
 30
0.0
  0
VERTEX
  5
4E2
  8
0
  6
CONTINUOUS
 62
     7
 10
164.3467689787
 20
402.2153788125
 30
0.0
  0
VERTEX
  5
4E3
  8
0
  6
CONTINUOUS
 62
     7
 10
166.0218603349
 20
402.2079014964
 30
0.0
  0
VERTEX
  5
4E4
  8
0
  6
CONTINUOUS
 62
     7
 10
167.6285576159
 20
402.2448093431
 30
0.0
  0
VERTEX
  5
4E5
  8
0
  6
CONTINUOUS
 62
     7
 10
168.9924035233
 20
402.3099502259
 30
0.0
  0
VERTEX
  5
4E6
  8
0
  6
CONTINUOUS
 62
     7
 10
169.9614262853
 20
402.3750438166
 30
0.0
  0
VERTEX
  5
4E7
  8
0
  6
CONTINUOUS
 62
     7
 10
170.42175518
 20
402.4114249944
 30
0.0
  0
VERTEX
  5
4E8
  8
0
  6
CONTINUOUS
 62
     7
 10
170.3893432559
 20
402.4087666476
 30
0.0
  0
SEQEND
  5
54B
  8
0
  6
CONTINUOUS
 62
     7
  0
LINE
  5
334
  8
0
  6
CONTINUOUS
 62
     7
 10
171.4512414665
 20
400.9886135721
 30
0.0
 11
171.4512414665
 21
391.4138749896
 31
0.0
  0
LINE
  5
335
  8
0
  6
CONTINUOUS
 62
     7
 10
159.4512414665
 20
400.9886135721
 30
0.0
 11
159.4512414665
 21
391.4138749896
 31
0.0
  0
LINE
  5
336
  8
0
  6
CONTINUOUS
 62
     7
 10
170.4512414665
 20
404.4138749896
 30
0.0
 11
160.4512414665
 21
404.4138749896
 31
0.0
  0
LINE
  5
337
  8
0
  6
CONTINUOUS
 62
     7
 10
138.3512414665
 20
400.9886135721
 30
0.0
 11
126.3512414665
 21
400.9886135721
 31
0.0
  0
POLYLINE
  5
338
  8
0
  6
CONTINUOUS
 62
     7
 66
     1
 10
0.0
 20
0.0
 30
0.0
 70
   128
  0
VERTEX
  5
4E9
  8
0
  6
CONTINUOUS
 62
     7
 10
127.3512414665
 20
402.4138749896
 30
0.0
  0
VERTEX
  5
4EA
  8
0
  6
CONTINUOUS
 62
     7
 10
127.6319600346
 20
402.391134157
 30
0.0
  0
VERTEX
  5
4EB
  8
0
  6
CONTINUOUS
 62
     7
 10
128.4419621585
 20
402.3328408077
 30
0.0
  0
VERTEX
  5
4EC
  8
0
  6
CONTINUOUS
 62
     7
 10
129.6931917183
 20
402.2642319515
 30
0.0
  0
VERTEX
  5
4ED
  8
0
  6
CONTINUOUS
 62
     7
 10
131.2467689787
 20
402.2153788125
 30
0.0
  0
VERTEX
  5
4EE
  8
0
  6
CONTINUOUS
 62
     7
 10
132.9218603349
 20
402.2079014964
 30
0.0
  0
VERTEX
  5
4EF
  8
0
  6
CONTINUOUS
 62
     7
 10
134.5285576159
 20
402.2448093431
 30
0.0
  0
VERTEX
  5
4F0
  8
0
  6
CONTINUOUS
 62
     7
 10
135.8924035233
 20
402.3099502259
 30
0.0
  0
VERTEX
  5
4F1
  8
0
  6
CONTINUOUS
 62
     7
 10
136.8614262853
 20
402.3750438166
 30
0.0
  0
VERTEX
  5
4F2
  8
0
  6
CONTINUOUS
 62
     7
 10
137.32175518
 20
402.4114249944
 30
0.0
  0
VERTEX
  5
4F3
  8
0
  6
CONTINUOUS
 62
     7
 10
137.2893432559
 20
402.4087666476
 30
0.0
  0
SEQEND
  5
54C
  8
0
  6
CONTINUOUS
 62
     7
  0
LINE
  5
339
  8
0
  6
CONTINUOUS
 62
     7
 10
126.3512414665
 20
400.9886135721
 30
0.0
 11
126.3512414665
 21
402.4138749896
 31
0.0
  0
LINE
  5
33A
  8
0
  6
CONTINUOUS
 62
     7
 10
138.3512414665
 20
400.9886135721
 30
0.0
 11
138.3512414665
 21
402.4138749896
 31
0.0
  0
LINE
  5
33B
  8
0
  6
CONTINUOUS
 62
     7
 10
126.3512414665
 20
400.9886135721
 30
0.0
 11
126.3512414665
 21
391.4138749896
 31
0.0
  0
LINE
  5
33C
  8
0
  6
CONTINUOUS
 62
     7
 10
138.3512414665
 20
400.9886135721
 30
0.0
 11
138.3512414665
 21
391.4138749896
 31
0.0
  0
LINE
  5
33D
  8
0
  6
CONTINUOUS
 62
     7
 10
137.3512414665
 20
404.4138749896
 30
0.0
 11
127.3512414665
 21
404.4138749896
 31
0.0
  0
LINE
  5
33E
  8
0
  6
CONTINUOUS
 62
     7
 10
298.4512414665
 20
506.6757084992
 30
0.0
 11
301.4512414665
 21
506.6757084992
 31
0.0
  0
LINE
  5
33F
  8
0
  6
CONTINUOUS
 62
     7
 10
301.4512414665
 20
566.6757084992
 30
0.0
 11
298.4512414665
 21
566.6757084992
 31
0.0
  0
LINE
  5
340
  8
0
  6
CONTINUOUS
 62
     7
 10
335.4512414665
 20
544.6757084992
 30
0.0
 11
301.4512414665
 21
544.6757084992
 31
0.0
  0
LINE
  5
341
  8
0
  6
CONTINUOUS
 62
     7
 10
301.4512414665
 20
528.6757084992
 30
0.0
 11
335.4512414665
 21
528.6757084992
 31
0.0
  0
ARC
  5
342
  8
0
  6
CONTINUOUS
 62
     7
 10
320.9041620353
 20
536.6757084992
 30
0.0
 40
200.0
 50
190.8069228749
 51
192.268898996
  0
ARC
  5
343
  8
0
  6
CONTINUOUS
 62
     7
 10
320.9041620353
 20
536.6757084992
 30
0.0
 40
200.0000000000001
 50
167.731101004
 51
169.1930771251
  0
LINE
  5
344
  8
0
  6
CONTINUOUS
 62
     7
 10
204.1512414665
 20
552.7757084992
 30
0.0
 11
204.1512414665
 21
553.8757084992
 31
0.0
  0
LINE
  5
345
  8
0
  6
CONTINUOUS
 62
     7
 10
197.1512414665
 20
553.8757084992
 30
0.0
 11
197.1512414665
 21
552.7757084992
 31
0.0
  0
LINE
  5
346
  8
0
  6
CONTINUOUS
 62
     7
 10
204.1512414665
 20
550.1757084992
 30
0.0
 11
204.1512414665
 21
552.7757084992
 31
0.0
  0
LINE
  5
347
  8
0
  6
CONTINUOUS
 62
     7
 10
197.1512414665
 20
552.7757084992
 30
0.0
 11
197.1512414665
 21
550.1757084992
 31
0.0
  0
LINE
  5
348
  8
0
  6
CONTINUOUS
 62
     7
 10
212.6512414665
 20
550.1757084992
 30
0.0
 11
212.6512414665
 21
550.4757084992
 31
0.0
  0
LINE
  5
349
  8
0
  6
CONTINUOUS
 62
     7
 10
206.6512414665
 20
550.4757084992
 30
0.0
 11
206.6512414665
 21
550.1757084992
 31
0.0
  0
CIRCLE
  5
34A
  8
0
  6
CONTINUOUS
 62
     7
 10
204.4512414665
 20
536.6757084992
 30
0.0
 40
4.0
  0
CIRCLE
  5
34B
  8
0
  6
CONTINUOUS
 62
     7
 10
165.4512414665
 20
536.6757084992
 30
0.0
 40
3.0
  0
CIRCLE
  5
34C
  8
0
  6
CONTINUOUS
 62
     7
 10
132.3512414665
 20
536.6757084992
 30
0.0
 40
3.0
  0
ARC
  5
34D
  8
0
  6
CONTINUOUS
 62
     7
 10
469.5509461299
 20
544.7100497562
 30
0.0
 40
187.1182030704993
 50
170.3119786612
 51
171.5766470985
  0
LINE
  5
34E
  8
0
  6
CONTINUOUS
 62
     7
 10
285.1012969169
 20
579.1757084992
 30
0.0
 11
285.1012969169
 21
576.1989180362
 31
0.0
  0
LINE
  5
34F
  8
0
  6
CONTINUOUS
 62
     7
 10
286.8076194165
 20
579.1757084992
 30
0.0
 11
285.1012969169
 21
579.1757084992
 31
0.0
  0
POLYLINE
  5
350
  8
0
  6
CONTINUOUS
 62
     7
 66
     1
 10
0.0
 20
0.0
 30
0.0
 70
   128
  0
VERTEX
  5
4F4
  8
0
  6
CONTINUOUS
 62
     7
 10
286.8076194165
 20
570.9757084992
 30
0.0
  0
VERTEX
  5
4F5
  8
0
  6
CONTINUOUS
 62
     7
 10
287.0284719487
 20
572.3266866477
 30
0.0
  0
VERTEX
  5
4F6
  8
0
  6
CONTINUOUS
 62
     7
 10
287.20451357
 20
573.6470263595
 30
0.0
  0
VERTEX
  5
4F7
  8
0
  6
CONTINUOUS
 62
     7
 10
287.3294239597
 20
574.8993685772
 30
0.0
  0
VERTEX
  5
4F8
  8
0
  6
CONTINUOUS
 62
     7
 10
287.3994891679
 20
576.0461322495
 30
0.0
  0
VERTEX
  5
4F9
  8
0
  6
CONTINUOUS
 62
     7
 10
287.4116678638
 20
577.0349628836
 30
0.0
  0
VERTEX
  5
4FA
  8
0
  6
CONTINUOUS
 62
     7
 10
287.3680686125
 20
577.8601683658
 30
0.0
  0
VERTEX
  5
4FB
  8
0
  6
CONTINUOUS
 62
     7
 10
287.2703875811
 20
578.4917380644
 30
0.0
  0
VERTEX
  5
4FC
  8
0
  6
CONTINUOUS
 62
     7
 10
287.1224838551
 20
578.9238881666
 30
0.0
  0
VERTEX
  5
4FD
  8
0
  6
CONTINUOUS
 62
     7
 10
286.8076194165
 20
579.1757084992
 30
0.0
  0
SEQEND
  5
54D
  8
0
  6
CONTINUOUS
 62
     7
  0
ARC
  5
351
  8
0
  6
CONTINUOUS
 62
     7
 10
479.2063200359
 20
536.6757084992
 30
0.0
 40
195.4322133119308
 50
169.8917533355
 51
171.8812367166
  0
ARC
  5
352
  8
0
  6
CONTINUOUS
 62
     7
 10
295.130058135
 20
576.7163624483
 30
0.0
 40
15.59094935833578
 50
226.7693543648
 51
232.9339067285
  0
LINE
  5
353
  8
0
  6
CONTINUOUS
 62
     7
 10
284.4512414665
 20
565.3567596183
 30
0.0
 11
284.4512414665
 21
565.6760431617
 31
0.0
  0
POLYLINE
  5
354
  8
0
  6
CONTINUOUS
 62
     7
 66
     1
 10
0.0
 20
0.0
 30
0.0
 70
   128
  0
VERTEX
  5
4FE
  8
0
  6
CONTINUOUS
 62
     7
 10
284.4512414665
 20
565.6760431617
 30
0.0
  0
VERTEX
  5
4FF
  8
0
  6
CONTINUOUS
 62
     7
 10
284.6536372587
 20
565.7759965955
 30
0.0
  0
VERTEX
  5
500
  8
0
  6
CONTINUOUS
 62
     7
 10
284.880476938
 20
566.0470915505
 30
0.0
  0
VERTEX
  5
501
  8
0
  6
CONTINUOUS
 62
     7
 10
285.3810658698
 20
567.0634362111
 30
0.0
  0
VERTEX
  5
502
  8
0
  6
CONTINUOUS
 62
     7
 10
285.6456776768
 20
567.792354851
 30
0.0
  0
VERTEX
  5
503
  8
0
  6
CONTINUOUS
 62
     7
 10
285.907143937
 20
568.6368681128
 30
0.0
  0
VERTEX
  5
504
  8
0
  6
CONTINUOUS
 62
     7
 10
286.1596010292
 20
569.5817045973
 30
0.0
  0
VERTEX
  5
505
  8
0
  6
CONTINUOUS
 62
     7
 10
286.3939222707
 20
570.5937680731
 30
0.0
  0
VERTEX
  5
506
  8
0
  6
CONTINUOUS
 62
     7
 10
286.5998013221
 20
571.6298290282
 30
0.0
  0
VERTEX
  5
507
  8
0
  6
CONTINUOUS
 62
     7
 10
286.7743902573
 20
572.6727321261
 30
0.0
  0
VERTEX
  5
508
  8
0
  6
CONTINUOUS
 62
     7
 10
286.9078300832
 20
573.661635957
 30
0.0
  0
VERTEX
  5
509
  8
0
  6
CONTINUOUS
 62
     7
 10
287.0016172349
 20
574.5971723648
 30
0.0
  0
VERTEX
  5
50A
  8
0
  6
CONTINUOUS
 62
     7
 10
287.0580212705
 20
576.1500399841
 30
0.0
  0
VERTEX
  5
50B
  8
0
  6
CONTINUOUS
 62
     7
 10
286.9485104721
 20
577.1964611928
 30
0.0
  0
VERTEX
  5
50C
  8
0
  6
CONTINUOUS
 62
     7
 10
286.6890137166
 20
577.6579025772
 30
0.0
  0
VERTEX
  5
50D
  8
0
  6
CONTINUOUS
 62
     7
 10
286.3023258997
 20
577.4863131204
 30
0.0
  0
VERTEX
  5
50E
  8
0
  6
CONTINUOUS
 62
     7
 10
285.8218649039
 20
576.6678129554
 30
0.0
  0
VERTEX
  5
50F
  8
0
  6
CONTINUOUS
 62
     7
 10
285.5598544064
 20
576.0240489854
 30
0.0
  0
VERTEX
  5
510
  8
0
  6
CONTINUOUS
 62
     7
 10
285.2971019106
 20
575.2529267343
 30
0.0
  0
VERTEX
  5
511
  8
0
  6
CONTINUOUS
 62
     7
 10
285.037940449
 20
574.3629911823
 30
0.0
  0
VERTEX
  5
512
  8
0
  6
CONTINUOUS
 62
     7
 10
284.7928845154
 20
573.3889852809
 30
0.0
  0
VERTEX
  5
513
  8
0
  6
CONTINUOUS
 62
     7
 10
284.4512414665
 20
571.739079143
 30
0.0
  0
SEQEND
  5
54E
  8
0
  6
CONTINUOUS
 62
     7
  0
LINE
  5
355
  8
0
  6
CONTINUOUS
 62
     7
 10
284.4512414665
 20
571.739079143
 30
0.0
 11
284.4512414665
 21
572.1202897016
 31
0.0
  0
LINE
  5
356
  8
0
  6
CONTINUOUS
 62
     7
 10
286.8076194165
 20
579.1757084992
 30
0.0
 11
298.4512414665
 21
579.1757084992
 31
0.0
  0
LINE
  5
357
  8
0
  6
CONTINUOUS
 62
     7
 10
298.4512414665
 20
570.9757084992
 30
0.0
 11
286.8076194165
 21
570.9757084992
 31
0.0
  0
LINE
  5
358
  8
0
  6
CONTINUOUS
 62
     7
 10
298.4512414665
 20
579.1757084992
 30
0.0
 11
298.4512414665
 21
570.9757084992
 31
0.0
  0
LINE
  5
359
  8
0
  6
CONTINUOUS
 62
     7
 10
285.7328334802
 20
509.0757084992
 30
0.0
 11
284.4512414665
 21
509.0757084992
 31
0.0
  0
LINE
  5
35A
  8
0
  6
CONTINUOUS
 62
     7
 10
285.7328334802
 20
564.2757084992
 30
0.0
 11
284.4512414665
 21
564.2757084992
 31
0.0
  0
LINE
  5
35B
  8
0
  6
CONTINUOUS
 62
     7
 10
286.8076194165
 20
502.3757084992
 30
0.0
 11
298.4512414665
 21
502.3757084992
 31
0.0
  0
ARC
  5
35C
  8
0
  6
CONTINUOUS
 62
     7
 10
479.2063200359
 20
536.6757084992
 30
0.0
 40
195.4322133119308
 50
188.1187632834
 51
190.1082466645
  0
LINE
  5
35D
  8
0
  6
CONTINUOUS
 62
     7
 10
298.4512414665
 20
502.3757084992
 30
0.0
 11
298.4512414665
 21
570.9757084992
 31
0.0
  0
LINE
  5
35E
  8
0
  6
CONTINUOUS
 62
     7
 10
284.4512414665
 20
509.0757084992
 30
0.0
 11
284.4512414665
 21
564.2757084992
 31
0.0
  0
LINE
  5
35F
  8
0
  6
CONTINUOUS
 62
     7
 10
284.4512414665
 20
564.2757084992
 30
0.0
 11
284.4512414665
 21
565.3567596183
 31
0.0
  0
ARC
  5
360
  8
0
  6
CONTINUOUS
 62
     7
 10
295.130058135
 20
496.6350545501
 30
0.0
 40
15.59094935836237
 50
127.0660932715
 51
133.2306456352
  0
LINE
  5
361
  8
0
  6
CONTINUOUS
 62
     7
 10
284.4512414665
 20
507.99465738
 30
0.0
 11
284.4512414665
 21
509.0757084992
 31
0.0
  0
POLYLINE
  5
362
  8
0
  6
CONTINUOUS
 62
     7
 66
     1
 10
0.0
 20
0.0
 30
0.0
 70
   128
  0
VERTEX
  5
514
  8
0
  6
CONTINUOUS
 62
     7
 10
286.8076194165
 20
494.1757084992
 30
0.0
  0
VERTEX
  5
515
  8
0
  6
CONTINUOUS
 62
     7
 10
287.0284719487
 20
494.2885728864
 30
0.0
  0
VERTEX
  5
516
  8
0
  6
CONTINUOUS
 62
     7
 10
287.20451357
 20
494.6230276152
 30
0.0
  0
VERTEX
  5
517
  8
0
  6
CONTINUOUS
 62
     7
 10
287.3294239597
 20
495.1763751862
 30
0.0
  0
VERTEX
  5
518
  8
0
  6
CONTINUOUS
 62
     7
 10
287.3994891679
 20
495.9312688034
 30
0.0
  0
VERTEX
  5
519
  8
0
  6
CONTINUOUS
 62
     7
 10
287.4116678638
 20
496.851986616
 30
0.0
  0
VERTEX
  5
51A
  8
0
  6
CONTINUOUS
 62
     7
 10
287.3680686125
 20
497.9210241843
 30
0.0
  0
VERTEX
  5
51B
  8
0
  6
CONTINUOUS
 62
     7
 10
287.2703875811
 20
499.0990525026
 30
0.0
  0
VERTEX
  5
51C
  8
0
  6
CONTINUOUS
 62
     7
 10
287.1224838551
 20
500.3591669117
 30
0.0
  0
VERTEX
  5
51D
  8
0
  6
CONTINUOUS
 62
     7
 10
286.8076194165
 20
502.3757084992
 30
0.0
  0
SEQEND
  5
54F
  8
0
  6
CONTINUOUS
 62
     7
  0
LINE
  5
363
  8
0
  6
CONTINUOUS
 62
     7
 10
285.1012969169
 20
494.1757084992
 30
0.0
 11
286.8076194165
 21
494.1757084992
 31
0.0
  0
LINE
  5
364
  8
0
  6
CONTINUOUS
 62
     7
 10
285.1012969169
 20
497.1524989622
 30
0.0
 11
285.1012969169
 21
494.1757084992
 31
0.0
  0
ARC
  5
365
  8
0
  6
CONTINUOUS
 62
     7
 10
469.5509461301
 20
528.6413672422
 30
0.0
 40
187.1182030707239
 50
188.4233529015
 51
189.6880213388
  0
POLYLINE
  5
366
  8
0
  6
CONTINUOUS
 62
     7
 66
     1
 10
0.0
 20
0.0
 30
0.0
 70
   128
  0
VERTEX
  5
51E
  8
0
  6
CONTINUOUS
 62
     7
 10
284.4512414665
 20
501.6123378554
 30
0.0
  0
VERTEX
  5
51F
  8
0
  6
CONTINUOUS
 62
     7
 10
284.6536372587
 20
500.586666706
 30
0.0
  0
VERTEX
  5
520
  8
0
  6
CONTINUOUS
 62
     7
 10
284.880476938
 20
499.5975672033
 30
0.0
  0
VERTEX
  5
521
  8
0
  6
CONTINUOUS
 62
     7
 10
285.3810658698
 20
497.8381383902
 30
0.0
  0
VERTEX
  5
522
  8
0
  6
CONTINUOUS
 62
     7
 10
285.6456776768
 20
497.1026868468
 30
0.0
  0
VERTEX
  5
523
  8
0
  6
CONTINUOUS
 62
     7
 10
285.907143937
 20
496.5021749769
 30
0.0
  0
VERTEX
  5
524
  8
0
  6
CONTINUOUS
 62
     7
 10
286.1596010292
 20
496.0536549829
 30
0.0
  0
VERTEX
  5
525
  8
0
  6
CONTINUOUS
 62
     7
 10
286.3939222707
 20
495.774064244
 30
0.0
  0
VERTEX
  5
526
  8
0
  6
CONTINUOUS
 62
     7
 10
286.5998013221
 20
495.6765631773
 30
0.0
  0
VERTEX
  5
527
  8
0
  6
CONTINUOUS
 62
     7
 10
286.7743902573
 20
495.7591263872
 30
0.0
  0
VERTEX
  5
528
  8
0
  6
CONTINUOUS
 62
     7
 10
286.9078300832
 20
496.0146225576
 30
0.0
  0
VERTEX
  5
529
  8
0
  6
CONTINUOUS
 62
     7
 10
287.0016172349
 20
496.4349977762
 30
0.0
  0
VERTEX
  5
52A
  8
0
  6
CONTINUOUS
 62
     7
 10
287.0580212705
 20
497.6781645328
 30
0.0
  0
VERTEX
  5
52B
  8
0
  6
CONTINUOUS
 62
     7
 10
286.9485104721
 20
499.3259660248
 30
0.0
  0
VERTEX
  5
52C
  8
0
  6
CONTINUOUS
 62
     7
 10
286.6890137166
 20
501.2138058976
 30
0.0
  0
VERTEX
  5
52D
  8
0
  6
CONTINUOUS
 62
     7
 10
286.3023258997
 20
503.1713267444
 30
0.0
  0
VERTEX
  5
52E
  8
0
  6
CONTINUOUS
 62
     7
 10
285.8218649039
 20
505.0042056222
 30
0.0
  0
VERTEX
  5
52F
  8
0
  6
CONTINUOUS
 62
     7
 10
285.5598544064
 20
505.8091147807
 30
0.0
  0
VERTEX
  5
530
  8
0
  6
CONTINUOUS
 62
     7
 10
285.2971019106
 20
506.4927106476
 30
0.0
  0
VERTEX
  5
531
  8
0
  6
CONTINUOUS
 62
     7
 10
285.037940449
 20
507.0395698711
 30
0.0
  0
VERTEX
  5
532
  8
0
  6
CONTINUOUS
 62
     7
 10
284.7928845154
 20
507.4258982934
 30
0.0
  0
VERTEX
  5
533
  8
0
  6
CONTINUOUS
 62
     7
 10
284.4512414665
 20
507.6753738366
 30
0.0
  0
SEQEND
  5
550
  8
0
  6
CONTINUOUS
 62
     7
  0
LINE
  5
367
  8
0
  6
CONTINUOUS
 62
     7
 10
284.4512414665
 20
507.6753738366
 30
0.0
 11
284.4512414665
 21
507.99465738
 31
0.0
  0
LINE
  5
368
  8
0
  6
CONTINUOUS
 62
     7
 10
284.4512414665
 20
501.2311272967
 30
0.0
 11
284.4512414665
 21
501.6123378554
 31
0.0
  0
LINE
  5
369
  8
0
  6
CONTINUOUS
 62
     7
 10
298.4512414665
 20
494.1757084992
 30
0.0
 11
286.8076194165
 21
494.1757084992
 31
0.0
  0
LINE
  5
36A
  8
0
  6
CONTINUOUS
 62
     7
 10
298.4512414665
 20
502.3757084992
 30
0.0
 11
298.4512414665
 21
494.1757084992
 31
0.0
  0
LINE
  5
36B
  8
0
  6
CONTINUOUS
 62
     7
 10
284.4512414665
 20
571.739079143
 30
0.0
 11
284.4512414665
 21
565.6760431617
 31
0.0
  0
LINE
  5
36C
  8
0
  6
CONTINUOUS
 62
     7
 10
284.4512414665
 20
507.6753738366
 30
0.0
 11
284.4512414665
 21
501.6123378554
 31
0.0
  0
LINE
  5
36D
  8
0
  6
CONTINUOUS
 62
     7
 10
301.4512414665
 20
506.6757084992
 30
0.0
 11
301.4512414665
 21
566.6757084992
 31
0.0
  0
LINE
  5
36E
  8
0
  6
CONTINUOUS
 62
     7
 10
285.1012969169
 20
576.1989180362
 30
0.0
 11
284.4512414665
 21
576.1989180362
 31
0.0
  0
LINE
  5
36F
  8
0
  6
CONTINUOUS
 62
     7
 10
284.4512414665
 20
572.1202897016
 30
0.0
 11
284.4512414665
 21
576.1989180362
 31
0.0
  0
LINE
  5
370
  8
0
  6
CONTINUOUS
 62
     7
 10
285.1012969169
 20
497.1524989622
 30
0.0
 11
284.4512414665
 21
497.1524989622
 31
0.0
  0
LINE
  5
371
  8
0
  6
CONTINUOUS
 62
     7
 10
284.4512414665
 20
497.1524989622
 30
0.0
 11
284.4512414665
 21
501.2311272967
 31
0.0
  0
LINE
  5
372
  8
0
  6
CONTINUOUS
 62
     7
 10
285.1012969169
 20
579.1757084992
 30
0.0
 11
284.4512414665
 21
579.1757084992
 31
0.0
  0
LINE
  5
373
  8
0
  6
CONTINUOUS
 62
     7
 10
284.4512414665
 20
576.1989180362
 30
0.0
 11
284.4512414665
 21
579.1757084992
 31
0.0
  0
LINE
  5
374
  8
0
  6
CONTINUOUS
 62
     7
 10
285.1012969169
 20
494.1757084992
 30
0.0
 11
284.4512414665
 21
494.1757084992
 31
0.0
  0
LINE
  5
375
  8
0
  6
CONTINUOUS
 62
     7
 10
284.4512414665
 20
494.1757084992
 30
0.0
 11
284.4512414665
 21
497.1524989622
 31
0.0
  0
LINE
  5
376
  8
0
  6
CONTINUOUS
 62
     7
 10
335.4512414665
 20
544.6757084992
 30
0.0
 11
335.4512414665
 21
528.6757084992
 31
0.0
  0
LINE
  5
377
  8
0
  6
CONTINUOUS
 62
     7
 10
125.4719487233
 20
579.1757084992
 30
0.0
 11
126.7991389163
 21
579.1757084992
 31
0.0
  0
LINE
  5
378
  8
0
  6
CONTINUOUS
 62
     7
 10
126.7991389163
 20
579.1757084992
 30
0.0
 11
126.7991389163
 21
576.1989180362
 31
0.0
  0
ARC
  5
379
  8
0
  6
CONTINUOUS
 62
     7
 10
311.2276539105
 20
544.713462056
 30
0.0
 40
187.0967960207166
 50
170.3119195882
 51
172.1467954868
  0
POLYLINE
  5
37A
  8
0
  6
CONTINUOUS
 62
     7
 66
     1
 10
0.0
 20
0.0
 30
0.0
 70
   128
  0
VERTEX
  5
534
  8
0
  6
CONTINUOUS
 62
     7
 10
125.8855660192
 20
570.2775293637
 30
0.0
  0
VERTEX
  5
535
  8
0
  6
CONTINUOUS
 62
     7
 10
125.6882164613
 20
568.4028126695
 30
0.0
  0
VERTEX
  5
536
  8
0
  6
CONTINUOUS
 62
     7
 10
125.6550994466
 20
566.8716733812
 30
0.0
  0
VERTEX
  5
537
  8
0
  6
CONTINUOUS
 62
     7
 10
125.7886803389
 20
565.8682169406
 30
0.0
  0
VERTEX
  5
538
  8
0
  6
CONTINUOUS
 62
     7
 10
125.9544842692
 20
565.5449065257
 30
0.0
  0
SEQEND
  5
551
  8
0
  6
CONTINUOUS
 62
     7
  0
ARC
  5
37B
  8
0
  6
CONTINUOUS
 62
     7
 10
136.5217677938
 20
576.3425351942
 30
0.0
 40
15.10815230112142
 50
225.6177087515
 51
233.0057964162
  0
ARC
  5
37C
  8
0
  6
CONTINUOUS
 62
     7
 10
320.9041620353
 20
536.6757084992
 30
0.0
 40
195.4322133119308
 50
171.8812367166
 51
188.1187632834
  0
ARC
  5
37D
  8
0
  6
CONTINUOUS
 62
     7
 10
136.5217677939
 20
497.0088818041
 30
0.0
 40
15.10815230115825
 50
126.9942035838
 51
134.3822912485
  0
ARC
  5
37E
  8
0
  6
CONTINUOUS
 62
     7
 10
135.3512282168
 20
505.302858295
 30
0.0
 40
9.724560197945777
 50
165.0808010235
 51
193.2505911451
  0
ARC
  5
37F
  8
0
  6
CONTINUOUS
 62
     7
 10
311.2276539106
 20
528.6379549424
 30
0.0
 40
187.0967960208773
 50
187.8532045132
 51
189.6880804118
  0
LINE
  5
380
  8
0
  6
CONTINUOUS
 62
     7
 10
126.7991389163
 20
497.1524989622
 30
0.0
 11
126.7991389163
 21
494.1757084992
 31
0.0
  0
LINE
  5
381
  8
0
  6
CONTINUOUS
 62
     7
 10
126.7991389163
 20
494.1757084992
 30
0.0
 11
125.4719487233
 21
494.1757084992
 31
0.0
  0
LINE
  5
382
  8
0
  6
CONTINUOUS
 62
     7
 10
124.4512414665
 20
499.1757084992
 30
0.0
 11
124.4512414665
 21
574.1757084992
 31
0.0
  0
LINE
  5
383
  8
0
  6
CONTINUOUS
 62
     7
 10
127.4306754796
 20
564.2757084992
 30
0.0
 11
139.3512414665
 21
564.2757084992
 31
0.0
  0
LINE
  5
384
  8
0
  6
CONTINUOUS
 62
     7
 10
125.9544842692
 20
565.5449065257
 30
0.0
 11
139.3512414665
 21
565.5449065257
 31
0.0
  0
LINE
  5
385
  8
0
  6
CONTINUOUS
 62
     7
 10
139.3512414665
 20
564.2757084992
 30
0.0
 11
139.3512414665
 21
565.5449065257
 31
0.0
  0
LINE
  5
386
  8
0
  6
CONTINUOUS
 62
     7
 10
127.4306754796
 20
509.0757084992
 30
0.0
 11
139.3512414665
 21
509.0757084992
 31
0.0
  0
LINE
  5
387
  8
0
  6
CONTINUOUS
 62
     7
 10
139.3512414665
 20
509.0757084992
 30
0.0
 11
139.3512414665
 21
564.2757084992
 31
0.0
  0
LINE
  5
388
  8
0
  6
CONTINUOUS
 62
     7
 10
125.9544842692
 20
507.8065104726
 30
0.0
 11
139.3512414665
 21
507.8065104726
 31
0.0
  0
LINE
  5
389
  8
0
  6
CONTINUOUS
 62
     7
 10
139.3512414665
 20
507.8065104726
 30
0.0
 11
139.3512414665
 21
509.0757084992
 31
0.0
  0
LINE
  5
38A
  8
0
  6
CONTINUOUS
 62
     7
 10
125.8855660192
 20
503.0738876346
 30
0.0
 11
139.3512414665
 21
503.0738876346
 31
0.0
  0
LINE
  5
38B
  8
0
  6
CONTINUOUS
 62
     7
 10
139.3512414665
 20
503.0738876346
 30
0.0
 11
139.3512414665
 21
507.8065104726
 31
0.0
  0
LINE
  5
38C
  8
0
  6
CONTINUOUS
 62
     7
 10
125.8855660192
 20
570.2775293637
 30
0.0
 11
139.3512414665
 21
570.2775293637
 31
0.0
  0
LINE
  5
38D
  8
0
  6
CONTINUOUS
 62
     7
 10
139.3512414665
 20
565.5449065257
 30
0.0
 11
139.3512414665
 21
570.2775293637
 31
0.0
  0
LINE
  5
38E
  8
0
  6
CONTINUOUS
 62
     7
 10
126.7991389163
 20
576.1989180362
 30
0.0
 11
139.3512414665
 21
576.1989180362
 31
0.0
  0
LINE
  5
38F
  8
0
  6
CONTINUOUS
 62
     7
 10
139.3512414665
 20
570.2775293637
 30
0.0
 11
139.3512414665
 21
576.1989180362
 31
0.0
  0
LINE
  5
390
  8
0
  6
CONTINUOUS
 62
     7
 10
126.7991389163
 20
497.1524989622
 30
0.0
 11
139.3512414665
 21
497.1524989622
 31
0.0
  0
LINE
  5
391
  8
0
  6
CONTINUOUS
 62
     7
 10
139.3512414665
 20
497.1524989622
 30
0.0
 11
139.3512414665
 21
503.0738876346
 31
0.0
  0
LINE
  5
392
  8
0
  6
CONTINUOUS
 62
     7
 10
126.7991389163
 20
579.1757084992
 30
0.0
 11
139.3512414665
 21
579.1757084992
 31
0.0
  0
LINE
  5
393
  8
0
  6
CONTINUOUS
 62
     7
 10
139.3512414665
 20
576.1989180362
 30
0.0
 11
139.3512414665
 21
579.1757084992
 31
0.0
  0
LINE
  5
394
  8
0
  6
CONTINUOUS
 62
     7
 10
126.7991389163
 20
494.1757084992
 30
0.0
 11
139.3512414665
 21
494.1757084992
 31
0.0
  0
LINE
  5
395
  8
0
  6
CONTINUOUS
 62
     7
 10
139.3512414665
 20
494.1757084992
 30
0.0
 11
139.3512414665
 21
497.1524989622
 31
0.0
  0
LINE
  5
396
  8
0
  6
CONTINUOUS
 62
     7
 10
139.3512414665
 20
564.2757084992
 30
0.0
 11
152.4512414665
 21
564.2757084992
 31
0.0
  0
LINE
  5
397
  8
0
  6
CONTINUOUS
 62
     7
 10
139.3512414665
 20
565.5449065257
 30
0.0
 11
152.4512414665
 21
565.5449065257
 31
0.0
  0
LINE
  5
398
  8
0
  6
CONTINUOUS
 62
     7
 10
152.4512414665
 20
564.2757084992
 30
0.0
 11
152.4512414665
 21
565.5449065257
 31
0.0
  0
LINE
  5
399
  8
0
  6
CONTINUOUS
 62
     7
 10
139.3512414665
 20
509.0757084992
 30
0.0
 11
152.4512414665
 21
509.0757084992
 31
0.0
  0
LINE
  5
39A
  8
0
  6
CONTINUOUS
 62
     7
 10
152.4512414665
 20
509.0757084992
 30
0.0
 11
152.4512414665
 21
564.2757084992
 31
0.0
  0
LINE
  5
39B
  8
0
  6
CONTINUOUS
 62
     7
 10
139.3512414665
 20
507.8065104726
 30
0.0
 11
152.4512414665
 21
507.8065104726
 31
0.0
  0
LINE
  5
39C
  8
0
  6
CONTINUOUS
 62
     7
 10
152.4512414665
 20
507.8065104726
 30
0.0
 11
152.4512414665
 21
509.0757084992
 31
0.0
  0
LINE
  5
39D
  8
0
  6
CONTINUOUS
 62
     7
 10
139.3512414665
 20
570.2775293637
 30
0.0
 11
152.4512414665
 21
570.2775293637
 31
0.0
  0
LINE
  5
39E
  8
0
  6
CONTINUOUS
 62
     7
 10
152.4512414665
 20
565.5449065257
 30
0.0
 11
152.4512414665
 21
570.2775293637
 31
0.0
  0
LINE
  5
39F
  8
0
  6
CONTINUOUS
 62
     7
 10
139.3512414665
 20
503.0738876346
 30
0.0
 11
152.4512414665
 21
503.0738876346
 31
0.0
  0
LINE
  5
3A0
  8
0
  6
CONTINUOUS
 62
     7
 10
152.4512414665
 20
503.0738876346
 30
0.0
 11
152.4512414665
 21
507.8065104726
 31
0.0
  0
LINE
  5
3A1
  8
0
  6
CONTINUOUS
 62
     7
 10
139.3512414665
 20
576.1989180362
 30
0.0
 11
152.4512414665
 21
576.1989180362
 31
0.0
  0
LINE
  5
3A2
  8
0
  6
CONTINUOUS
 62
     7
 10
152.4512414665
 20
570.2775293637
 30
0.0
 11
152.4512414665
 21
576.1989180362
 31
0.0
  0
LINE
  5
3A3
  8
0
  6
CONTINUOUS
 62
     7
 10
139.3512414665
 20
497.1524989622
 30
0.0
 11
152.4512414665
 21
497.1524989622
 31
0.0
  0
LINE
  5
3A4
  8
0
  6
CONTINUOUS
 62
     7
 10
152.4512414665
 20
497.1524989622
 30
0.0
 11
152.4512414665
 21
503.0738876346
 31
0.0
  0
LINE
  5
3A5
  8
0
  6
CONTINUOUS
 62
     7
 10
139.3512414665
 20
579.1757084992
 30
0.0
 11
152.4512414665
 21
579.1757084992
 31
0.0
  0
LINE
  5
3A6
  8
0
  6
CONTINUOUS
 62
     7
 10
152.4512414665
 20
576.1989180362
 30
0.0
 11
152.4512414665
 21
579.1757084992
 31
0.0
  0
LINE
  5
3A7
  8
0
  6
CONTINUOUS
 62
     7
 10
139.3512414665
 20
494.1757084992
 30
0.0
 11
152.4512414665
 21
494.1757084992
 31
0.0
  0
LINE
  5
3A8
  8
0
  6
CONTINUOUS
 62
     7
 10
152.4512414665
 20
494.1757084992
 30
0.0
 11
152.4512414665
 21
497.1524989622
 31
0.0
  0
LINE
  5
3A9
  8
0
  6
CONTINUOUS
 62
     7
 10
152.4512414665
 20
564.2757084992
 30
0.0
 11
194.4512414665
 21
564.2757084992
 31
0.0
  0
LINE
  5
3AA
  8
0
  6
CONTINUOUS
 62
     7
 10
152.4512414665
 20
565.5449065257
 30
0.0
 11
194.4512414665
 21
565.5449065257
 31
0.0
  0
LINE
  5
3AB
  8
0
  6
CONTINUOUS
 62
     7
 10
194.4512414665
 20
564.2757084992
 30
0.0
 11
194.4512414665
 21
565.5449065257
 31
0.0
  0
LINE
  5
3AC
  8
0
  6
CONTINUOUS
 62
     7
 10
152.4512414665
 20
509.0757084992
 30
0.0
 11
194.4512414665
 21
509.0757084992
 31
0.0
  0
LINE
  5
3AD
  8
0
  6
CONTINUOUS
 62
     7
 10
194.4512414665
 20
509.0757084992
 30
0.0
 11
194.4512414665
 21
564.2757084992
 31
0.0
  0
LINE
  5
3AE
  8
0
  6
CONTINUOUS
 62
     7
 10
152.4512414665
 20
507.8065104726
 30
0.0
 11
194.4512414665
 21
507.8065104726
 31
0.0
  0
LINE
  5
3AF
  8
0
  6
CONTINUOUS
 62
     7
 10
194.4512414665
 20
507.8065104726
 30
0.0
 11
194.4512414665
 21
509.0757084992
 31
0.0
  0
LINE
  5
3B0
  8
0
  6
CONTINUOUS
 62
     7
 10
152.4512414665
 20
570.2775293637
 30
0.0
 11
194.4512414665
 21
570.2775293637
 31
0.0
  0
LINE
  5
3B1
  8
0
  6
CONTINUOUS
 62
     7
 10
194.4512414665
 20
565.5449065257
 30
0.0
 11
194.4512414665
 21
570.2775293637
 31
0.0
  0
LINE
  5
3B2
  8
0
  6
CONTINUOUS
 62
     7
 10
152.4512414665
 20
503.0738876346
 30
0.0
 11
194.4512414665
 21
503.0738876346
 31
0.0
  0
LINE
  5
3B3
  8
0
  6
CONTINUOUS
 62
     7
 10
194.4512414665
 20
503.0738876346
 30
0.0
 11
194.4512414665
 21
507.8065104726
 31
0.0
  0
LINE
  5
3B4
  8
0
  6
CONTINUOUS
 62
     7
 10
152.4512414665
 20
576.1989180362
 30
0.0
 11
194.4512414665
 21
576.1989180362
 31
0.0
  0
LINE
  5
3B5
  8
0
  6
CONTINUOUS
 62
     7
 10
194.4512414665
 20
570.2775293637
 30
0.0
 11
194.4512414665
 21
576.1989180362
 31
0.0
  0
LINE
  5
3B6
  8
0
  6
CONTINUOUS
 62
     7
 10
152.4512414665
 20
497.1524989622
 30
0.0
 11
194.4512414665
 21
497.1524989622
 31
0.0
  0
LINE
  5
3B7
  8
0
  6
CONTINUOUS
 62
     7
 10
194.4512414665
 20
497.1524989622
 30
0.0
 11
194.4512414665
 21
503.0738876346
 31
0.0
  0
LINE
  5
3B8
  8
0
  6
CONTINUOUS
 62
     7
 10
152.4512414665
 20
579.1757084992
 30
0.0
 11
194.4512414665
 21
579.1757084992
 31
0.0
  0
LINE
  5
3B9
  8
0
  6
CONTINUOUS
 62
     7
 10
194.4512414665
 20
576.1989180362
 30
0.0
 11
194.4512414665
 21
579.1757084992
 31
0.0
  0
LINE
  5
3BA
  8
0
  6
CONTINUOUS
 62
     7
 10
152.4512414665
 20
494.1757084992
 30
0.0
 11
194.4512414665
 21
494.1757084992
 31
0.0
  0
LINE
  5
3BB
  8
0
  6
CONTINUOUS
 62
     7
 10
194.4512414665
 20
494.1757084992
 30
0.0
 11
194.4512414665
 21
497.1524989622
 31
0.0
  0
LINE
  5
3BC
  8
0
  6
CONTINUOUS
 62
     7
 10
194.4512414665
 20
564.2757084992
 30
0.0
 11
197.4512414665
 21
564.2757084992
 31
0.0
  0
LINE
  5
3BD
  8
0
  6
CONTINUOUS
 62
     7
 10
194.4512414665
 20
565.5449065257
 30
0.0
 11
197.4512414665
 21
565.5449065257
 31
0.0
  0
LINE
  5
3BE
  8
0
  6
CONTINUOUS
 62
     7
 10
197.4512414665
 20
564.2757084992
 30
0.0
 11
197.4512414665
 21
565.5449065257
 31
0.0
  0
LINE
  5
3BF
  8
0
  6
CONTINUOUS
 62
     7
 10
194.4512414665
 20
509.0757084992
 30
0.0
 11
197.4512414665
 21
509.0757084992
 31
0.0
  0
LINE
  5
3C0
  8
0
  6
CONTINUOUS
 62
     7
 10
197.4512414665
 20
509.0757084992
 30
0.0
 11
197.4512414665
 21
523.1757084992
 31
0.0
  0
LINE
  5
3C1
  8
0
  6
CONTINUOUS
 62
     7
 10
197.4512414665
 20
554.6921255581
 30
0.0
 11
197.4512414665
 21
564.2757084992
 31
0.0
  0
LINE
  5
3C2
  8
0
  6
CONTINUOUS
 62
     7
 10
194.4512414665
 20
507.8065104726
 30
0.0
 11
197.4512414665
 21
507.8065104726
 31
0.0
  0
LINE
  5
3C3
  8
0
  6
CONTINUOUS
 62
     7
 10
197.4512414665
 20
507.8065104726
 30
0.0
 11
197.4512414665
 21
509.0757084992
 31
0.0
  0
LINE
  5
3C4
  8
0
  6
CONTINUOUS
 62
     7
 10
194.4512414665
 20
570.2775293637
 30
0.0
 11
197.4512414665
 21
570.2775293637
 31
0.0
  0
LINE
  5
3C5
  8
0
  6
CONTINUOUS
 62
     7
 10
197.4512414665
 20
565.5449065257
 30
0.0
 11
197.4512414665
 21
570.2775293637
 31
0.0
  0
LINE
  5
3C6
  8
0
  6
CONTINUOUS
 62
     7
 10
194.4512414665
 20
503.0738876346
 30
0.0
 11
197.4512414665
 21
503.0738876346
 31
0.0
  0
LINE
  5
3C7
  8
0
  6
CONTINUOUS
 62
     7
 10
197.4512414665
 20
503.0738876346
 30
0.0
 11
197.4512414665
 21
507.8065104726
 31
0.0
  0
LINE
  5
3C8
  8
0
  6
CONTINUOUS
 62
     7
 10
194.4512414665
 20
576.1989180362
 30
0.0
 11
197.4512414665
 21
576.1989180362
 31
0.0
  0
LINE
  5
3C9
  8
0
  6
CONTINUOUS
 62
     7
 10
197.4512414665
 20
570.2775293637
 30
0.0
 11
197.4512414665
 21
576.1989180362
 31
0.0
  0
LINE
  5
3CA
  8
0
  6
CONTINUOUS
 62
     7
 10
194.4512414665
 20
497.1524989622
 30
0.0
 11
197.4512414665
 21
497.1524989622
 31
0.0
  0
LINE
  5
3CB
  8
0
  6
CONTINUOUS
 62
     7
 10
197.4512414665
 20
497.1524989622
 30
0.0
 11
197.4512414665
 21
503.0738876346
 31
0.0
  0
LINE
  5
3CC
  8
0
  6
CONTINUOUS
 62
     7
 10
194.4512414665
 20
579.1757084992
 30
0.0
 11
197.4512414665
 21
579.1757084992
 31
0.0
  0
LINE
  5
3CD
  8
0
  6
CONTINUOUS
 62
     7
 10
197.4512414665
 20
576.1989180362
 30
0.0
 11
197.4512414665
 21
579.1757084992
 31
0.0
  0
LINE
  5
3CE
  8
0
  6
CONTINUOUS
 62
     7
 10
194.4512414665
 20
494.1757084992
 30
0.0
 11
197.4512414665
 21
494.1757084992
 31
0.0
  0
LINE
  5
3CF
  8
0
  6
CONTINUOUS
 62
     7
 10
197.4512414665
 20
494.1757084992
 30
0.0
 11
197.4512414665
 21
497.1524989622
 31
0.0
  0
LINE
  5
3D0
  8
0
  6
CONTINUOUS
 62
     7
 10
197.4512414665
 20
564.2757084992
 30
0.0
 11
284.4512414665
 21
564.2757084992
 31
0.0
  0
LINE
  5
3D1
  8
0
  6
CONTINUOUS
 62
     7
 10
197.4512414665
 20
565.5449065257
 30
0.0
 11
284.4512414665
 21
565.5449065257
 31
0.0
  0
LINE
  5
3D2
  8
0
  6
CONTINUOUS
 62
     7
 10
197.4512414665
 20
509.0757084992
 30
0.0
 11
284.4512414665
 21
509.0757084992
 31
0.0
  0
LINE
  5
3D3
  8
0
  6
CONTINUOUS
 62
     7
 10
197.4512414665
 20
507.8065104726
 30
0.0
 11
284.4512414665
 21
507.8065104726
 31
0.0
  0
LINE
  5
3D4
  8
0
  6
CONTINUOUS
 62
     7
 10
197.4512414665
 20
570.2775293637
 30
0.0
 11
284.4512414665
 21
570.2775293637
 31
0.0
  0
LINE
  5
3D5
  8
0
  6
CONTINUOUS
 62
     7
 10
197.4512414665
 20
503.0738876346
 30
0.0
 11
284.4512414665
 21
503.0738876346
 31
0.0
  0
LINE
  5
3D6
  8
0
  6
CONTINUOUS
 62
     7
 10
197.4512414665
 20
576.1989180362
 30
0.0
 11
284.4512414665
 21
576.1989180362
 31
0.0
  0
LINE
  5
3D7
  8
0
  6
CONTINUOUS
 62
     7
 10
197.4512414665
 20
497.1524989622
 30
0.0
 11
284.4512414665
 21
497.1524989622
 31
0.0
  0
LINE
  5
3D8
  8
0
  6
CONTINUOUS
 62
     7
 10
197.4512414665
 20
579.1757084992
 30
0.0
 11
284.4512414665
 21
579.1757084992
 31
0.0
  0
LINE
  5
3D9
  8
0
  6
CONTINUOUS
 62
     7
 10
197.4512414665
 20
494.1757084992
 30
0.0
 11
284.4512414665
 21
494.1757084992
 31
0.0
  0
LINE
  5
3DA
  8
0
  6
CONTINUOUS
 62
     7
 10
198.4654921671
 20
555.1757084992
 30
0.0
 11
202.8369907659
 21
555.1757084992
 31
0.0
  0
ARC
  5
3DB
  8
0
  6
CONTINUOUS
 62
     7
 10
202.8405712028
 20
553.8739820036
 30
0.0
 40
1.301731419622032
 50
0.0759918196
 51
90.1575933205
  0
LINE
  5
3DC
  8
0
  6
CONTINUOUS
 62
     7
 10
204.1423014774
 20
553.8757084992
 30
0.0
 11
197.1601814556
 21
553.8757084992
 31
0.0
  0
ARC
  5
3DD
  8
0
  6
CONTINUOUS
 62
     7
 10
198.4626587187
 20
553.8732319636
 30
0.0
 40
1.30247961755885
 50
89.8753571572
 51
179.8910577026
  0
LINE
  5
3DE
  8
0
  6
CONTINUOUS
 62
     7
 10
197.1512414665
 20
552.7757084992
 30
0.0
 11
204.1512414665
 21
552.7757084992
 31
0.0
  0
LINE
  5
3DF
  8
0
  6
CONTINUOUS
 62
     7
 10
204.1423014774
 20
553.8757084992
 30
0.0
 11
204.1512414665
 21
553.8757084992
 31
0.0
  0
LINE
  5
3E0
  8
0
  6
CONTINUOUS
 62
     7
 10
197.1512414665
 20
553.8757084992
 30
0.0
 11
197.1601814556
 21
553.8757084992
 31
0.0
  0
CIRCLE
  5
3E1
  8
0
  6
CONTINUOUS
 62
     7
 10
204.4512414665
 20
536.6757084992
 30
0.0
 40
5.250000000002018
  0
LINE
  5
3E2
  8
0
  6
CONTINUOUS
 62
     7
 10
211.6512414665
 20
523.1757084992
 30
0.0
 11
195.4512414665
 21
523.1757084992
 31
0.0
  0
LINE
  5
3E3
  8
0
  6
CONTINUOUS
 62
     7
 10
195.4512414665
 20
523.1757084992
 30
0.0
 11
195.4512414665
 21
550.1757084992
 31
0.0
  0
LINE
  5
3E4
  8
0
  6
CONTINUOUS
 62
     7
 10
195.4512414665
 20
550.1757084992
 30
0.0
 11
211.6512414665
 21
550.1757084992
 31
0.0
  0
LINE
  5
3E5
  8
0
  6
CONTINUOUS
 62
     7
 10
211.6512414665
 20
550.1757084992
 30
0.0
 11
211.6512414665
 21
523.1757084992
 31
0.0
  0
LINE
  5
3E6
  8
0
  6
CONTINUOUS
 62
     7
 10
219.9512414665
 20
550.1757084992
 30
0.0
 11
211.6512414665
 21
550.1757084992
 31
0.0
  0
ARC
  5
3E7
  8
0
  6
CONTINUOUS
 62
     7
 10
219.9512414665
 20
546.1757084992
 30
0.0
 40
3.999999999999886
 50
0.0000000001
 51
90.0
  0
LINE
  5
3E8
  8
0
  6
CONTINUOUS
 62
     7
 10
223.9512414665
 20
546.1757084992
 30
0.0
 11
223.9512414665
 21
527.1757084992
 31
0.0
  0
ARC
  5
3E9
  8
0
  6
CONTINUOUS
 62
     7
 10
219.9512414665
 20
527.1757084992
 30
0.0
 40
4.000000000000227
 50
270.0
 51
359.9999999999
  0
LINE
  5
3EA
  8
0
  6
CONTINUOUS
 62
     7
 10
219.9512414665
 20
523.1757084992
 30
0.0
 11
211.6512414665
 21
523.1757084992
 31
0.0
  0
LINE
  5
3EB
  8
0
  6
CONTINUOUS
 62
     7
 10
206.6512414665
 20
550.4757084992
 30
0.0
 11
212.6512414665
 21
550.4757084992
 31
0.0
  0
CIRCLE
  5
3EC
  8
0
  6
CONTINUOUS
 62
     7
 10
165.4512414665
 20
536.6757084992
 30
0.0
 40
5.0
  0
LINE
  5
3ED
  8
0
  6
CONTINUOUS
 62
     7
 10
171.4512414665
 20
523.6757084992
 30
0.0
 11
159.4512414665
 21
523.6757084992
 31
0.0
  0
LINE
  5
3EE
  8
0
  6
CONTINUOUS
 62
     7
 10
159.4512414665
 20
523.6757084992
 30
0.0
 11
159.4512414665
 21
549.6757084992
 31
0.0
  0
LINE
  5
3EF
  8
0
  6
CONTINUOUS
 62
     7
 10
159.4512414665
 20
549.6757084992
 30
0.0
 11
171.4512414665
 21
549.6757084992
 31
0.0
  0
LINE
  5
3F0
  8
0
  6
CONTINUOUS
 62
     7
 10
171.4512414665
 20
523.6757084992
 30
0.0
 11
171.4512414665
 21
549.6757084992
 31
0.0
  0
CIRCLE
  5
3F1
  8
0
  6
CONTINUOUS
 62
     7
 10
132.3512414665
 20
536.6757084992
 30
0.0
 40
5.0
  0
LINE
  5
3F2
  8
0
  6
CONTINUOUS
 62
     7
 10
138.3512414665
 20
523.6757084992
 30
0.0
 11
126.3512414665
 21
523.6757084992
 31
0.0
  0
LINE
  5
3F3
  8
0
  6
CONTINUOUS
 62
     7
 10
126.3512414665
 20
549.6757084992
 30
0.0
 11
138.3512414665
 21
549.6757084992
 31
0.0
  0
LINE
  5
3F4
  8
0
  6
CONTINUOUS
 62
     7
 10
126.3512414665
 20
523.6757084992
 30
0.0
 11
126.3512414665
 21
549.6757084992
 31
0.0
  0
LINE
  5
3F5
  8
0
  6
CONTINUOUS
 62
     7
 10
138.3512414665
 20
523.6757084992
 30
0.0
 11
138.3512414665
 21
549.6757084992
 31
0.0
  0
ENDSEC
  0
EOF
