  0
SECTION
  2
HEADER
  9
$ACADVER
  1
AC1009
  9
$DWGCODEPAGE
  3
dos932
  9
$INSBASE
 10
0.0
 20
0.0
 30
0.0
  9
$EXTMIN
 10
0.0
 20
0.0
 30
0.0
  9
$EXTMAX
 10
431.8
 20
279.4
 30
0.0
  9
$LIMMIN
 10
0.0
 20
0.0
  9
$LIMMAX
 10
431.8
 20
279.4
  9
$ORTHOMODE
 70
     0
  9
$REGENMODE
 70
     1
  9
$FILLMODE
 70
     1
  9
$QTEXTMODE
 70
     0
  9
$MIRRTEXT
 70
     1
  9
$DRAGMODE
 70
     2
  9
$LTSCALE
 40
1.0
  9
$OSMODE
 70
    37
  9
$ATTMODE
 70
     1
  9
$TEXTSIZE
 40
3.5
  9
$TRACEWID
 40
1.0
  9
$TEXTSTYLE
  7
STANDARD
  9
$CLAYER
  8
0
  9
$CELTYPE
  6
BYLAYER
  9
$CECOLOR
 62
   256
  9
$DIMSCALE
 40
1.0
  9
$DIMASZ
 40
3.0
  9
$DIMEXO
 40
0.01
  9
$DIMDLI
 40
3.75
  9
$DIMRND
 40
0.0
  9
$DIMDLE
 40
0.0
  9
$DIMEXE
 40
1.0
  9
$DIMTP
 40
0.0
  9
$DIMTM
 40
0.0
  9
$DIMTXT
 40
3.5
  9
$DIMCEN
 40
2.5
  9
$DIMTSZ
 40
0.0
  9
$DIMTOL
 70
     0
  9
$DIMLIM
 70
     0
  9
$DIMTIH
 70
     1
  9
$DIMTOH
 70
     1
  9
$DIMSE1
 70
     0
  9
$DIMSE2
 70
     0
  9
$DIMTAD
 70
     1
  9
$DIMZIN
 70
     0
  9
$DIMBLK
  1

  9
$DIMASO
 70
     1
  9
$DIMSHO
 70
     1
  9
$DIMPOST
  1

  9
$DIMAPOST
  1

  9
$DIMALT
 70
     0
  9
$DIMALTD
 70
     3
  9
$DIMALTF
 40
0.0393700787
  9
$DIMLFAC
 40
1.0
  9
$DIMTOFL
 70
     1
  9
$DIMTVP
 40
0.0
  9
$DIMTIX
 70
     0
  9
$DIMSOXD
 70
     0
  9
$DIMSAH
 70
     0
  9
$DIMBLK1
  1

  9
$DIMBLK2
  1

  9
$DIMSTYLE
  2
ISO-25
  9
$DIMCLRD
 70
     0
  9
$DIMCLRE
 70
     0
  9
$DIMCLRT
 70
     0
  9
$DIMTFAC
 40
1.0
  9
$DIMGAP
 40
1.524
  9
$LUNITS
 70
     2
  9
$LUPREC
 70
     4
  9
$SKETCHINC
 40
1.0
  9
$FILLETRAD
 40
10.0
  9
$AUNITS
 70
     0
  9
$AUPREC
 70
     2
  9
$MENU
  1
.
  9
$ELEVATION
 40
0.0
  9
$PELEVATION
 40
0.0
  9
$THICKNESS
 40
0.0
  9
$LIMCHECK
 70
     0
  9
$CHAMFERA
 40
0.0
  9
$CHAMFERB
 40
0.0
  9
$SKPOLY
 70
     0
  9
$TDCREATE
 40
2459943.552960035
  9
$TDUPDATE
 40
2459943.552960613
  9
$TDINDWG
 40
0.0000000116
  9
$TDUSRTIMER
 40
0.0000000116
  9
$USRTIMER
 70
     1
  9
$ANGBASE
 50
0.0
  9
$ANGDIR
 70
     0
  9
$PDMODE
 70
     0
  9
$PDSIZE
 40
-1.0
  9
$PLINEWID
 40
0.0
  9
$COORDS
 70
     1
  9
$SPLFRAME
 70
     0
  9
$SPLINETYPE
 70
     6
  9
$SPLINESEGS
 70
     8
  9
$ATTDIA
 70
     0
  9
$ATTREQ
 70
     1
  9
$HANDLING
 70
     1
  9
$HANDSEED
  5
512
  9
$SURFTAB1
 70
     6
  9
$SURFTAB2
 70
     6
  9
$SURFTYPE
 70
     6
  9
$SURFU
 70
     6
  9
$SURFV
 70
     6
  9
$UCSNAME
  2

  9
$UCSORG
 10
0.0
 20
0.0
 30
0.0
  9
$UCSXDIR
 10
1.0
 20
0.0
 30
0.0
  9
$UCSYDIR
 10
0.0
 20
1.0
 30
0.0
  9
$PUCSNAME
  2

  9
$PUCSORG
 10
0.0
 20
0.0
 30
0.0
  9
$PUCSXDIR
 10
1.0
 20
0.0
 30
0.0
  9
$PUCSYDIR
 10
0.0
 20
1.0
 30
0.0
  9
$USERI1
 70
     0
  9
$USERI2
 70
     0
  9
$USERI3
 70
     0
  9
$USERI4
 70
     0
  9
$USERI5
 70
     0
  9
$USERR1
 40
0.0
  9
$USERR2
 40
0.0
  9
$USERR3
 40
0.0
  9
$USERR4
 40
0.0
  9
$USERR5
 40
0.0
  9
$WORLDVIEW
 70
     1
  9
$SHADEDGE
 70
     3
  9
$SHADEDIF
 70
    70
  9
$TILEMODE
 70
     1
  9
$MAXACTVP
 70
    64
  9
$PLIMCHECK
 70
     0
  9
$PEXTMIN
 10
1.0000000000E+20
 20
1.0000000000E+20
 30
1.0000000000E+20
  9
$PEXTMAX
 10
-1.0000000000E+20
 20
-1.0000000000E+20
 30
-1.0000000000E+20
  9
$PLIMMIN
 10
0.0
 20
0.0
  9
$PLIMMAX
 10
420.0
 20
297.0
  9
$UNITMODE
 70
     0
  9
$VISRETAIN
 70
     1
  9
$PLINEGEN
 70
     0
  9
$PSLTSCALE
 70
     1
  0
ENDSEC
  0
SECTION
  2
TABLES
  0
TABLE
  2
VPORT
 70
     1
  0
VPORT
  2
*ACTIVE
 70
     0
 10
0.0
 20
0.0
 11
1.0
 21
1.0
 12
215.9
 22
139.7
 13
0.0
 23
0.0
 14
10.0
 24
10.0
 15
10.0
 25
10.0
 16
0.0
 26
0.0
 36
1.0
 17
0.0
 27
0.0
 37
0.0
 40
279.4
 41
1.5454545455
 42
50.0
 43
0.0
 44
0.0
 50
0.0
 51
0.0
 71
     0
 72
  2000
 73
     1
 74
     3
 75
     0
 76
     0
 77
     0
 78
     0
  0
ENDTAB
  0
TABLE
  2
LTYPE
 70
     6
  0
LTYPE
  2
CONTINUOUS
 70
     0
  3
Solid line
 72
    65
 73
     0
 40
0.0
  0
LTYPE
  2
HIDDEN
 70
     0
  3
Hidden __ __ __ __ __ __ __ __ __ __ __ __ __ __
 72
    65
 73
     2
 40
1.905
 49
1.27
 49
-0.635
  0
LTYPE
  2
PHANTOM
 70
     0
  3
Phantom ______  __  __  ______  __  __  ______
 72
    65
 73
     6
 40
12.7
 49
6.35
 49
-1.27
 49
1.27
 49
-1.27
 49
1.27
 49
-1.27
  0
LTYPE
  2
CENTER
 70
     0
  3
Center ____ _ ____ _ ____ _ ____ _ ____ _ ____
 72
    65
 73
     4
 40
10.16
 49
6.35
 49
-1.27
 49
1.27
 49
-1.27
  0
LTYPE
  2
CENTERX2
 70
     0
  3
Center (2x) ________  __  ________  __  _____
 72
    65
 73
     4
 40
20.32
 49
12.7
 49
-2.54
 49
2.54
 49
-2.54
  0
LTYPE
  2
DOT2
 70
     0
  3
Dot (.5x) ........................................
 72
    65
 73
     2
 40
0.635
 49
0.0
 49
-0.635
  0
ENDTAB
  0
TABLE
  2
LAYER
 70
     4
  0
LAYER
  2
0
 70
     0
 62
     7
  6
CONTINUOUS
  0
LAYER
  2
DIM
 70
     0
 62
     7
  6
CONTINUOUS
  0
LAYER
  2
TXT
 70
     0
 62
     7
  6
CONTINUOUS
  0
LAYER
  2
NON-DISPLAY
 70
     0
 62
    -7
  6
CONTINUOUS
  0
ENDTAB
  0
TABLE
  2
STYLE
 70
     1
  0
STYLE
  2
STANDARD
 70
     0
 40
0.0
 41
1.0
 50
0.0
 71
     0
 42
3.5
  3
txt
  4
bigfont
  0
ENDTAB
  0
TABLE
  2
VIEW
 70
     0
  0
ENDTAB
  0
TABLE
  2
UCS
 70
     0
  0
ENDTAB
  0
TABLE
  2
APPID
 70
     1
  0
APPID
  2
ACAD
 70
     0
  0
ENDTAB
  0
TABLE
  2
DIMSTYLE
 70
     1
  0
DIMSTYLE
  2
ISO-25
 70
     0
  3

  4

  5

  6

  7

 40
1.0
 41
2.5
 42
0.625
 43
3.75
 44
1.25
 45
0.0
 46
0.0
 47
0.0
 48
0.0
140
2.5
141
2.5
142
0.0
143
0.0393700787
144
1.0
145
0.0
146
1.0
147
0.625
 71
     0
 72
     0
 73
     0
 74
     0
 75
     0
 76
     0
 77
     1
 78
     8
170
     0
171
     3
172
     1
173
     0
174
     0
175
     0
176
     0
177
     0
178
     0
  0
ENDTAB
  0
ENDSEC
  0
SECTION
  2
BLOCKS
  0
BLOCK
  8
0
  2
$MODEL_SPACE
 70
     0
 10
0.0
 20
0.0
 30
0.0
  3
$MODEL_SPACE
  1

  0
ENDBLK
  5
21
  8
0
  0
BLOCK
 67
     1
  8
0
  2
$PAPER_SPACE
 70
     0
 10
0.0
 20
0.0
 30
0.0
  3
$PAPER_SPACE
  1

  0
ENDBLK
  5
1D
 67
     1
  8
0
  0
ENDSEC
  0
SECTION
  2
ENTITIES
  0
LINE
  5
76
  8
0
  6
CONTINUOUS
 62
     7
 10
148.9100884956
 20
47.4105663717
 30
0.0
 11
148.9100884956
 21
10.4105663717
 31
0.0
  0
LINE
  5
77
  8
0
  6
CONTINUOUS
 62
     7
 10
154.9100884956
 20
10.4105663717
 30
0.0
 11
154.9100884956
 21
47.4105663717
 31
0.0
  0
LINE
  5
78
  8
0
  6
CONTINUOUS
 62
     7
 10
178.0100884956
 20
47.4105663717
 30
0.0
 11
178.0100884956
 21
10.4105663717
 31
0.0
  0
LINE
  5
79
  8
0
  6
CONTINUOUS
 62
     7
 10
186.0100884956
 20
10.4105663717
 30
0.0
 11
186.0100884956
 21
47.4105663717
 31
0.0
  0
LINE
  5
7A
  8
0
  6
CONTINUOUS
 62
     7
 10
276.0100884956
 20
72.9105663717
 30
0.0
 11
279.0100884956
 21
72.9105663717
 31
0.0
  0
LINE
  5
7B
  8
0
  6
CONTINUOUS
 62
     7
 10
279.0100884956
 20
132.9105663717
 30
0.0
 11
276.0100884956
 21
132.9105663717
 31
0.0
  0
LINE
  5
7C
  8
0
  6
CONTINUOUS
 62
     7
 10
313.0100884956
 20
110.9105663717
 30
0.0
 11
279.0100884956
 21
110.9105663717
 31
0.0
  0
LINE
  5
7D
  8
0
  6
CONTINUOUS
 62
     7
 10
279.0100884956
 20
94.9105663717
 30
0.0
 11
313.0100884956
 21
94.9105663717
 31
0.0
  0
ARC
  5
7E
  8
0
  6
CONTINUOUS
 62
     7
 10
340.4630090643
 20
102.9105663717
 30
0.0
 40
200.0
 50
190.8069228749
 51
192.268898996
  0
ARC
  5
7F
  8
0
  6
CONTINUOUS
 62
     7
 10
340.4630090643
 20
102.9105663717
 30
0.0
 40
200.0
 50
167.731101004
 51
169.1930771251
  0
LINE
  5
80
  8
0
  6
CONTINUOUS
 62
     7
 10
189.2305781499
 20
49.420561325
 30
0.0
 11
201.5229163208
 21
55.4168238474
 31
0.0
  0
LINE
  5
81
  8
0
  6
CONTINUOUS
 62
     7
 10
187.1950066924
 20
49.4105663717
 30
0.0
 11
189.2100884956
 21
49.4105663717
 31
0.0
  0
LINE
  5
82
  8
0
  6
CONTINUOUS
 62
     7
 10
173.0100884956
 20
49.4105663717
 30
0.0
 11
176.7600884956
 21
49.4105663717
 31
0.0
  0
LINE
  5
83
  8
0
  6
CONTINUOUS
 62
     7
 10
176.7600884956
 20
49.4105663717
 30
0.0
 11
176.7600884956
 21
47.4105663717
 31
0.0
  0
LINE
  5
84
  8
0
  6
CONTINUOUS
 62
     7
 10
187.2600884956
 20
47.4105663717
 30
0.0
 11
187.2600884956
 21
49.4105663717
 31
0.0
  0
LINE
  5
85
  8
0
  6
CONTINUOUS
 62
     7
 10
156.8481902849
 20
49.4105663717
 30
0.0
 11
157.9100884956
 21
49.4105663717
 31
0.0
  0
LINE
  5
86
  8
0
  6
CONTINUOUS
 62
     7
 10
145.9100884956
 20
49.4105663717
 30
0.0
 11
146.9100884956
 21
49.4105663717
 31
0.0
  0
LINE
  5
87
  8
0
  6
CONTINUOUS
 62
     7
 10
146.9100884956
 20
49.4105663717
 30
0.0
 11
146.9100884956
 21
47.4105663717
 31
0.0
  0
LINE
  5
88
  8
0
  6
CONTINUOUS
 62
     7
 10
156.9100884956
 20
47.4105663717
 30
0.0
 11
156.9100884956
 21
49.4105663717
 31
0.0
  0
LINE
  5
89
  8
0
  6
CONTINUOUS
 62
     7
 10
154.9100884956
 20
10.4105663717
 30
0.0
 11
148.9100884956
 21
10.4105663717
 31
0.0
  0
LINE
  5
8A
  8
0
  6
CONTINUOUS
 62
     7
 10
186.0100884956
 20
10.4105663717
 30
0.0
 11
178.0100884956
 21
10.4105663717
 31
0.0
  0
LINE
  5
8B
  8
0
  6
CONTINUOUS
 62
     7
 10
262.660143946
 20
80.1731522707
 30
0.0
 11
262.0100884956
 21
80.1731522707
 31
0.0
  0
LINE
  5
8C
  8
0
  6
CONTINUOUS
 62
     7
 10
262.0100884956
 20
80.1731522707
 30
0.0
 11
262.0100884956
 21
125.6479804727
 31
0.0
  0
LINE
  5
8D
  8
0
  6
CONTINUOUS
 62
     7
 10
262.660143946
 20
125.6479804727
 30
0.0
 11
262.0100884956
 21
125.6479804727
 31
0.0
  0
ARC
  5
8E
  8
0
  6
CONTINUOUS
 62
     7
 10
456.7651670649
 20
102.9105663717
 30
0.0
 40
195.4322133119308
 50
169.8917533355
 51
173.318834654
  0
LINE
  5
8F
  8
0
  6
CONTINUOUS
 62
     7
 10
276.0100884956
 20
137.2105663717
 30
0.0
 11
264.3664664456
 21
137.2105663717
 31
0.0
  0
LINE
  5
90
  8
0
  6
CONTINUOUS
 62
     7
 10
276.0100884956
 20
68.6105663717
 30
0.0
 11
276.0100884956
 21
137.2105663717
 31
0.0
  0
LINE
  5
91
  8
0
  6
CONTINUOUS
 62
     7
 10
264.3664664456
 20
68.6105663717
 30
0.0
 11
276.0100884956
 21
68.6105663717
 31
0.0
  0
ARC
  5
92
  8
0
  6
CONTINUOUS
 62
     7
 10
456.7651670649
 20
102.9105663717
 30
0.0
 40
195.4322133119308
 50
186.681165346
 51
190.1082466645
  0
ARC
  5
93
  8
0
  6
CONTINUOUS
 62
     7
 10
452.5863992454
 20
107.896893402
 30
0.0
 40
192.9760767584193
 50
168.7905898534
 51
170.954732184
  0
LINE
  5
94
  8
0
  6
CONTINUOUS
 62
     7
 10
264.3664664456
 20
145.4105663717
 30
0.0
 11
263.2916805093
 21
145.4105663717
 31
0.0
  0
POLYLINE
  5
95
  8
0
  6
CONTINUOUS
 62
     7
 66
     1
 10
0.0
 20
0.0
 30
0.0
 70
   128
  0
VERTEX
  5
38C
  8
0
  6
CONTINUOUS
 62
     7
 10
264.3664664456
 20
137.2105663717
 30
0.0
  0
VERTEX
  5
38D
  8
0
  6
CONTINUOUS
 62
     7
 10
264.5873189778
 20
138.5615445202
 30
0.0
  0
VERTEX
  5
38E
  8
0
  6
CONTINUOUS
 62
     7
 10
264.7633605991
 20
139.881884232
 30
0.0
  0
VERTEX
  5
38F
  8
0
  6
CONTINUOUS
 62
     7
 10
264.8882709887
 20
141.1342264497
 30
0.0
  0
VERTEX
  5
390
  8
0
  6
CONTINUOUS
 62
     7
 10
264.958336197
 20
142.280990122
 30
0.0
  0
VERTEX
  5
391
  8
0
  6
CONTINUOUS
 62
     7
 10
264.9705148929
 20
143.2698207561
 30
0.0
  0
VERTEX
  5
392
  8
0
  6
CONTINUOUS
 62
     7
 10
264.9269156416
 20
144.0950262383
 30
0.0
  0
VERTEX
  5
393
  8
0
  6
CONTINUOUS
 62
     7
 10
264.8292346102
 20
144.7265959369
 30
0.0
  0
VERTEX
  5
394
  8
0
  6
CONTINUOUS
 62
     7
 10
264.6813308842
 20
145.1587460391
 30
0.0
  0
VERTEX
  5
395
  8
0
  6
CONTINUOUS
 62
     7
 10
264.3664664456
 20
145.4105663717
 30
0.0
  0
SEQEND
  5
4FA
  8
0
  6
CONTINUOUS
 62
     7
  0
LINE
  5
96
  8
0
  6
CONTINUOUS
 62
     7
 10
262.660143946
 20
130.4996205036
 30
0.0
 11
262.660143946
 21
125.6479804727
 31
0.0
  0
ARC
  5
97
  8
0
  6
CONTINUOUS
 62
     7
 10
276.5634415641
 20
140.7684885432
 30
0.0
 40
17.28442464970379
 50
212.6488928602
 51
216.4492882759
  0
LINE
  5
98
  8
0
  6
CONTINUOUS
 62
     7
 10
262.0100884956
 20
131.4437231341
 30
0.0
 11
262.0100884956
 21
131.9109010342
 31
0.0
  0
POLYLINE
  5
99
  8
0
  6
CONTINUOUS
 62
     7
 66
     1
 10
0.0
 20
0.0
 30
0.0
 70
   128
  0
VERTEX
  5
396
  8
0
  6
CONTINUOUS
 62
     7
 10
262.0100884956
 20
131.9109010342
 30
0.0
  0
VERTEX
  5
397
  8
0
  6
CONTINUOUS
 62
     7
 10
262.2124842878
 20
132.010854468
 30
0.0
  0
VERTEX
  5
398
  8
0
  6
CONTINUOUS
 62
     7
 10
262.4393239671
 20
132.2819494231
 30
0.0
  0
VERTEX
  5
399
  8
0
  6
CONTINUOUS
 62
     7
 10
262.6841070806
 20
132.7162461858
 30
0.0
  0
VERTEX
  5
39A
  8
0
  6
CONTINUOUS
 62
     7
 10
262.9399128989
 20
133.2982940836
 30
0.0
  0
VERTEX
  5
39B
  8
0
  6
CONTINUOUS
 62
     7
 10
263.2045247058
 20
134.0272127235
 30
0.0
  0
VERTEX
  5
39C
  8
0
  6
CONTINUOUS
 62
     7
 10
263.4659909661
 20
134.8717259853
 30
0.0
  0
VERTEX
  5
39D
  8
0
  6
CONTINUOUS
 62
     7
 10
263.7184480583
 20
135.8165624698
 30
0.0
  0
VERTEX
  5
39E
  8
0
  6
CONTINUOUS
 62
     7
 10
263.9527692997
 20
136.8286259456
 30
0.0
  0
VERTEX
  5
39F
  8
0
  6
CONTINUOUS
 62
     7
 10
264.1586483512
 20
137.8646869007
 30
0.0
  0
VERTEX
  5
3A0
  8
0
  6
CONTINUOUS
 62
     7
 10
264.3332372864
 20
138.9075899986
 30
0.0
  0
VERTEX
  5
3A1
  8
0
  6
CONTINUOUS
 62
     7
 10
264.4666771123
 20
139.8964938295
 30
0.0
  0
VERTEX
  5
3A2
  8
0
  6
CONTINUOUS
 62
     7
 10
264.560464264
 20
140.8320302373
 30
0.0
  0
VERTEX
  5
3A3
  8
0
  6
CONTINUOUS
 62
     7
 10
264.6097321444
 20
141.6594844165
 30
0.0
  0
VERTEX
  5
3A4
  8
0
  6
CONTINUOUS
 62
     7
 10
264.6168682996
 20
142.3848978566
 30
0.0
  0
VERTEX
  5
3A5
  8
0
  6
CONTINUOUS
 62
     7
 10
264.5819804103
 20
142.9756467865
 30
0.0
  0
VERTEX
  5
3A6
  8
0
  6
CONTINUOUS
 62
     7
 10
264.5073575012
 20
143.4313190653
 30
0.0
  0
VERTEX
  5
3A7
  8
0
  6
CONTINUOUS
 62
     7
 10
264.3945699956
 20
143.7389700452
 30
0.0
  0
VERTEX
  5
3A8
  8
0
  6
CONTINUOUS
 62
     7
 10
264.2478607456
 20
143.8927604497
 30
0.0
  0
VERTEX
  5
3A9
  8
0
  6
CONTINUOUS
 62
     7
 10
264.067224001
 20
143.8869062142
 30
0.0
  0
VERTEX
  5
3AA
  8
0
  6
CONTINUOUS
 62
     7
 10
263.8611729288
 20
143.7211709929
 30
0.0
  0
VERTEX
  5
3AB
  8
0
  6
CONTINUOUS
 62
     7
 10
263.628089514
 20
143.3879446637
 30
0.0
  0
VERTEX
  5
3AC
  8
0
  6
CONTINUOUS
 62
     7
 10
263.380711933
 20
142.9026708279
 30
0.0
  0
VERTEX
  5
3AD
  8
0
  6
CONTINUOUS
 62
     7
 10
263.1187014354
 20
142.2589068579
 30
0.0
  0
VERTEX
  5
3AE
  8
0
  6
CONTINUOUS
 62
     7
 10
262.8559489397
 20
141.4877846068
 30
0.0
  0
VERTEX
  5
3AF
  8
0
  6
CONTINUOUS
 62
     7
 10
262.5967874781
 20
140.5978490548
 30
0.0
  0
VERTEX
  5
3B0
  8
0
  6
CONTINUOUS
 62
     7
 10
262.3517315445
 20
139.6238431534
 30
0.0
  0
VERTEX
  5
3B1
  8
0
  6
CONTINUOUS
 62
     7
 10
262.0100884956
 20
137.9739370155
 30
0.0
  0
SEQEND
  5
4FB
  8
0
  6
CONTINUOUS
 62
     7
  0
LINE
  5
9A
  8
0
  6
CONTINUOUS
 62
     7
 10
262.0100884956
 20
137.9739370155
 30
0.0
 11
262.0100884956
 21
138.2355812782
 31
0.0
  0
LINE
  5
9B
  8
0
  6
CONTINUOUS
 62
     7
 10
262.0100884956
 20
125.6479804727
 30
0.0
 11
262.0100884956
 21
130.4996205036
 31
0.0
  0
LINE
  5
9C
  8
0
  6
CONTINUOUS
 62
     7
 10
262.660143946
 20
130.4996205036
 30
0.0
 11
262.0100884956
 21
130.4996205036
 31
0.0
  0
LINE
  5
9D
  8
0
  6
CONTINUOUS
 62
     7
 10
262.660143946
 20
75.3215122398
 30
0.0
 11
262.0100884956
 21
75.3215122398
 31
0.0
  0
LINE
  5
9E
  8
0
  6
CONTINUOUS
 62
     7
 10
262.660143946
 20
80.1731522707
 30
0.0
 11
262.660143946
 21
75.3215122398
 31
0.0
  0
LINE
  5
9F
  8
0
  6
CONTINUOUS
 62
     7
 10
262.0100884956
 20
75.3215122398
 30
0.0
 11
262.0100884956
 21
80.1731522707
 31
0.0
  0
ARC
  5
A0
  8
0
  6
CONTINUOUS
 62
     7
 10
276.5634415641
 20
65.0526442002
 30
0.0
 40
17.28442464968813
 50
143.5507117241
 51
147.3511071398
  0
POLYLINE
  5
A1
  8
0
  6
CONTINUOUS
 62
     7
 66
     1
 10
0.0
 20
0.0
 30
0.0
 70
   128
  0
VERTEX
  5
3B2
  8
0
  6
CONTINUOUS
 62
     7
 10
264.3664664456
 20
60.4105663717
 30
0.0
  0
VERTEX
  5
3B3
  8
0
  6
CONTINUOUS
 62
     7
 10
264.5873189778
 20
60.5234307589
 30
0.0
  0
VERTEX
  5
3B4
  8
0
  6
CONTINUOUS
 62
     7
 10
264.7633605991
 20
60.8578854877
 30
0.0
  0
VERTEX
  5
3B5
  8
0
  6
CONTINUOUS
 62
     7
 10
264.8882709887
 20
61.4112330587
 30
0.0
  0
VERTEX
  5
3B6
  8
0
  6
CONTINUOUS
 62
     7
 10
264.958336197
 20
62.1661266759
 30
0.0
  0
VERTEX
  5
3B7
  8
0
  6
CONTINUOUS
 62
     7
 10
264.9705148929
 20
63.0868444886
 30
0.0
  0
VERTEX
  5
3B8
  8
0
  6
CONTINUOUS
 62
     7
 10
264.9269156416
 20
64.1558820568
 30
0.0
  0
VERTEX
  5
3B9
  8
0
  6
CONTINUOUS
 62
     7
 10
264.8292346102
 20
65.3339103751
 30
0.0
  0
VERTEX
  5
3BA
  8
0
  6
CONTINUOUS
 62
     7
 10
264.6813308842
 20
66.5940247843
 30
0.0
  0
VERTEX
  5
3BB
  8
0
  6
CONTINUOUS
 62
     7
 10
264.3664664456
 20
68.6105663717
 30
0.0
  0
SEQEND
  5
4FC
  8
0
  6
CONTINUOUS
 62
     7
  0
LINE
  5
A2
  8
0
  6
CONTINUOUS
 62
     7
 10
263.2916805093
 20
60.4105663717
 30
0.0
 11
264.3664664456
 21
60.4105663717
 31
0.0
  0
ARC
  5
A3
  8
0
  6
CONTINUOUS
 62
     7
 10
452.5863992454
 20
97.9242393413
 30
0.0
 40
192.9760767584286
 50
189.045267816
 51
191.2094101466
  0
POLYLINE
  5
A4
  8
0
  6
CONTINUOUS
 62
     7
 66
     1
 10
0.0
 20
0.0
 30
0.0
 70
   128
  0
VERTEX
  5
3BC
  8
0
  6
CONTINUOUS
 62
     7
 10
262.0100884956
 20
67.8471957279
 30
0.0
  0
VERTEX
  5
3BD
  8
0
  6
CONTINUOUS
 62
     7
 10
262.2124842878
 20
66.8215245785
 30
0.0
  0
VERTEX
  5
3BE
  8
0
  6
CONTINUOUS
 62
     7
 10
262.4393239671
 20
65.8324250758
 30
0.0
  0
VERTEX
  5
3BF
  8
0
  6
CONTINUOUS
 62
     7
 10
262.6841070806
 20
64.9085129783
 30
0.0
  0
VERTEX
  5
3C0
  8
0
  6
CONTINUOUS
 62
     7
 10
262.9399128989
 20
64.0729962627
 30
0.0
  0
VERTEX
  5
3C1
  8
0
  6
CONTINUOUS
 62
     7
 10
263.2045247058
 20
63.3375447193
 30
0.0
  0
VERTEX
  5
3C2
  8
0
  6
CONTINUOUS
 62
     7
 10
263.4659909661
 20
62.7370328494
 30
0.0
  0
VERTEX
  5
3C3
  8
0
  6
CONTINUOUS
 62
     7
 10
263.7184480583
 20
62.2885128554
 30
0.0
  0
VERTEX
  5
3C4
  8
0
  6
CONTINUOUS
 62
     7
 10
263.9527692997
 20
62.0089221165
 30
0.0
  0
VERTEX
  5
3C5
  8
0
  6
CONTINUOUS
 62
     7
 10
264.1586483512
 20
61.9114210498
 30
0.0
  0
VERTEX
  5
3C6
  8
0
  6
CONTINUOUS
 62
     7
 10
264.3332372864
 20
61.9939842597
 30
0.0
  0
VERTEX
  5
3C7
  8
0
  6
CONTINUOUS
 62
     7
 10
264.4666771123
 20
62.2494804301
 30
0.0
  0
VERTEX
  5
3C8
  8
0
  6
CONTINUOUS
 62
     7
 10
264.560464264
 20
62.6698556487
 30
0.0
  0
VERTEX
  5
3C9
  8
0
  6
CONTINUOUS
 62
     7
 10
264.6097321444
 20
63.2267806878
 30
0.0
  0
VERTEX
  5
3CA
  8
0
  6
CONTINUOUS
 62
     7
 10
264.6168682996
 20
63.9130224054
 30
0.0
  0
VERTEX
  5
3CB
  8
0
  6
CONTINUOUS
 62
     7
 10
264.5819804103
 20
64.6953165834
 30
0.0
  0
VERTEX
  5
3CC
  8
0
  6
CONTINUOUS
 62
     7
 10
264.5073575012
 20
65.5608238973
 30
0.0
  0
VERTEX
  5
3CD
  8
0
  6
CONTINUOUS
 62
     7
 10
264.3945699956
 20
66.488206915
 30
0.0
  0
VERTEX
  5
3CE
  8
0
  6
CONTINUOUS
 62
     7
 10
264.2478607456
 20
67.4486637701
 30
0.0
  0
VERTEX
  5
3CF
  8
0
  6
CONTINUOUS
 62
     7
 10
264.067224001
 20
68.4368723238
 30
0.0
  0
VERTEX
  5
3D0
  8
0
  6
CONTINUOUS
 62
     7
 10
263.8611729288
 20
69.4061846169
 30
0.0
  0
VERTEX
  5
3D1
  8
0
  6
CONTINUOUS
 62
     7
 10
263.628089514
 20
70.3583941689
 30
0.0
  0
VERTEX
  5
3D2
  8
0
  6
CONTINUOUS
 62
     7
 10
263.380711933
 20
71.2390634947
 30
0.0
  0
VERTEX
  5
3D3
  8
0
  6
CONTINUOUS
 62
     7
 10
263.1187014354
 20
72.0439726532
 30
0.0
  0
VERTEX
  5
3D4
  8
0
  6
CONTINUOUS
 62
     7
 10
262.8559489397
 20
72.7275685201
 30
0.0
  0
VERTEX
  5
3D5
  8
0
  6
CONTINUOUS
 62
     7
 10
262.5967874781
 20
73.2744277436
 30
0.0
  0
VERTEX
  5
3D6
  8
0
  6
CONTINUOUS
 62
     7
 10
262.3517315445
 20
73.6607561659
 30
0.0
  0
VERTEX
  5
3D7
  8
0
  6
CONTINUOUS
 62
     7
 10
262.0100884956
 20
73.9102317091
 30
0.0
  0
SEQEND
  5
4FD
  8
0
  6
CONTINUOUS
 62
     7
  0
LINE
  5
A5
  8
0
  6
CONTINUOUS
 62
     7
 10
262.0100884956
 20
73.9102317091
 30
0.0
 11
262.0100884956
 21
74.3774096093
 31
0.0
  0
LINE
  5
A6
  8
0
  6
CONTINUOUS
 62
     7
 10
262.0100884956
 20
67.5855514651
 30
0.0
 11
262.0100884956
 21
67.8471957279
 31
0.0
  0
LINE
  5
A7
  8
0
  6
CONTINUOUS
 62
     7
 10
276.0100884956
 20
60.4105663717
 30
0.0
 11
264.3664664456
 21
60.4105663717
 31
0.0
  0
LINE
  5
A8
  8
0
  6
CONTINUOUS
 62
     7
 10
276.0100884956
 20
68.6105663717
 30
0.0
 11
276.0100884956
 21
60.4105663717
 31
0.0
  0
LINE
  5
A9
  8
0
  6
CONTINUOUS
 62
     7
 10
264.3664664456
 20
145.4105663717
 30
0.0
 11
276.0100884956
 21
145.4105663717
 31
0.0
  0
LINE
  5
AA
  8
0
  6
CONTINUOUS
 62
     7
 10
276.0100884956
 20
145.4105663717
 30
0.0
 11
276.0100884956
 21
137.2105663717
 31
0.0
  0
LINE
  5
AB
  8
0
  6
CONTINUOUS
 62
     7
 10
262.0100884956
 20
137.9739370155
 30
0.0
 11
262.0100884956
 21
131.9109010342
 31
0.0
  0
LINE
  5
AC
  8
0
  6
CONTINUOUS
 62
     7
 10
262.0100884956
 20
73.9102317091
 30
0.0
 11
262.0100884956
 21
67.8471957279
 31
0.0
  0
LINE
  5
AD
  8
0
  6
CONTINUOUS
 62
     7
 10
262.0100884956
 20
130.4996205036
 30
0.0
 11
262.0100884956
 21
131.4437231341
 31
0.0
  0
LINE
  5
AE
  8
0
  6
CONTINUOUS
 62
     7
 10
262.0100884956
 20
74.3774096093
 30
0.0
 11
262.0100884956
 21
75.3215122398
 31
0.0
  0
LINE
  5
AF
  8
0
  6
CONTINUOUS
 62
     7
 10
279.0100884956
 20
102.9105663717
 30
0.0
 11
279.0100884956
 21
132.9105663717
 31
0.0
  0
LINE
  5
B0
  8
0
  6
CONTINUOUS
 62
     7
 10
279.0100884956
 20
72.9105663717
 30
0.0
 11
279.0100884956
 21
102.9105663717
 31
0.0
  0
LINE
  5
B1
  8
0
  6
CONTINUOUS
 62
     7
 10
263.2916805093
 20
145.4105663717
 30
0.0
 11
262.0100884956
 21
145.4105663717
 31
0.0
  0
LINE
  5
B2
  8
0
  6
CONTINUOUS
 62
     7
 10
262.0100884956
 20
138.2355812782
 30
0.0
 11
262.0100884956
 21
145.4105663717
 31
0.0
  0
LINE
  5
B3
  8
0
  6
CONTINUOUS
 62
     7
 10
263.2916805093
 20
60.4105663717
 30
0.0
 11
262.0100884956
 21
60.4105663717
 31
0.0
  0
LINE
  5
B4
  8
0
  6
CONTINUOUS
 62
     7
 10
262.0100884956
 20
60.4105663717
 30
0.0
 11
262.0100884956
 21
67.5855514651
 31
0.0
  0
LINE
  5
B5
  8
0
  6
CONTINUOUS
 62
     7
 10
313.0100884956
 20
110.9105663717
 30
0.0
 11
313.0100884956
 21
94.9105663717
 31
0.0
  0
LINE
  5
B6
  8
0
  6
CONTINUOUS
 62
     7
 10
146.3579859454
 20
125.6479804727
 30
0.0
 11
158.9100884956
 21
125.6479804727
 31
0.0
  0
LINE
  5
B7
  8
0
  6
CONTINUOUS
 62
     7
 10
146.3579859454
 20
80.1731522707
 30
0.0
 11
158.9100884956
 21
80.1731522707
 31
0.0
  0
ARC
  5
B8
  8
0
  6
CONTINUOUS
 62
     7
 10
340.4630090643
 20
102.9105663717
 30
0.0
 40
195.4322133119308
 50
173.318834654
 51
186.681165346
  0
LINE
  5
B9
  8
0
  6
CONTINUOUS
 62
     7
 10
158.9100884956
 20
80.1731522707
 30
0.0
 11
158.9100884956
 21
125.6479804727
 31
0.0
  0
LINE
  5
BA
  8
0
  6
CONTINUOUS
 62
     7
 10
146.3579859454
 20
130.4996205036
 30
0.0
 11
158.9100884956
 21
130.4996205036
 31
0.0
  0
LINE
  5
BB
  8
0
  6
CONTINUOUS
 62
     7
 10
146.3579859454
 20
125.6479804727
 30
0.0
 11
146.3579859454
 21
130.4996205036
 31
0.0
  0
LINE
  5
BC
  8
0
  6
CONTINUOUS
 62
     7
 10
158.9100884956
 20
125.6479804727
 30
0.0
 11
158.9100884956
 21
130.4996205036
 31
0.0
  0
LINE
  5
BD
  8
0
  6
CONTINUOUS
 62
     7
 10
146.9895225087
 20
145.4105663717
 30
0.0
 11
145.0307957524
 21
145.4105663717
 31
0.0
  0
ARC
  5
BE
  8
0
  6
CONTINUOUS
 62
     7
 10
336.2772916472
 20
107.8981720372
 30
0.0
 40
192.9690111757199
 50
168.7905611335
 51
171.3300304602
  0
ARC
  5
BF
  8
0
  6
CONTINUOUS
 62
     7
 10
157.5579028568
 20
134.2658592903
 30
0.0
 40
12.34809497935064
 50
167.2700296813
 51
191.1865573848
  0
ARC
  5
C0
  8
0
  6
CONTINUOUS
 62
     7
 10
159.8668480275
 20
140.4933623496
 30
0.0
 40
16.80369693953195
 50
210.8749439256
 51
216.4937225711
  0
LINE
  5
C1
  8
0
  6
CONTINUOUS
 62
     7
 10
146.3579859454
 20
75.3215122398
 30
0.0
 11
146.3579859454
 21
80.1731522707
 31
0.0
  0
ARC
  5
C2
  8
0
  6
CONTINUOUS
 62
     7
 10
159.8668480275
 20
65.3277703938
 30
0.0
 40
16.80369693954741
 50
143.5062774289
 51
149.1250560744
  0
ARC
  5
C3
  8
0
  6
CONTINUOUS
 62
     7
 10
156.0424073
 20
71.5348602838
 30
0.0
 40
10.869890339173
 50
167.1579018761
 51
194.3855110579
  0
ARC
  5
C4
  8
0
  6
CONTINUOUS
 62
     7
 10
336.2772916471
 20
97.9229607062
 30
0.0
 40
192.9690111756446
 50
188.6699695398
 51
191.2094388665
  0
LINE
  5
C5
  8
0
  6
CONTINUOUS
 62
     7
 10
145.0307957524
 20
60.4105663717
 30
0.0
 11
146.9895225087
 21
60.4105663717
 31
0.0
  0
LINE
  5
C6
  8
0
  6
CONTINUOUS
 62
     7
 10
144.0100884956
 20
140.4105663717
 30
0.0
 11
144.0100884956
 21
65.4105663717
 31
0.0
  0
LINE
  5
C7
  8
0
  6
CONTINUOUS
 62
     7
 10
146.3579859454
 20
75.3215122398
 30
0.0
 11
158.9100884956
 21
75.3215122398
 31
0.0
  0
LINE
  5
C8
  8
0
  6
CONTINUOUS
 62
     7
 10
158.9100884956
 20
75.3215122398
 30
0.0
 11
158.9100884956
 21
80.1731522707
 31
0.0
  0
LINE
  5
C9
  8
0
  6
CONTINUOUS
 62
     7
 10
145.4444130482
 20
131.8702770487
 30
0.0
 11
158.9100884956
 21
131.8702770487
 31
0.0
  0
LINE
  5
CA
  8
0
  6
CONTINUOUS
 62
     7
 10
158.9100884956
 20
130.4996205036
 30
0.0
 11
158.9100884956
 21
131.8702770487
 31
0.0
  0
LINE
  5
CB
  8
0
  6
CONTINUOUS
 62
     7
 10
145.4444130482
 20
73.9508556946
 30
0.0
 11
158.9100884956
 21
73.9508556946
 31
0.0
  0
LINE
  5
CC
  8
0
  6
CONTINUOUS
 62
     7
 10
158.9100884956
 20
73.9508556946
 30
0.0
 11
158.9100884956
 21
75.3215122398
 31
0.0
  0
LINE
  5
CD
  8
0
  6
CONTINUOUS
 62
     7
 10
145.5133312982
 20
68.8342909855
 30
0.0
 11
158.9100884956
 21
68.8342909855
 31
0.0
  0
LINE
  5
CE
  8
0
  6
CONTINUOUS
 62
     7
 10
158.9100884956
 20
68.8342909855
 30
0.0
 11
158.9100884956
 21
73.9508556946
 31
0.0
  0
LINE
  5
CF
  8
0
  6
CONTINUOUS
 62
     7
 10
145.5133312982
 20
136.9868417579
 30
0.0
 11
158.9100884956
 21
136.9868417579
 31
0.0
  0
LINE
  5
D0
  8
0
  6
CONTINUOUS
 62
     7
 10
158.9100884956
 20
131.8702770487
 30
0.0
 11
158.9100884956
 21
136.9868417579
 31
0.0
  0
LINE
  5
D1
  8
0
  6
CONTINUOUS
 62
     7
 10
146.9895225087
 20
145.4105663717
 30
0.0
 11
158.9100884956
 21
145.4105663717
 31
0.0
  0
LINE
  5
D2
  8
0
  6
CONTINUOUS
 62
     7
 10
158.9100884956
 20
136.9868417579
 30
0.0
 11
158.9100884956
 21
145.4105663717
 31
0.0
  0
LINE
  5
D3
  8
0
  6
CONTINUOUS
 62
     7
 10
146.9895225087
 20
60.4105663717
 30
0.0
 11
158.9100884956
 21
60.4105663717
 31
0.0
  0
LINE
  5
D4
  8
0
  6
CONTINUOUS
 62
     7
 10
158.9100884956
 20
60.4105663717
 30
0.0
 11
158.9100884956
 21
68.8342909855
 31
0.0
  0
LINE
  5
D5
  8
0
  6
CONTINUOUS
 62
     7
 10
158.9100884956
 20
125.6479804727
 30
0.0
 11
172.0100884956
 21
125.6479804727
 31
0.0
  0
LINE
  5
D6
  8
0
  6
CONTINUOUS
 62
     7
 10
158.9100884956
 20
130.4996205036
 30
0.0
 11
172.0100884956
 21
130.4996205036
 31
0.0
  0
LINE
  5
D7
  8
0
  6
CONTINUOUS
 62
     7
 10
172.0100884956
 20
125.6479804727
 30
0.0
 11
172.0100884956
 21
130.4996205036
 31
0.0
  0
LINE
  5
D8
  8
0
  6
CONTINUOUS
 62
     7
 10
158.9100884956
 20
80.1731522707
 30
0.0
 11
172.0100884956
 21
80.1731522707
 31
0.0
  0
LINE
  5
D9
  8
0
  6
CONTINUOUS
 62
     7
 10
172.0100884956
 20
80.1731522707
 30
0.0
 11
172.0100884956
 21
125.6479804727
 31
0.0
  0
LINE
  5
DA
  8
0
  6
CONTINUOUS
 62
     7
 10
158.9100884956
 20
75.3215122398
 30
0.0
 11
172.0100884956
 21
75.3215122398
 31
0.0
  0
LINE
  5
DB
  8
0
  6
CONTINUOUS
 62
     7
 10
172.0100884956
 20
75.3215122398
 30
0.0
 11
172.0100884956
 21
80.1731522707
 31
0.0
  0
LINE
  5
DC
  8
0
  6
CONTINUOUS
 62
     7
 10
158.9100884956
 20
131.8702770487
 30
0.0
 11
172.0100884956
 21
131.8702770487
 31
0.0
  0
LINE
  5
DD
  8
0
  6
CONTINUOUS
 62
     7
 10
172.0100884956
 20
130.4996205036
 30
0.0
 11
172.0100884956
 21
131.8702770487
 31
0.0
  0
LINE
  5
DE
  8
0
  6
CONTINUOUS
 62
     7
 10
158.9100884956
 20
73.9508556946
 30
0.0
 11
172.0100884956
 21
73.9508556946
 31
0.0
  0
LINE
  5
DF
  8
0
  6
CONTINUOUS
 62
     7
 10
172.0100884956
 20
73.9508556946
 30
0.0
 11
172.0100884956
 21
75.3215122398
 31
0.0
  0
LINE
  5
E0
  8
0
  6
CONTINUOUS
 62
     7
 10
158.9100884956
 20
136.9868417579
 30
0.0
 11
172.0100884956
 21
136.9868417579
 31
0.0
  0
LINE
  5
E1
  8
0
  6
CONTINUOUS
 62
     7
 10
172.0100884956
 20
131.8702770487
 30
0.0
 11
172.0100884956
 21
136.9868417579
 31
0.0
  0
LINE
  5
E2
  8
0
  6
CONTINUOUS
 62
     7
 10
158.9100884956
 20
68.8342909855
 30
0.0
 11
172.0100884956
 21
68.8342909855
 31
0.0
  0
LINE
  5
E3
  8
0
  6
CONTINUOUS
 62
     7
 10
172.0100884956
 20
68.8342909855
 30
0.0
 11
172.0100884956
 21
73.9508556946
 31
0.0
  0
LINE
  5
E4
  8
0
  6
CONTINUOUS
 62
     7
 10
158.9100884956
 20
145.4105663717
 30
0.0
 11
172.0100884956
 21
145.4105663717
 31
0.0
  0
LINE
  5
E5
  8
0
  6
CONTINUOUS
 62
     7
 10
172.0100884956
 20
136.9868417579
 30
0.0
 11
172.0100884956
 21
145.4105663717
 31
0.0
  0
LINE
  5
E6
  8
0
  6
CONTINUOUS
 62
     7
 10
158.9100884956
 20
60.4105663717
 30
0.0
 11
172.0100884956
 21
60.4105663717
 31
0.0
  0
LINE
  5
E7
  8
0
  6
CONTINUOUS
 62
     7
 10
172.0100884956
 20
60.4105663717
 30
0.0
 11
172.0100884956
 21
68.8342909855
 31
0.0
  0
LINE
  5
E8
  8
0
  6
CONTINUOUS
 62
     7
 10
172.0100884956
 20
80.1731522707
 30
0.0
 11
175.0100884956
 21
80.1731522707
 31
0.0
  0
LINE
  5
E9
  8
0
  6
CONTINUOUS
 62
     7
 10
172.0100884956
 20
125.6479804727
 30
0.0
 11
175.0100884956
 21
125.6479804727
 31
0.0
  0
LINE
  5
EA
  8
0
  6
CONTINUOUS
 62
     7
 10
175.0100884956
 20
80.1731522707
 30
0.0
 11
175.0100884956
 21
125.6479804727
 31
0.0
  0
LINE
  5
EB
  8
0
  6
CONTINUOUS
 62
     7
 10
172.0100884956
 20
130.4996205036
 30
0.0
 11
175.0100884956
 21
130.4996205036
 31
0.0
  0
LINE
  5
EC
  8
0
  6
CONTINUOUS
 62
     7
 10
175.0100884956
 20
125.6479804727
 30
0.0
 11
175.0100884956
 21
130.4996205036
 31
0.0
  0
LINE
  5
ED
  8
0
  6
CONTINUOUS
 62
     7
 10
172.0100884956
 20
75.3215122398
 30
0.0
 11
175.0100884956
 21
75.3215122398
 31
0.0
  0
LINE
  5
EE
  8
0
  6
CONTINUOUS
 62
     7
 10
175.0100884956
 20
75.3215122398
 30
0.0
 11
175.0100884956
 21
80.1731522707
 31
0.0
  0
LINE
  5
EF
  8
0
  6
CONTINUOUS
 62
     7
 10
172.0100884956
 20
131.8702770487
 30
0.0
 11
175.0100884956
 21
131.8702770487
 31
0.0
  0
LINE
  5
F0
  8
0
  6
CONTINUOUS
 62
     7
 10
175.0100884956
 20
130.4996205036
 30
0.0
 11
175.0100884956
 21
131.8702770487
 31
0.0
  0
LINE
  5
F1
  8
0
  6
CONTINUOUS
 62
     7
 10
172.0100884956
 20
73.9508556946
 30
0.0
 11
175.0100884956
 21
73.9508556946
 31
0.0
  0
LINE
  5
F2
  8
0
  6
CONTINUOUS
 62
     7
 10
175.0100884956
 20
73.9508556946
 30
0.0
 11
175.0100884956
 21
75.3215122398
 31
0.0
  0
LINE
  5
F3
  8
0
  6
CONTINUOUS
 62
     7
 10
172.0100884956
 20
136.9868417579
 30
0.0
 11
175.0100884956
 21
136.9868417579
 31
0.0
  0
LINE
  5
F4
  8
0
  6
CONTINUOUS
 62
     7
 10
175.0100884956
 20
131.8702770487
 30
0.0
 11
175.0100884956
 21
136.9868417579
 31
0.0
  0
LINE
  5
F5
  8
0
  6
CONTINUOUS
 62
     7
 10
172.0100884956
 20
68.8342909855
 30
0.0
 11
175.0100884956
 21
68.8342909855
 31
0.0
  0
LINE
  5
F6
  8
0
  6
CONTINUOUS
 62
     7
 10
175.0100884956
 20
68.8342909855
 30
0.0
 11
175.0100884956
 21
73.9508556946
 31
0.0
  0
LINE
  5
F7
  8
0
  6
CONTINUOUS
 62
     7
 10
172.0100884956
 20
145.4105663717
 30
0.0
 11
175.0100884956
 21
145.4105663717
 31
0.0
  0
LINE
  5
F8
  8
0
  6
CONTINUOUS
 62
     7
 10
175.0100884956
 20
136.9868417579
 30
0.0
 11
175.0100884956
 21
145.4105663717
 31
0.0
  0
LINE
  5
F9
  8
0
  6
CONTINUOUS
 62
     7
 10
172.0100884956
 20
60.4105663717
 30
0.0
 11
175.0100884956
 21
60.4105663717
 31
0.0
  0
LINE
  5
FA
  8
0
  6
CONTINUOUS
 62
     7
 10
175.0100884956
 20
60.4105663717
 30
0.0
 11
175.0100884956
 21
68.8342909855
 31
0.0
  0
LINE
  5
FB
  8
0
  6
CONTINUOUS
 62
     7
 10
175.0100884956
 20
80.1731522707
 30
0.0
 11
262.0100884956
 21
80.1731522707
 31
0.0
  0
LINE
  5
FC
  8
0
  6
CONTINUOUS
 62
     7
 10
175.0100884956
 20
125.6479804727
 30
0.0
 11
262.0100884956
 21
125.6479804727
 31
0.0
  0
LINE
  5
FD
  8
0
  6
CONTINUOUS
 62
     7
 10
175.0100884956
 20
130.4996205036
 30
0.0
 11
262.0100884956
 21
130.4996205036
 31
0.0
  0
LINE
  5
FE
  8
0
  6
CONTINUOUS
 62
     7
 10
175.0100884956
 20
75.3215122398
 30
0.0
 11
262.0100884956
 21
75.3215122398
 31
0.0
  0
LINE
  5
FF
  8
0
  6
CONTINUOUS
 62
     7
 10
175.0100884956
 20
131.8702770487
 30
0.0
 11
262.0100884956
 21
131.8702770487
 31
0.0
  0
LINE
  5
100
  8
0
  6
CONTINUOUS
 62
     7
 10
175.0100884956
 20
73.9508556946
 30
0.0
 11
262.0100884956
 21
73.9508556946
 31
0.0
  0
LINE
  5
101
  8
0
  6
CONTINUOUS
 62
     7
 10
175.0100884956
 20
136.9868417579
 30
0.0
 11
262.0100884956
 21
136.9868417579
 31
0.0
  0
LINE
  5
102
  8
0
  6
CONTINUOUS
 62
     7
 10
175.0100884956
 20
68.8342909855
 30
0.0
 11
262.0100884956
 21
68.8342909855
 31
0.0
  0
LINE
  5
103
  8
0
  6
CONTINUOUS
 62
     7
 10
175.0100884956
 20
145.4105663717
 30
0.0
 11
262.0100884956
 21
145.4105663717
 31
0.0
  0
LINE
  5
104
  8
0
  6
CONTINUOUS
 62
     7
 10
175.0100884956
 20
60.4105663717
 30
0.0
 11
262.0100884956
 21
60.4105663717
 31
0.0
  0
ARC
  5
105
  8
0
  6
CONTINUOUS
 62
     7
 10
178.2100884956
 20
56.2105663717
 30
0.0
 40
2.199999999999997
 50
186.5249788441
 51
353.4750211559
  0
ARC
  5
106
  8
0
  6
CONTINUOUS
 62
     7
 10
178.2100884956
 20
56.2105663717
 30
0.0
 40
3.500000000000014
 50
184.0960437582
 51
355.9039562418
  0
LINE
  5
107
  8
0
  6
CONTINUOUS
 62
     7
 10
174.7190284846
 20
55.9605663717
 30
0.0
 11
176.0243391961
 21
55.9605663717
 31
0.0
  0
LINE
  5
108
  8
0
  6
CONTINUOUS
 62
     7
 10
180.395837795
 20
55.9605663717
 30
0.0
 11
181.7011485065
 21
55.9605663717
 31
0.0
  0
ARC
  5
109
  8
0
  6
CONTINUOUS
 62
     7
 10
178.2100884956
 20
56.2105663717
 30
0.0
 40
2.199999999999998
 50
6.5249788441
 51
173.4750211559
  0
LINE
  5
10A
  8
0
  6
CONTINUOUS
 62
     7
 10
176.0243391961
 20
56.4605663717
 30
0.0
 11
174.7190284846
 21
56.4605663717
 31
0.0
  0
ARC
  5
10B
  8
0
  6
CONTINUOUS
 62
     7
 10
178.2100884956
 20
56.2105663717
 30
0.0
 40
3.500000000000014
 50
4.0960437582
 51
175.9039562418
  0
LINE
  5
10C
  8
0
  6
CONTINUOUS
 62
     7
 10
181.7011485065
 20
56.4605663717
 30
0.0
 11
180.395837795
 21
56.4605663717
 31
0.0
  0
ARC
  5
10D
  8
0
  6
CONTINUOUS
 62
     7
 10
176.9600884956
 20
54.9605663717
 30
0.0
 40
1.0
 50
0.0
 51
90.0
  0
LINE
  5
10E
  8
0
  6
CONTINUOUS
 62
     7
 10
177.9600884956
 20
54.1105663717
 30
0.0
 11
178.4600884956
 21
54.1105663717
 31
0.0
  0
ARC
  5
10F
  8
0
  6
CONTINUOUS
 62
     7
 10
179.4600884956
 20
54.9605663717
 30
0.0
 40
1.0
 50
90.0
 51
180.0
  0
LINE
  5
110
  8
0
  6
CONTINUOUS
 62
     7
 10
178.4600884956
 20
54.1105663717
 30
0.0
 11
178.4600884956
 21
54.9605663717
 31
0.0
  0
LINE
  5
111
  8
0
  6
CONTINUOUS
 62
     7
 10
177.9600884956
 20
54.9605663717
 30
0.0
 11
177.9600884956
 21
54.1105663717
 31
0.0
  0
LINE
  5
112
  8
0
  6
CONTINUOUS
 62
     7
 10
176.0243391961
 20
55.9605663717
 30
0.0
 11
176.9600884956
 21
55.9605663717
 31
0.0
  0
LINE
  5
113
  8
0
  6
CONTINUOUS
 62
     7
 10
179.4600884956
 20
55.9605663717
 30
0.0
 11
180.395837795
 21
55.9605663717
 31
0.0
  0
LINE
  5
114
  8
0
  6
CONTINUOUS
 62
     7
 10
178.4600884956
 20
57.4605663717
 30
0.0
 11
178.4600884956
 21
58.3105663717
 31
0.0
  0
LINE
  5
115
  8
0
  6
CONTINUOUS
 62
     7
 10
178.4600884956
 20
58.3105663717
 30
0.0
 11
177.9600884956
 21
58.3105663717
 31
0.0
  0
LINE
  5
116
  8
0
  6
CONTINUOUS
 62
     7
 10
177.9600884956
 20
58.3105663717
 30
0.0
 11
177.9600884956
 21
57.4605663717
 31
0.0
  0
ARC
  5
117
  8
0
  6
CONTINUOUS
 62
     7
 10
179.4600884956
 20
57.4605663717
 30
0.0
 40
1.000000000000007
 50
180.0
 51
270.0
  0
ARC
  5
118
  8
0
  6
CONTINUOUS
 62
     7
 10
176.9600884956
 20
57.4605663717
 30
0.0
 40
1.000000000000007
 50
270.0
 51
0.0
  0
LINE
  5
119
  8
0
  6
CONTINUOUS
 62
     7
 10
180.395837795
 20
56.4605663717
 30
0.0
 11
179.4600884956
 21
56.4605663717
 31
0.0
  0
LINE
  5
11A
  8
0
  6
CONTINUOUS
 62
     7
 10
176.9600884956
 20
56.4605663717
 30
0.0
 11
176.0243391961
 21
56.4605663717
 31
0.0
  0
ARC
  5
11B
  8
0
  6
CONTINUOUS
 62
     7
 10
178.2100884956
 20
56.2105663717
 30
0.0
 40
3.500000000000014
 50
355.9039562418
 51
4.0960437582
  0
ARC
  5
11C
  8
0
  6
CONTINUOUS
 62
     7
 10
178.2100884956
 20
56.2105663717
 30
0.0
 40
3.500000000000014
 50
175.9039562418
 51
184.0960437582
  0
LINE
  5
11D
  8
0
  6
CONTINUOUS
 62
     7
 10
185.2100884956
 20
55.3705663717
 30
0.0
 11
189.2100884956
 21
55.3705663717
 31
0.0
  0
LINE
  5
11E
  8
0
  6
CONTINUOUS
 62
     7
 10
185.2100884956
 20
55.7205663717
 30
0.0
 11
185.2100884956
 21
55.3705663717
 31
0.0
  0
LINE
  5
11F
  8
0
  6
CONTINUOUS
 62
     7
 10
185.2100884956
 20
55.7205663717
 30
0.0
 11
187.0350884956
 21
55.7205663717
 31
0.0
  0
LINE
  5
120
  8
0
  6
CONTINUOUS
 62
     7
 10
187.0350884956
 20
58.3205663717
 30
0.0
 11
187.0350884956
 21
55.7205663717
 31
0.0
  0
LINE
  5
121
  8
0
  6
CONTINUOUS
 62
     7
 10
187.0350884956
 20
58.3205663717
 30
0.0
 11
187.3850884956
 21
58.3205663717
 31
0.0
  0
LINE
  5
122
  8
0
  6
CONTINUOUS
 62
     7
 10
187.3850884956
 20
58.3205663717
 30
0.0
 11
187.3850884956
 21
55.7205663717
 31
0.0
  0
LINE
  5
123
  8
0
  6
CONTINUOUS
 62
     7
 10
187.3850884956
 20
55.7205663717
 30
0.0
 11
189.2100884956
 21
55.7205663717
 31
0.0
  0
LINE
  5
124
  8
0
  6
CONTINUOUS
 62
     7
 10
189.2100884956
 20
55.7205663717
 30
0.0
 11
189.2100884956
 21
55.3705663717
 31
0.0
  0
CIRCLE
  5
125
  8
0
  6
CONTINUOUS
 62
     7
 10
187.2100884956
 20
56.2105663717
 30
0.0
 40
3.0
  0
CIRCLE
  5
126
  8
0
  6
CONTINUOUS
 62
     7
 10
187.2100884956
 20
56.2105663717
 30
0.0
 40
2.650000000000006
  0
LINE
  5
127
  8
0
  6
CONTINUOUS
 62
     7
 10
186.4100884956
 20
54.1105663717
 30
0.0
 11
188.0100884956
 21
54.1105663717
 31
0.0
  0
LINE
  5
128
  8
0
  6
CONTINUOUS
 62
     7
 10
186.4100884956
 20
54.4605663717
 30
0.0
 11
186.4100884956
 21
54.1105663717
 31
0.0
  0
LINE
  5
129
  8
0
  6
CONTINUOUS
 62
     7
 10
186.4100884956
 20
54.4605663717
 30
0.0
 11
188.0100884956
 21
54.4605663717
 31
0.0
  0
LINE
  5
12A
  8
0
  6
CONTINUOUS
 62
     7
 10
188.0100884956
 20
54.4605663717
 30
0.0
 11
188.0100884956
 21
54.1105663717
 31
0.0
  0
LINE
  5
12B
  8
0
  6
CONTINUOUS
 62
     7
 10
185.8100884956
 20
54.7405663717
 30
0.0
 11
188.6100884956
 21
54.7405663717
 31
0.0
  0
LINE
  5
12C
  8
0
  6
CONTINUOUS
 62
     7
 10
185.8100884956
 20
55.0905663717
 30
0.0
 11
185.8100884956
 21
54.7405663717
 31
0.0
  0
LINE
  5
12D
  8
0
  6
CONTINUOUS
 62
     7
 10
185.8100884956
 20
55.0905663717
 30
0.0
 11
188.6100884956
 21
55.0905663717
 31
0.0
  0
LINE
  5
12E
  8
0
  6
CONTINUOUS
 62
     7
 10
188.6100884956
 20
55.0905663717
 30
0.0
 11
188.6100884956
 21
54.7405663717
 31
0.0
  0
LINE
  5
12F
  8
0
  6
CONTINUOUS
 62
     7
 10
173.0100884956
 20
50.949040562
 30
0.0
 11
189.2100884956
 21
50.949040562
 31
0.0
  0
LINE
  5
130
  8
0
  6
CONTINUOUS
 62
     7
 10
173.0100884956
 20
50.949040562
 30
0.0
 11
173.0100884956
 21
60.4105663717
 31
0.0
  0
LINE
  5
131
  8
0
  6
CONTINUOUS
 62
     7
 10
197.5100884956
 20
54.9978210498
 30
0.0
 11
197.5100884956
 21
60.4105663717
 31
0.0
  0
LINE
  5
132
  8
0
  6
CONTINUOUS
 62
     7
 10
197.5100884956
 20
54.9978210498
 30
0.0
 11
189.2100884956
 21
50.949040562
 31
0.0
  0
LINE
  5
133
  8
0
  6
CONTINUOUS
 62
     7
 10
201.5100884956
 20
60.4105663717
 30
0.0
 11
201.5100884956
 21
56.1674233085
 31
0.0
  0
POLYLINE
  5
134
  8
0
  6
CONTINUOUS
 62
     7
 66
     1
 10
0.0
 20
0.0
 30
0.0
 70
   128
  0
VERTEX
  5
3D8
  8
0
  6
CONTINUOUS
 62
     7
 10
201.5100884956
 20
56.1674233085
 30
0.0
  0
VERTEX
  5
3D9
  8
0
  6
CONTINUOUS
 62
     7
 10
201.3214276476
 20
56.2828601427
 30
0.0
  0
VERTEX
  5
3DA
  8
0
  6
CONTINUOUS
 62
     7
 10
200.7703368058
 20
56.2249992017
 30
0.0
  0
VERTEX
  5
3DB
  8
0
  6
CONTINUOUS
 62
     7
 10
199.9354298793
 20
55.9977781218
 30
0.0
  0
VERTEX
  5
3DC
  8
0
  6
CONTINUOUS
 62
     7
 10
198.876560224
 20
55.6093439673
 30
0.0
  0
VERTEX
  5
3DD
  8
0
  6
CONTINUOUS
 62
     7
 10
197.5100884956
 20
54.9978210498
 30
0.0
  0
SEQEND
  5
4FE
  8
0
  6
CONTINUOUS
 62
     7
  0
LINE
  5
135
  8
0
  6
CONTINUOUS
 62
     7
 10
189.2100884956
 20
50.949040562
 30
0.0
 11
189.2100884956
 21
49.4105663721
 31
0.0
  0
LINE
  5
136
  8
0
  6
CONTINUOUS
 62
     7
 10
201.5100884956
 20
56.1674233085
 30
0.0
 11
201.5100884956
 21
55.4300974686
 31
0.0
  0
ARC
  5
137
  8
0
  6
CONTINUOUS
 62
     7
 10
182.0099107534
 20
-10.4650497057
 30
0.0
 40
60.10532450945527
 50
85.0511233862
 51
95.0108111729
  0
LINE
  5
138
  8
0
  6
CONTINUOUS
 62
     7
 10
173.0100884956
 20
49.4105663717
 30
0.0
 11
173.0100884956
 21
50.949040562
 31
0.0
  0
LINE
  5
139
  8
0
  6
CONTINUOUS
 62
     7
 10
176.7600884956
 20
47.4105663717
 30
0.0
 11
187.2600884956
 21
47.4105663717
 31
0.0
  0
LINE
  5
13A
  8
0
  6
CONTINUOUS
 62
     7
 10
145.9100884956
 20
49.4105663717
 30
0.0
 11
145.9100884956
 21
50.8358277893
 31
0.0
  0
LINE
  5
13B
  8
0
  6
CONTINUOUS
 62
     7
 10
145.9100884956
 20
50.8358277893
 30
0.0
 11
157.9100884956
 21
50.8358277893
 31
0.0
  0
LINE
  5
13C
  8
0
  6
CONTINUOUS
 62
     7
 10
157.9100884956
 20
49.4105663717
 30
0.0
 11
157.9100884956
 21
50.8358277893
 31
0.0
  0
ARC
  5
13D
  8
0
  6
CONTINUOUS
 62
     7
 10
151.909923494
 20
-10.4762829214
 30
0.0
 40
60.09520004343927
 50
85.2864580262
 51
94.7724438483
  0
LINE
  5
13E
  8
0
  6
CONTINUOUS
 62
     7
 10
157.9100884956
 20
50.8358277893
 30
0.0
 11
157.9100884956
 21
60.4105663717
 31
0.0
  0
LINE
  5
13F
  8
0
  6
CONTINUOUS
 62
     7
 10
145.9100884956
 20
50.8358277893
 30
0.0
 11
145.9100884956
 21
60.4105663717
 31
0.0
  0
LINE
  5
140
  8
0
  6
CONTINUOUS
 62
     7
 10
146.9100884956
 20
47.4105663717
 30
0.0
 11
156.9100884956
 21
47.4105663717
 31
0.0
  0
LINE
  5
141
  8
0
  6
CONTINUOUS
 62
     7
 10
47.5276965866
 20
47.4105663717
 30
0.0
 11
47.5276965866
 21
10.4105663717
 31
0.0
  0
LINE
  5
142
  8
0
  6
CONTINUOUS
 62
     7
 10
53.5276965866
 20
10.4105663717
 30
0.0
 11
53.5276965866
 21
47.4105663717
 31
0.0
  0
LINE
  5
143
  8
0
  6
CONTINUOUS
 62
     7
 10
46.5276965866
 20
47.4105663717
 30
0.0
 11
46.5276965866
 21
10.4105663717
 31
0.0
  0
LINE
  5
144
  8
0
  6
CONTINUOUS
 62
     7
 10
54.5276965866
 20
10.4105663717
 30
0.0
 11
54.5276965866
 21
47.4105663717
 31
0.0
  0
ARC
  5
145
  8
0
  6
CONTINUOUS
 62
     7
 10
67.7276965866
 20
58.4105663717
 30
0.0
 40
1.300000000000004
 50
0.0
 51
90.0
  0
ARC
  5
146
  8
0
  6
CONTINUOUS
 62
     7
 10
67.7276965866
 20
54.0105663717
 30
0.0
 40
1.300000000000004
 50
270.0
 51
0.0
  0
LINE
  5
147
  8
0
  6
CONTINUOUS
 62
     7
 10
66.6276965866
 20
52.7105663717
 30
0.0
 11
67.7276965866
 21
52.7105663717
 31
0.0
  0
LINE
  5
148
  8
0
  6
CONTINUOUS
 62
     7
 10
67.7276965866
 20
59.7105663717
 30
0.0
 11
66.6276965866
 21
59.7105663717
 31
0.0
  0
LINE
  5
149
  8
0
  6
CONTINUOUS
 62
     7
 10
64.0276965866
 20
52.7105663717
 30
0.0
 11
66.6276965866
 21
52.7105663717
 31
0.0
  0
LINE
  5
14A
  8
0
  6
CONTINUOUS
 62
     7
 10
66.6276965866
 20
59.7105663717
 30
0.0
 11
64.0276965866
 21
59.7105663717
 31
0.0
  0
LINE
  5
14B
  8
0
  6
CONTINUOUS
 62
     7
 10
45.2776965866
 20
49.6349050145
 30
0.0
 11
45.2776965866
 21
47.4105663717
 31
0.0
  0
LINE
  5
14C
  8
0
  6
CONTINUOUS
 62
     7
 10
55.7776965866
 20
47.4105663717
 30
0.0
 11
55.7776965866
 21
49.6403474932
 31
0.0
  0
LINE
  5
14D
  8
0
  6
CONTINUOUS
 62
     7
 10
45.5276965866
 20
49.6140080762
 30
0.0
 11
45.5276965866
 21
47.4105663717
 31
0.0
  0
LINE
  5
14E
  8
0
  6
CONTINUOUS
 62
     7
 10
55.5276965866
 20
47.4105663717
 30
0.0
 11
55.5276965866
 21
49.6189107301
 31
0.0
  0
LINE
  5
14F
  8
0
  6
CONTINUOUS
 62
     7
 10
53.5276965866
 20
10.4105663717
 30
0.0
 11
47.5276965866
 21
10.4105663717
 31
0.0
  0
LINE
  5
150
  8
0
  6
CONTINUOUS
 62
     7
 10
54.5276965866
 20
10.4105663717
 30
0.0
 11
53.5276965866
 21
10.4105663717
 31
0.0
  0
LINE
  5
151
  8
0
  6
CONTINUOUS
 62
     7
 10
47.5276965866
 20
10.4105663717
 30
0.0
 11
46.5276965866
 21
10.4105663717
 31
0.0
  0
LINE
  5
152
  8
0
  6
CONTINUOUS
 62
     7
 10
16.2276965866
 20
60.4105663717
 30
0.0
 11
22.9276965866
 21
60.4105663717
 31
0.0
  0
ARC
  5
153
  8
0
  6
CONTINUOUS
 62
     7
 10
16.2292074452
 20
68.6120772303
 30
0.0
 40
8.201510997773143
 50
180.0105548627
 51
269.9894451373
  0
LINE
  5
154
  8
0
  6
CONTINUOUS
 62
     7
 10
8.0276965866
 20
80.1731522707
 30
0.0
 11
8.0276965866
 21
68.6105663717
 31
0.0
  0
ARC
  5
155
  8
0
  6
CONTINUOUS
 62
     7
 10
50.5276965866
 20
102.9105663717
 30
0.0
 40
45.50230072694307
 50
218.8343287018
 51
219.5935886023
  0
ARC
  5
156
  8
0
  6
CONTINUOUS
 62
     7
 10
50.5276965866
 20
102.9105663717
 30
0.0
 40
45.50230072694306
 50
230.4064113977
 51
230.9261981181
  0
ARC
  5
157
  8
0
  6
CONTINUOUS
 62
     7
 10
15.5279517118
 20
67.9108214969
 30
0.0
 40
5.999747589161631
 50
90.607618289
 51
359.392381711
  0
LINE
  5
158
  8
0
  6
CONTINUOUS
 62
     7
 10
8.0276965866
 20
137.2105663717
 30
0.0
 11
8.0276965866
 21
125.6479804727
 31
0.0
  0
ARC
  5
159
  8
0
  6
CONTINUOUS
 62
     7
 10
16.2292074452
 20
137.2090555131
 30
0.0
 40
8.20151099777317
 50
90.0105548627
 51
179.9894451373
  0
LINE
  5
15A
  8
0
  6
CONTINUOUS
 62
     7
 10
22.9276965866
 20
145.4105663717
 30
0.0
 11
16.2276965866
 21
145.4105663717
 31
0.0
  0
ARC
  5
15B
  8
0
  6
CONTINUOUS
 62
     7
 10
50.5276965866
 20
102.9105663717
 30
0.0
 40
45.50230072694323
 50
129.0738018819
 51
129.5935886023
  0
ARC
  5
15C
  8
0
  6
CONTINUOUS
 62
     7
 10
15.5279517118
 20
137.9103112465
 30
0.0
 40
5.99974758916164
 50
0.607618289
 51
269.392381711
  0
ARC
  5
15D
  8
0
  6
CONTINUOUS
 62
     7
 10
50.5276965866
 20
102.9105663717
 30
0.0
 40
45.50230072694321
 50
140.4064113977
 51
141.1656712982
  0
LINE
  5
15E
  8
0
  6
CONTINUOUS
 62
     7
 10
93.0276965866
 20
68.6105663717
 30
0.0
 11
93.0276965866
 21
80.1731522707
 31
0.0
  0
ARC
  5
15F
  8
0
  6
CONTINUOUS
 62
     7
 10
84.826185728
 20
68.6120772303
 30
0.0
 40
8.201510997773129
 50
270.0105548627
 51
359.9894451373
  0
LINE
  5
160
  8
0
  6
CONTINUOUS
 62
     7
 10
78.1276965866
 20
60.4105663717
 30
0.0
 11
84.8276965866
 21
60.4105663717
 31
0.0
  0
ARC
  5
161
  8
0
  6
CONTINUOUS
 62
     7
 10
50.5276965866
 20
102.9105663717
 30
0.0
 40
45.50230072694308
 50
309.0738018819
 51
309.5935886023
  0
ARC
  5
162
  8
0
  6
CONTINUOUS
 62
     7
 10
85.5274414614
 20
67.9108214969
 30
0.0
 40
5.999747589161617
 50
180.607618289
 51
89.392381711
  0
ARC
  5
163
  8
0
  6
CONTINUOUS
 62
     7
 10
50.5276965866
 20
102.9105663717
 30
0.0
 40
45.50230072694307
 50
320.4064113977
 51
321.1656712982
  0
LINE
  5
164
  8
0
  6
CONTINUOUS
 62
     7
 10
84.8276965866
 20
145.4105663717
 30
0.0
 11
78.1276965866
 21
145.4105663717
 31
0.0
  0
ARC
  5
165
  8
0
  6
CONTINUOUS
 62
     7
 10
84.826185728
 20
137.2090555131
 30
0.0
 40
8.201510997773164
 50
0.0105548627
 51
89.9894451373
  0
LINE
  5
166
  8
0
  6
CONTINUOUS
 62
     7
 10
93.0276965866
 20
125.6479804727
 30
0.0
 11
93.0276965866
 21
137.2105663717
 31
0.0
  0
ARC
  5
167
  8
0
  6
CONTINUOUS
 62
     7
 10
50.5276965866
 20
102.9105663717
 30
0.0
 40
45.50230072694306
 50
38.8343287018
 51
39.5935886023
  0
ARC
  5
168
  8
0
  6
CONTINUOUS
 62
     7
 10
85.5274414614
 20
137.9103112465
 30
0.0
 40
5.999747589161645
 50
270.607618289
 51
179.392381711
  0
ARC
  5
169
  8
0
  6
CONTINUOUS
 62
     7
 10
50.5276965866
 20
102.9105663717
 30
0.0
 40
45.50230072694305
 50
50.4064113977
 51
50.9261981181
  0
ARC
  5
16A
  8
0
  6
CONTINUOUS
 62
     7
 10
85.5276965866
 20
137.9105663717
 30
0.0
 40
6.000000000000034
 50
179.394843676
 51
270.605156324
  0
ARC
  5
16B
  8
0
  6
CONTINUOUS
 62
     7
 10
85.5276965866
 20
67.9105663717
 30
0.0
 40
6.000000000000005
 50
89.394843676
 51
180.605156324
  0
ARC
  5
16C
  8
0
  6
CONTINUOUS
 62
     7
 10
15.5276965866
 20
137.9105663717
 30
0.0
 40
6.000000000000036
 50
269.394843676
 51
0.605156324
  0
ARC
  5
16D
  8
0
  6
CONTINUOUS
 62
     7
 10
15.5276965866
 20
67.9105663717
 30
0.0
 40
6.00000000000004
 50
359.394843676
 51
90.605156324
  0
CIRCLE
  5
16E
  8
0
  6
CONTINUOUS
 62
     7
 10
85.5276965866
 20
137.9105663717
 30
0.0
 40
3.25
  0
CIRCLE
  5
16F
  8
0
  6
CONTINUOUS
 62
     7
 10
15.5276965866
 20
67.9105663717
 30
0.0
 40
3.250000000000002
  0
CIRCLE
  5
170
  8
0
  6
CONTINUOUS
 62
     7
 10
85.5276965866
 20
67.9105663717
 30
0.0
 40
3.25
  0
CIRCLE
  5
171
  8
0
  6
CONTINUOUS
 62
     7
 10
15.5276965866
 20
137.9105663717
 30
0.0
 40
3.249999999999991
  0
LINE
  5
172
  8
0
  6
CONTINUOUS
 62
     7
 10
16.9258757221
 20
131.8702770487
 30
0.0
 11
11.0044870496
 21
130.4996205036
 31
0.0
  0
ARC
  5
173
  8
0
  6
CONTINUOUS
 62
     7
 10
15.5276965866
 20
137.9105663717
 30
0.0
 40
6.20000000000008
 50
283.0330323408
 51
351.4317249746
  0
LINE
  5
174
  8
0
  6
CONTINUOUS
 62
     7
 10
22.9276965866
 20
145.4105663717
 30
0.0
 11
21.6584985601
 21
136.9868417579
 31
0.0
  0
LINE
  5
175
  8
0
  6
CONTINUOUS
 62
     7
 10
78.1276965866
 20
145.4105663717
 30
0.0
 11
22.9276965866
 21
145.4105663717
 31
0.0
  0
LINE
  5
176
  8
0
  6
CONTINUOUS
 62
     7
 10
79.3968946131
 20
136.9868417579
 30
0.0
 11
78.1276965866
 21
145.4105663717
 31
0.0
  0
ARC
  5
177
  8
0
  6
CONTINUOUS
 62
     7
 10
85.5276965866
 20
137.9105663717
 30
0.0
 40
6.200000000000076
 50
188.5682750254
 51
256.9669676592
  0
LINE
  5
178
  8
0
  6
CONTINUOUS
 62
     7
 10
90.0509061236
 20
130.4996205036
 30
0.0
 11
84.1295174511
 21
131.8702770487
 31
0.0
  0
ARC
  5
179
  8
0
  6
CONTINUOUS
 62
     7
 10
50.5276965866
 20
102.9105663717
 30
0.0
 40
48.20000000000002
 50
28.1466911804
 51
34.9168478812
  0
LINE
  5
17A
  8
0
  6
CONTINUOUS
 62
     7
 10
93.0276965866
 20
80.1731522707
 30
0.0
 11
93.0276965866
 21
125.6479804727
 31
0.0
  0
ARC
  5
17B
  8
0
  6
CONTINUOUS
 62
     7
 10
50.5276965866
 20
102.9105663717
 30
0.0
 40
48.19999999999997
 50
325.0831521188
 51
331.8533088196
  0
LINE
  5
17C
  8
0
  6
CONTINUOUS
 62
     7
 10
84.1295174511
 20
73.9508556946
 30
0.0
 11
90.0509061236
 21
75.3215122398
 31
0.0
  0
ARC
  5
17D
  8
0
  6
CONTINUOUS
 62
     7
 10
85.5276965866
 20
67.9105663717
 30
0.0
 40
6.199999999999935
 50
103.0330323408
 51
171.4317249746
  0
LINE
  5
17E
  8
0
  6
CONTINUOUS
 62
     7
 10
78.1276965866
 20
60.4105663717
 30
0.0
 11
79.3968946131
 21
68.8342909855
 31
0.0
  0
LINE
  5
17F
  8
0
  6
CONTINUOUS
 62
     7
 10
22.9276965866
 20
60.4105663717
 30
0.0
 11
78.1276965866
 21
60.4105663717
 31
0.0
  0
LINE
  5
180
  8
0
  6
CONTINUOUS
 62
     7
 10
21.6584985601
 20
68.8342909855
 30
0.0
 11
22.9276965866
 21
60.4105663717
 31
0.0
  0
ARC
  5
181
  8
0
  6
CONTINUOUS
 62
     7
 10
15.5276965866
 20
67.9105663717
 30
0.0
 40
6.199999999999966
 50
8.5682750254
 51
76.9669676592
  0
LINE
  5
182
  8
0
  6
CONTINUOUS
 62
     7
 10
11.0044870496
 20
75.3215122398
 30
0.0
 11
16.9258757221
 21
73.9508556946
 31
0.0
  0
ARC
  5
183
  8
0
  6
CONTINUOUS
 62
     7
 10
50.5276965866
 20
102.9105663717
 30
0.0
 40
48.20000000000001
 50
208.1466911804
 51
214.9168478812
  0
LINE
  5
184
  8
0
  6
CONTINUOUS
 62
     7
 10
8.0276965866
 20
125.6479804727
 30
0.0
 11
8.0276965866
 21
80.1731522707
 31
0.0
  0
ARC
  5
185
  8
0
  6
CONTINUOUS
 62
     7
 10
50.5276965866
 20
102.9105663717
 30
0.0
 40
48.20000000000002
 50
145.0831521188
 51
151.8533088196
  0
CIRCLE
  5
186
  8
0
  6
CONTINUOUS
 62
     7
 10
50.5276965866
 20
102.9105663717
 30
0.0
 40
37.50000000000001
  0
LINE
  5
187
  8
0
  6
CONTINUOUS
 62
     7
 10
69.0276965866
 20
58.4105663717
 30
0.0
 11
69.0276965866
 21
56.4605663717
 31
0.0
  0
LINE
  5
188
  8
0
  6
CONTINUOUS
 62
     7
 10
69.0276965866
 20
56.4605663717
 30
0.0
 11
67.7276965866
 21
56.4605663717
 31
0.0
  0
LINE
  5
189
  8
0
  6
CONTINUOUS
 62
     7
 10
69.0276965866
 20
55.9605663717
 30
0.0
 11
69.0276965866
 21
54.0105663717
 31
0.0
  0
LINE
  5
18A
  8
0
  6
CONTINUOUS
 62
     7
 10
67.7276965866
 20
55.9605663717
 30
0.0
 11
69.0276965866
 21
55.9605663717
 31
0.0
  0
LINE
  5
18B
  8
0
  6
CONTINUOUS
 62
     7
 10
66.6276965866
 20
59.7105663717
 30
0.0
 11
66.6276965866
 21
52.7105663717
 31
0.0
  0
LINE
  5
18C
  8
0
  6
CONTINUOUS
 62
     7
 10
67.7276965866
 20
56.4605663717
 30
0.0
 11
67.7276965866
 21
55.9605663717
 31
0.0
  0
LINE
  5
18D
  8
0
  6
CONTINUOUS
 62
     7
 10
64.0276965866
 20
50.949040562
 30
0.0
 11
64.0276965866
 21
60.4105663717
 31
0.0
  0
LINE
  5
18E
  8
0
  6
CONTINUOUS
 62
     7
 10
37.0276965866
 20
50.949040562
 30
0.0
 11
37.0276965866
 21
60.4105663717
 31
0.0
  0
LINE
  5
18F
  8
0
  6
CONTINUOUS
 62
     7
 10
37.0276965866
 20
50.949040562
 30
0.0
 11
37.5276965866
 21
50.8358277893
 31
0.0
  0
LINE
  5
190
  8
0
  6
CONTINUOUS
 62
     7
 10
63.5276965866
 20
50.8358277893
 30
0.0
 11
64.0276965866
 21
50.949040562
 31
0.0
  0
LINE
  5
191
  8
0
  6
CONTINUOUS
 62
     7
 10
55.5276965866
 20
47.4105663717
 30
0.0
 11
55.7776965866
 21
47.4105663717
 31
0.0
  0
LINE
  5
192
  8
0
  6
CONTINUOUS
 62
     7
 10
45.2776965866
 20
47.4105663717
 30
0.0
 11
45.5276965866
 21
47.4105663717
 31
0.0
  0
LINE
  5
193
  8
0
  6
CONTINUOUS
 62
     7
 10
63.5276965866
 20
50.8358277893
 30
0.0
 11
63.5276965866
 21
60.4105663717
 31
0.0
  0
ARC
  5
194
  8
0
  6
CONTINUOUS
 62
     7
 10
50.5276965866
 20
109.4105663717
 30
0.0
 40
60.00000000000001
 50
257.4866746371
 51
282.5133253629
  0
LINE
  5
195
  8
0
  6
CONTINUOUS
 62
     7
 10
37.5276965866
 20
50.8358277893
 30
0.0
 11
37.5276965866
 21
60.4105663717
 31
0.0
  0
LINE
  5
196
  8
0
  6
CONTINUOUS
 62
     7
 10
50.5276965866
 20
47.4105663717
 30
0.0
 11
55.5276965866
 21
47.4105663717
 31
0.0
  0
LINE
  5
197
  8
0
  6
CONTINUOUS
 62
     7
 10
45.5276965866
 20
47.4105663717
 30
0.0
 11
50.5276965866
 21
47.4105663717
 31
0.0
  0
LINE
  5
198
  8
0
  6
CONTINUOUS
 62
     8
 10
67.7276965866
 20
56.4605663717
 30
0.0
 11
67.7276965866
 21
59.7105663717
 31
0.0
  0
LINE
  5
199
  8
0
  6
CONTINUOUS
 62
     8
 10
67.7276965866
 20
52.7105663717
 30
0.0
 11
67.7276965866
 21
55.9605663717
 31
0.0
  0
LINE
  5
19A
  8
0
  6
CONTINUOUS
 62
     7
 10
384.1177800253
 20
47.4105663717
 30
0.0
 11
384.1177800253
 21
10.4105663717
 31
0.0
  0
LINE
  5
19B
  8
0
  6
CONTINUOUS
 62
     7
 10
392.1177800253
 20
10.4105663717
 30
0.0
 11
392.1177800253
 21
47.4105663717
 31
0.0
  0
ARC
  5
19C
  8
0
  6
CONTINUOUS
 62
     7
 10
370.9177800253
 20
54.0105663717
 30
0.0
 40
1.300000000000011
 50
180.0
 51
270.0
  0
ARC
  5
19D
  8
0
  6
CONTINUOUS
 62
     7
 10
370.9177800253
 20
58.4105663717
 30
0.0
 40
1.300000000000011
 50
90.0
 51
180.0
  0
LINE
  5
19E
  8
0
  6
CONTINUOUS
 62
     7
 10
372.0177800253
 20
59.7105663717
 30
0.0
 11
370.9177800253
 21
59.7105663717
 31
0.0
  0
LINE
  5
19F
  8
0
  6
CONTINUOUS
 62
     7
 10
370.9177800253
 20
52.7105663717
 30
0.0
 11
372.0177800253
 21
52.7105663717
 31
0.0
  0
LINE
  5
1A0
  8
0
  6
CONTINUOUS
 62
     7
 10
374.6177800253
 20
59.2105663717
 30
0.0
 11
374.3177800253
 21
59.2105663717
 31
0.0
  0
LINE
  5
1A1
  8
0
  6
CONTINUOUS
 62
     7
 10
374.3177800253
 20
53.2105663717
 30
0.0
 11
374.6177800253
 21
53.2105663717
 31
0.0
  0
LINE
  5
1A2
  8
0
  6
CONTINUOUS
 62
     7
 10
382.8677800253
 20
49.6403474932
 30
0.0
 11
382.8677800253
 21
47.4105663717
 31
0.0
  0
LINE
  5
1A3
  8
0
  6
CONTINUOUS
 62
     7
 10
393.3677800253
 20
47.4105663717
 30
0.0
 11
393.3677800253
 21
49.6349050145
 31
0.0
  0
LINE
  5
1A4
  8
0
  6
CONTINUOUS
 62
     7
 10
374.6177800253
 20
59.7105663717
 30
0.0
 11
372.0177800253
 21
59.7105663717
 31
0.0
  0
LINE
  5
1A5
  8
0
  6
CONTINUOUS
 62
     7
 10
372.0177800253
 20
52.7105663717
 30
0.0
 11
374.6177800253
 21
52.7105663717
 31
0.0
  0
LINE
  5
1A6
  8
0
  6
CONTINUOUS
 62
     7
 10
388.1177800253
 20
10.4105663717
 30
0.0
 11
384.1177800253
 21
10.4105663717
 31
0.0
  0
LINE
  5
1A7
  8
0
  6
CONTINUOUS
 62
     7
 10
392.1177800253
 20
10.4105663717
 30
0.0
 11
388.1177800253
 21
10.4105663717
 31
0.0
  0
CIRCLE
  5
1A8
  8
0
  6
CONTINUOUS
 62
     7
 10
388.1177800253
 20
102.9105663717
 30
0.0
 40
8.000000000000057
  0
CIRCLE
  5
1A9
  8
0
  6
CONTINUOUS
 62
     7
 10
388.1177800253
 20
102.9105663717
 30
0.0
 40
29.99999999999994
  0
ARC
  5
1AA
  8
0
  6
CONTINUOUS
 62
     7
 10
422.4177800253
 20
68.6105663717
 30
0.0
 40
8.200000000000045
 50
270.0
 51
0.0
  0
LINE
  5
1AB
  8
0
  6
CONTINUOUS
 62
     7
 10
422.4177800253
 20
60.4105663717
 30
0.0
 11
353.8177800253
 21
60.4105663717
 31
0.0
  0
ARC
  5
1AC
  8
0
  6
CONTINUOUS
 62
     7
 10
353.8177800253
 20
68.6105663717
 30
0.0
 40
8.199999999999996
 50
180.0
 51
270.0
  0
LINE
  5
1AD
  8
0
  6
CONTINUOUS
 62
     7
 10
345.6177800253
 20
68.6105663717
 30
0.0
 11
345.6177800253
 21
137.2105663717
 31
0.0
  0
ARC
  5
1AE
  8
0
  6
CONTINUOUS
 62
     7
 10
353.8177800253
 20
137.2105663717
 30
0.0
 40
8.199999999999989
 50
90.0
 51
180.0
  0
LINE
  5
1AF
  8
0
  6
CONTINUOUS
 62
     7
 10
353.8177800253
 20
145.4105663717
 30
0.0
 11
422.4177800253
 21
145.4105663717
 31
0.0
  0
CIRCLE
  5
1B0
  8
0
  6
CONTINUOUS
 62
     7
 10
353.1177800253
 20
137.9105663717
 30
0.0
 40
3.25
  0
CIRCLE
  5
1B1
  8
0
  6
CONTINUOUS
 62
     7
 10
353.1177800253
 20
67.9105663717
 30
0.0
 40
3.25
  0
CIRCLE
  5
1B2
  8
0
  6
CONTINUOUS
 62
     7
 10
423.1177800253
 20
67.9105663717
 30
0.0
 40
3.250000000000057
  0
CIRCLE
  5
1B3
  8
0
  6
CONTINUOUS
 62
     7
 10
423.1177800253
 20
137.9105663717
 30
0.0
 40
3.250000000000057
  0
LINE
  5
1B4
  8
0
  6
CONTINUOUS
 62
     7
 10
430.6177800253
 20
137.2105663717
 30
0.0
 11
430.6177800253
 21
68.6105663717
 31
0.0
  0
ARC
  5
1B5
  8
0
  6
CONTINUOUS
 62
     7
 10
422.4177800253
 20
137.2105663717
 30
0.0
 40
8.200000000000045
 50
0.0
 51
90.0
  0
LINE
  5
1B6
  8
0
  6
CONTINUOUS
 62
     7
 10
369.6177800253
 20
54.0105663717
 30
0.0
 11
369.6177800253
 21
55.9605663717
 31
0.0
  0
LINE
  5
1B7
  8
0
  6
CONTINUOUS
 62
     7
 10
369.6177800253
 20
55.9605663717
 30
0.0
 11
370.9177800253
 21
55.9605663717
 31
0.0
  0
LINE
  5
1B8
  8
0
  6
CONTINUOUS
 62
     7
 10
369.6177800253
 20
56.4605663717
 30
0.0
 11
369.6177800253
 21
58.4105663717
 31
0.0
  0
LINE
  5
1B9
  8
0
  6
CONTINUOUS
 62
     7
 10
370.9177800253
 20
56.4605663717
 30
0.0
 11
369.6177800253
 21
56.4605663717
 31
0.0
  0
LINE
  5
1BA
  8
0
  6
CONTINUOUS
 62
     7
 10
370.9177800253
 20
55.9605663717
 30
0.0
 11
370.9177800253
 21
56.4605663717
 31
0.0
  0
LINE
  5
1BB
  8
0
  6
CONTINUOUS
 62
     7
 10
372.0177800253
 20
56.2105663717
 30
0.0
 11
372.0177800253
 21
59.7105663717
 31
0.0
  0
LINE
  5
1BC
  8
0
  6
CONTINUOUS
 62
     7
 10
372.0177800253
 20
52.7105663717
 30
0.0
 11
372.0177800253
 21
56.2105663717
 31
0.0
  0
ARC
  5
1BD
  8
0
  6
CONTINUOUS
 62
     7
 10
388.1177800253
 20
109.4105663717
 30
0.0
 40
60.00000000000001
 50
256.9971218371
 51
283.0028781629
  0
LINE
  5
1BE
  8
0
  6
CONTINUOUS
 62
     7
 10
374.6177800253
 20
54.9978210498
 30
0.0
 11
374.6177800253
 21
50.949040562
 31
0.0
  0
POLYLINE
  5
1BF
  8
0
  6
CONTINUOUS
 62
     7
 66
     1
 10
0.0
 20
0.0
 30
0.0
 70
   128
  0
VERTEX
  5
3DE
  8
0
  6
CONTINUOUS
 62
     7
 10
378.6177800253
 20
56.1674233085
 30
0.0
  0
VERTEX
  5
3DF
  8
0
  6
CONTINUOUS
 62
     7
 10
377.4038220903
 20
56.2828601427
 30
0.0
  0
VERTEX
  5
3E0
  8
0
  6
CONTINUOUS
 62
     7
 10
376.3002854826
 20
56.2249992017
 30
0.0
  0
VERTEX
  5
3E1
  8
0
  6
CONTINUOUS
 62
     7
 10
375.4369437874
 20
55.9977781218
 30
0.0
  0
VERTEX
  5
3E2
  8
0
  6
CONTINUOUS
 62
     7
 10
374.8584243603
 20
55.6093439673
 30
0.0
  0
VERTEX
  5
3E3
  8
0
  6
CONTINUOUS
 62
     7
 10
374.6177800253
 20
54.9978210498
 30
0.0
  0
SEQEND
  5
4FF
  8
0
  6
CONTINUOUS
 62
     7
  0
ARC
  5
1C0
  8
0
  6
CONTINUOUS
 62
     7
 10
388.1177800253
 20
115.4210501733
 30
0.0
 40
60.01035157894808
 50
260.891414695
 51
279.108585305
  0
POLYLINE
  5
1C1
  8
0
  6
CONTINUOUS
 62
     7
 66
     1
 10
0.0
 20
0.0
 30
0.0
 70
   128
  0
VERTEX
  5
3E4
  8
0
  6
CONTINUOUS
 62
     7
 10
401.6177800253
 20
54.9978210498
 30
0.0
  0
VERTEX
  5
3E5
  8
0
  6
CONTINUOUS
 62
     7
 10
401.379784607
 20
55.6063785643
 30
0.0
  0
VERTEX
  5
3E6
  8
0
  6
CONTINUOUS
 62
     7
 10
400.6509308834
 20
56.0549841554
 30
0.0
  0
VERTEX
  5
3E7
  8
0
  6
CONTINUOUS
 62
     7
 10
399.6043649408
 20
56.262690799
 30
0.0
  0
VERTEX
  5
3E8
  8
0
  6
CONTINUOUS
 62
     7
 10
398.4320046294
 20
56.2628891441
 30
0.0
  0
VERTEX
  5
3E9
  8
0
  6
CONTINUOUS
 62
     7
 10
397.6177800253
 20
56.1674233085
 30
0.0
  0
SEQEND
  5
500
  8
0
  6
CONTINUOUS
 62
     7
  0
LINE
  5
1C2
  8
0
  6
CONTINUOUS
 62
     7
 10
401.6177800253
 20
54.9978210498
 30
0.0
 11
401.6177800253
 21
50.949040562
 31
0.0
  0
LINE
  5
1C3
  8
0
  6
CONTINUOUS
 62
     7
 10
397.6177800253
 20
56.1674233085
 30
0.0
 11
397.6177800253
 21
60.4105663717
 31
0.0
  0
LINE
  5
1C4
  8
0
  6
CONTINUOUS
 62
     7
 10
401.6177800253
 20
60.4105663717
 30
0.0
 11
401.6177800253
 21
54.9978210498
 31
0.0
  0
LINE
  5
1C5
  8
0
  6
CONTINUOUS
 62
     7
 10
378.6177800253
 20
60.4105663717
 30
0.0
 11
378.6177800253
 21
56.1674233085
 31
0.0
  0
LINE
  5
1C6
  8
0
  6
CONTINUOUS
 62
     7
 10
374.6177800253
 20
54.9978210498
 30
0.0
 11
374.6177800253
 21
60.4105663717
 31
0.0
  0
LINE
  5
1C7
  8
0
  6
CONTINUOUS
 62
     7
 10
374.3177800253
 20
56.2105663717
 30
0.0
 11
374.3177800253
 21
59.2105663717
 31
0.0
  0
LINE
  5
1C8
  8
0
  6
CONTINUOUS
 62
     7
 10
374.3177800253
 20
53.2105663717
 30
0.0
 11
374.3177800253
 21
56.2105663717
 31
0.0
  0
LINE
  5
1C9
  8
0
  6
CONTINUOUS
 62
     7
 10
382.8677800253
 20
47.4105663717
 30
0.0
 11
393.3677800253
 21
47.4105663717
 31
0.0
  0
LINE
  5
1CA
  8
0
  6
CONTINUOUS
 62
     8
 10
370.9177800253
 20
55.9605663717
 30
0.0
 11
370.9177800253
 21
52.7105663717
 31
0.0
  0
LINE
  5
1CB
  8
0
  6
CONTINUOUS
 62
     8
 10
370.9177800253
 20
59.7105663717
 30
0.0
 11
370.9177800253
 21
56.4605663717
 31
0.0
  0
LINE
  5
1CC
  8
0
  6
CONTINUOUS
 62
     7
 10
276.0100884956
 20
186.225222756
 30
0.0
 11
279.0100884956
 21
186.225222756
 31
0.0
  0
LINE
  5
1CD
  8
0
  6
CONTINUOUS
 62
     7
 10
279.0100884956
 20
246.225222756
 30
0.0
 11
276.0100884956
 21
246.225222756
 31
0.0
  0
LINE
  5
1CE
  8
0
  6
CONTINUOUS
 62
     7
 10
313.0100884956
 20
224.225222756
 30
0.0
 11
279.0100884956
 21
224.225222756
 31
0.0
  0
LINE
  5
1CF
  8
0
  6
CONTINUOUS
 62
     7
 10
279.0100884956
 20
208.225222756
 30
0.0
 11
313.0100884956
 21
208.225222756
 31
0.0
  0
ARC
  5
1D0
  8
0
  6
CONTINUOUS
 62
     7
 10
340.4630090643
 20
216.225222756
 30
0.0
 40
200.0
 50
190.8069228749
 51
192.268898996
  0
ARC
  5
1D1
  8
0
  6
CONTINUOUS
 62
     7
 10
340.4630090643
 20
216.225222756
 30
0.0
 40
200.0
 50
167.731101004
 51
169.1930771251
  0
ARC
  5
1D2
  8
0
  6
CONTINUOUS
 62
     7
 10
447.1097931577
 20
224.2595640132
 30
0.0
 40
187.1182030692744
 50
170.3119786612
 51
171.5766470985
  0
LINE
  5
1D3
  8
0
  6
CONTINUOUS
 62
     7
 10
262.660143946
 20
258.725222756
 30
0.0
 11
262.660143946
 21
255.748432293
 31
0.0
  0
LINE
  5
1D4
  8
0
  6
CONTINUOUS
 62
     7
 10
264.3664664456
 20
258.725222756
 30
0.0
 11
262.660143946
 21
258.725222756
 31
0.0
  0
POLYLINE
  5
1D5
  8
0
  6
CONTINUOUS
 62
     7
 66
     1
 10
0.0
 20
0.0
 30
0.0
 70
   128
  0
VERTEX
  5
3EA
  8
0
  6
CONTINUOUS
 62
     7
 10
264.3664664456
 20
250.525222756
 30
0.0
  0
VERTEX
  5
3EB
  8
0
  6
CONTINUOUS
 62
     7
 10
264.5873189778
 20
251.8762009045
 30
0.0
  0
VERTEX
  5
3EC
  8
0
  6
CONTINUOUS
 62
     7
 10
264.7633605991
 20
253.1965406163
 30
0.0
  0
VERTEX
  5
3ED
  8
0
  6
CONTINUOUS
 62
     7
 10
264.8882709887
 20
254.448882834
 30
0.0
  0
VERTEX
  5
3EE
  8
0
  6
CONTINUOUS
 62
     7
 10
264.958336197
 20
255.5956465063
 30
0.0
  0
VERTEX
  5
3EF
  8
0
  6
CONTINUOUS
 62
     7
 10
264.9705148929
 20
256.5844771404
 30
0.0
  0
VERTEX
  5
3F0
  8
0
  6
CONTINUOUS
 62
     7
 10
264.9269156416
 20
257.4096826226
 30
0.0
  0
VERTEX
  5
3F1
  8
0
  6
CONTINUOUS
 62
     7
 10
264.8292346102
 20
258.0412523212
 30
0.0
  0
VERTEX
  5
3F2
  8
0
  6
CONTINUOUS
 62
     7
 10
264.6813308842
 20
258.4734024235
 30
0.0
  0
VERTEX
  5
3F3
  8
0
  6
CONTINUOUS
 62
     7
 10
264.3664664456
 20
258.725222756
 30
0.0
  0
SEQEND
  5
501
  8
0
  6
CONTINUOUS
 62
     7
  0
ARC
  5
1D6
  8
0
  6
CONTINUOUS
 62
     7
 10
456.7651670649
 20
216.225222756
 30
0.0
 40
195.4322133119308
 50
169.8917533355
 51
171.8812367166
  0
ARC
  5
1D7
  8
0
  6
CONTINUOUS
 62
     7
 10
272.6889051641
 20
256.2658767051
 30
0.0
 40
15.59094935838679
 50
226.7693543648
 51
232.9339067285
  0
POLYLINE
  5
1D8
  8
0
  6
CONTINUOUS
 62
     7
 66
     1
 10
0.0
 20
0.0
 30
0.0
 70
   128
  0
VERTEX
  5
3F4
  8
0
  6
CONTINUOUS
 62
     7
 10
262.0100884956
 20
245.2255574185
 30
0.0
  0
VERTEX
  5
3F5
  8
0
  6
CONTINUOUS
 62
     7
 10
262.2124842878
 20
245.3255108524
 30
0.0
  0
VERTEX
  5
3F6
  8
0
  6
CONTINUOUS
 62
     7
 10
262.4393239671
 20
245.5966058074
 30
0.0
  0
VERTEX
  5
3F7
  8
0
  6
CONTINUOUS
 62
     7
 10
262.6841070806
 20
246.0309025701
 30
0.0
  0
VERTEX
  5
3F8
  8
0
  6
CONTINUOUS
 62
     7
 10
262.9399128989
 20
246.612950468
 30
0.0
  0
VERTEX
  5
3F9
  8
0
  6
CONTINUOUS
 62
     7
 10
263.2045247058
 20
247.3418691078
 30
0.0
  0
VERTEX
  5
3FA
  8
0
  6
CONTINUOUS
 62
     7
 10
263.4659909661
 20
248.1863823696
 30
0.0
  0
VERTEX
  5
3FB
  8
0
  6
CONTINUOUS
 62
     7
 10
263.7184480583
 20
249.1312188541
 30
0.0
  0
VERTEX
  5
3FC
  8
0
  6
CONTINUOUS
 62
     7
 10
263.9527692997
 20
250.1432823299
 30
0.0
  0
VERTEX
  5
3FD
  8
0
  6
CONTINUOUS
 62
     7
 10
264.1586483512
 20
251.179343285
 30
0.0
  0
VERTEX
  5
3FE
  8
0
  6
CONTINUOUS
 62
     7
 10
264.3332372864
 20
252.2222463829
 30
0.0
  0
VERTEX
  5
3FF
  8
0
  6
CONTINUOUS
 62
     7
 10
264.4666771123
 20
253.2111502139
 30
0.0
  0
VERTEX
  5
400
  8
0
  6
CONTINUOUS
 62
     7
 10
264.560464264
 20
254.1466866216
 30
0.0
  0
VERTEX
  5
401
  8
0
  6
CONTINUOUS
 62
     7
 10
264.6097321444
 20
254.9741408008
 30
0.0
  0
VERTEX
  5
402
  8
0
  6
CONTINUOUS
 62
     7
 10
264.6168682996
 20
255.699554241
 30
0.0
  0
VERTEX
  5
403
  8
0
  6
CONTINUOUS
 62
     7
 10
264.5819804103
 20
256.2903031708
 30
0.0
  0
VERTEX
  5
404
  8
0
  6
CONTINUOUS
 62
     7
 10
264.5073575012
 20
256.7459754496
 30
0.0
  0
VERTEX
  5
405
  8
0
  6
CONTINUOUS
 62
     7
 10
264.3945699956
 20
257.0536264296
 30
0.0
  0
VERTEX
  5
406
  8
0
  6
CONTINUOUS
 62
     7
 10
264.2478607456
 20
257.207416834
 30
0.0
  0
VERTEX
  5
407
  8
0
  6
CONTINUOUS
 62
     7
 10
264.067224001
 20
257.2015625986
 30
0.0
  0
VERTEX
  5
408
  8
0
  6
CONTINUOUS
 62
     7
 10
263.8611729288
 20
257.0358273772
 30
0.0
  0
VERTEX
  5
409
  8
0
  6
CONTINUOUS
 62
     7
 10
263.628089514
 20
256.702601048
 30
0.0
  0
VERTEX
  5
40A
  8
0
  6
CONTINUOUS
 62
     7
 10
263.380711933
 20
256.2173272122
 30
0.0
  0
VERTEX
  5
40B
  8
0
  6
CONTINUOUS
 62
     7
 10
263.1187014354
 20
255.5735632422
 30
0.0
  0
VERTEX
  5
40C
  8
0
  6
CONTINUOUS
 62
     7
 10
262.8559489397
 20
254.8024409912
 30
0.0
  0
VERTEX
  5
40D
  8
0
  6
CONTINUOUS
 62
     7
 10
262.5967874781
 20
253.9125054391
 30
0.0
  0
VERTEX
  5
40E
  8
0
  6
CONTINUOUS
 62
     7
 10
262.3517315445
 20
252.9384995377
 30
0.0
  0
VERTEX
  5
40F
  8
0
  6
CONTINUOUS
 62
     7
 10
262.0100884956
 20
251.2885933998
 30
0.0
  0
SEQEND
  5
502
  8
0
  6
CONTINUOUS
 62
     7
  0
LINE
  5
1D9
  8
0
  6
CONTINUOUS
 62
     7
 10
262.0100884956
 20
251.6698039584
 30
0.0
 11
262.0100884956
 21
251.2885933998
 31
0.0
  0
LINE
  5
1DA
  8
0
  6
CONTINUOUS
 62
     7
 10
262.0100884956
 20
245.2255574185
 30
0.0
 11
262.0100884956
 21
244.9062738751
 31
0.0
  0
LINE
  5
1DB
  8
0
  6
CONTINUOUS
 62
     7
 10
264.3664664456
 20
258.725222756
 30
0.0
 11
276.0100884956
 21
258.725222756
 31
0.0
  0
LINE
  5
1DC
  8
0
  6
CONTINUOUS
 62
     7
 10
276.0100884956
 20
250.525222756
 30
0.0
 11
264.3664664456
 21
250.525222756
 31
0.0
  0
LINE
  5
1DD
  8
0
  6
CONTINUOUS
 62
     7
 10
276.0100884956
 20
258.725222756
 30
0.0
 11
276.0100884956
 21
250.525222756
 31
0.0
  0
LINE
  5
1DE
  8
0
  6
CONTINUOUS
 62
     7
 10
264.3664664456
 20
181.925222756
 30
0.0
 11
276.0100884956
 21
181.925222756
 31
0.0
  0
ARC
  5
1DF
  8
0
  6
CONTINUOUS
 62
     7
 10
456.7651670649
 20
216.225222756
 30
0.0
 40
195.4322133119308
 50
188.1187632834
 51
190.1082466645
  0
LINE
  5
1E0
  8
0
  6
CONTINUOUS
 62
     7
 10
263.2916805093
 20
188.625222756
 30
0.0
 11
262.0100884956
 21
188.625222756
 31
0.0
  0
LINE
  5
1E1
  8
0
  6
CONTINUOUS
 62
     7
 10
263.2916805093
 20
243.825222756
 30
0.0
 11
262.0100884956
 21
243.825222756
 31
0.0
  0
LINE
  5
1E2
  8
0
  6
CONTINUOUS
 62
     7
 10
276.0100884956
 20
181.925222756
 30
0.0
 11
276.0100884956
 21
250.525222756
 31
0.0
  0
LINE
  5
1E3
  8
0
  6
CONTINUOUS
 62
     7
 10
262.0100884956
 20
188.625222756
 30
0.0
 11
262.0100884956
 21
243.825222756
 31
0.0
  0
LINE
  5
1E4
  8
0
  6
CONTINUOUS
 62
     7
 10
262.0100884956
 20
243.825222756
 30
0.0
 11
262.0100884956
 21
244.9062738751
 31
0.0
  0
ARC
  5
1E5
  8
0
  6
CONTINUOUS
 62
     7
 10
272.6889051641
 20
176.1845688069
 30
0.0
 40
15.5909493583601
 50
127.0660932715
 51
133.2306456352
  0
POLYLINE
  5
1E6
  8
0
  6
CONTINUOUS
 62
     7
 66
     1
 10
0.0
 20
0.0
 30
0.0
 70
   128
  0
VERTEX
  5
410
  8
0
  6
CONTINUOUS
 62
     7
 10
264.3664664456
 20
173.725222756
 30
0.0
  0
VERTEX
  5
411
  8
0
  6
CONTINUOUS
 62
     7
 10
264.5873189778
 20
173.8380871432
 30
0.0
  0
VERTEX
  5
412
  8
0
  6
CONTINUOUS
 62
     7
 10
264.7633605991
 20
174.172541872
 30
0.0
  0
VERTEX
  5
413
  8
0
  6
CONTINUOUS
 62
     7
 10
264.8882709887
 20
174.725889443
 30
0.0
  0
VERTEX
  5
414
  8
0
  6
CONTINUOUS
 62
     7
 10
264.958336197
 20
175.4807830602
 30
0.0
  0
VERTEX
  5
415
  8
0
  6
CONTINUOUS
 62
     7
 10
264.9705148929
 20
176.4015008729
 30
0.0
  0
VERTEX
  5
416
  8
0
  6
CONTINUOUS
 62
     7
 10
264.9269156416
 20
177.4705384411
 30
0.0
  0
VERTEX
  5
417
  8
0
  6
CONTINUOUS
 62
     7
 10
264.8292346102
 20
178.6485667594
 30
0.0
  0
VERTEX
  5
418
  8
0
  6
CONTINUOUS
 62
     7
 10
264.6813308842
 20
179.9086811686
 30
0.0
  0
VERTEX
  5
419
  8
0
  6
CONTINUOUS
 62
     7
 10
264.3664664456
 20
181.925222756
 30
0.0
  0
SEQEND
  5
503
  8
0
  6
CONTINUOUS
 62
     7
  0
LINE
  5
1E7
  8
0
  6
CONTINUOUS
 62
     7
 10
262.660143946
 20
173.725222756
 30
0.0
 11
264.3664664456
 21
173.725222756
 31
0.0
  0
LINE
  5
1E8
  8
0
  6
CONTINUOUS
 62
     7
 10
262.660143946
 20
176.702013219
 30
0.0
 11
262.660143946
 21
173.725222756
 31
0.0
  0
ARC
  5
1E9
  8
0
  6
CONTINUOUS
 62
     7
 10
447.1097931583
 20
208.1908814989
 30
0.0
 40
187.1182030698839
 50
188.4233529015
 51
189.6880213388
  0
POLYLINE
  5
1EA
  8
0
  6
CONTINUOUS
 62
     7
 66
     1
 10
0.0
 20
0.0
 30
0.0
 70
   128
  0
VERTEX
  5
41A
  8
0
  6
CONTINUOUS
 62
     7
 10
262.0100884956
 20
181.1618521122
 30
0.0
  0
VERTEX
  5
41B
  8
0
  6
CONTINUOUS
 62
     7
 10
262.2124842878
 20
180.1361809629
 30
0.0
  0
VERTEX
  5
41C
  8
0
  6
CONTINUOUS
 62
     7
 10
262.4393239671
 20
179.1470814601
 30
0.0
  0
VERTEX
  5
41D
  8
0
  6
CONTINUOUS
 62
     7
 10
262.6841070806
 20
178.2231693627
 30
0.0
  0
VERTEX
  5
41E
  8
0
  6
CONTINUOUS
 62
     7
 10
262.9399128989
 20
177.3876526471
 30
0.0
  0
VERTEX
  5
41F
  8
0
  6
CONTINUOUS
 62
     7
 10
263.2045247058
 20
176.6522011036
 30
0.0
  0
VERTEX
  5
420
  8
0
  6
CONTINUOUS
 62
     7
 10
263.4659909661
 20
176.0516892337
 30
0.0
  0
VERTEX
  5
421
  8
0
  6
CONTINUOUS
 62
     7
 10
263.7184480583
 20
175.6031692397
 30
0.0
  0
VERTEX
  5
422
  8
0
  6
CONTINUOUS
 62
     7
 10
263.9527692997
 20
175.3235785008
 30
0.0
  0
VERTEX
  5
423
  8
0
  6
CONTINUOUS
 62
     7
 10
264.1586483512
 20
175.2260774341
 30
0.0
  0
VERTEX
  5
424
  8
0
  6
CONTINUOUS
 62
     7
 10
264.3332372864
 20
175.3086406441
 30
0.0
  0
VERTEX
  5
425
  8
0
  6
CONTINUOUS
 62
     7
 10
264.4666771123
 20
175.5641368145
 30
0.0
  0
VERTEX
  5
426
  8
0
  6
CONTINUOUS
 62
     7
 10
264.560464264
 20
175.984512033
 30
0.0
  0
VERTEX
  5
427
  8
0
  6
CONTINUOUS
 62
     7
 10
264.6097321444
 20
176.5414370721
 30
0.0
  0
VERTEX
  5
428
  8
0
  6
CONTINUOUS
 62
     7
 10
264.6168682996
 20
177.2276787897
 30
0.0
  0
VERTEX
  5
429
  8
0
  6
CONTINUOUS
 62
     7
 10
264.5819804103
 20
178.0099729677
 30
0.0
  0
VERTEX
  5
42A
  8
0
  6
CONTINUOUS
 62
     7
 10
264.5073575012
 20
178.8754802816
 30
0.0
  0
VERTEX
  5
42B
  8
0
  6
CONTINUOUS
 62
     7
 10
264.3945699956
 20
179.8028632993
 30
0.0
  0
VERTEX
  5
42C
  8
0
  6
CONTINUOUS
 62
     7
 10
264.2478607456
 20
180.7633201545
 30
0.0
  0
VERTEX
  5
42D
  8
0
  6
CONTINUOUS
 62
     7
 10
264.067224001
 20
181.7515287082
 30
0.0
  0
VERTEX
  5
42E
  8
0
  6
CONTINUOUS
 62
     7
 10
263.8611729288
 20
182.7208410013
 30
0.0
  0
VERTEX
  5
42F
  8
0
  6
CONTINUOUS
 62
     7
 10
263.628089514
 20
183.6730505532
 30
0.0
  0
VERTEX
  5
430
  8
0
  6
CONTINUOUS
 62
     7
 10
263.380711933
 20
184.553719879
 30
0.0
  0
VERTEX
  5
431
  8
0
  6
CONTINUOUS
 62
     7
 10
263.1187014354
 20
185.3586290375
 30
0.0
  0
VERTEX
  5
432
  8
0
  6
CONTINUOUS
 62
     7
 10
262.8559489397
 20
186.0422249044
 30
0.0
  0
VERTEX
  5
433
  8
0
  6
CONTINUOUS
 62
     7
 10
262.5967874781
 20
186.5890841279
 30
0.0
  0
VERTEX
  5
434
  8
0
  6
CONTINUOUS
 62
     7
 10
262.3517315445
 20
186.9754125502
 30
0.0
  0
VERTEX
  5
435
  8
0
  6
CONTINUOUS
 62
     7
 10
262.0100884956
 20
187.2248880935
 30
0.0
  0
SEQEND
  5
504
  8
0
  6
CONTINUOUS
 62
     7
  0
LINE
  5
1EB
  8
0
  6
CONTINUOUS
 62
     7
 10
262.0100884956
 20
187.2248880935
 30
0.0
 11
262.0100884956
 21
187.5441716369
 31
0.0
  0
LINE
  5
1EC
  8
0
  6
CONTINUOUS
 62
     7
 10
262.0100884956
 20
180.7806415536
 30
0.0
 11
262.0100884956
 21
181.1618521122
 31
0.0
  0
LINE
  5
1ED
  8
0
  6
CONTINUOUS
 62
     7
 10
262.0100884956
 20
187.5441716369
 30
0.0
 11
262.0100884956
 21
188.625222756
 31
0.0
  0
LINE
  5
1EE
  8
0
  6
CONTINUOUS
 62
     7
 10
276.0100884956
 20
173.725222756
 30
0.0
 11
264.3664664456
 21
173.725222756
 31
0.0
  0
LINE
  5
1EF
  8
0
  6
CONTINUOUS
 62
     7
 10
276.0100884956
 20
181.925222756
 30
0.0
 11
276.0100884956
 21
173.725222756
 31
0.0
  0
LINE
  5
1F0
  8
0
  6
CONTINUOUS
 62
     7
 10
262.0100884956
 20
251.2885933998
 30
0.0
 11
262.0100884956
 21
245.2255574185
 31
0.0
  0
LINE
  5
1F1
  8
0
  6
CONTINUOUS
 62
     7
 10
262.0100884956
 20
187.2248880935
 30
0.0
 11
262.0100884956
 21
181.1618521122
 31
0.0
  0
LINE
  5
1F2
  8
0
  6
CONTINUOUS
 62
     7
 10
279.0100884956
 20
186.225222756
 30
0.0
 11
279.0100884956
 21
246.225222756
 31
0.0
  0
LINE
  5
1F3
  8
0
  6
CONTINUOUS
 62
     7
 10
262.660143946
 20
255.748432293
 30
0.0
 11
262.0100884956
 21
255.748432293
 31
0.0
  0
LINE
  5
1F4
  8
0
  6
CONTINUOUS
 62
     7
 10
262.0100884956
 20
251.6698039584
 30
0.0
 11
262.0100884956
 21
255.748432293
 31
0.0
  0
LINE
  5
1F5
  8
0
  6
CONTINUOUS
 62
     7
 10
262.660143946
 20
176.702013219
 30
0.0
 11
262.0100884956
 21
176.702013219
 31
0.0
  0
LINE
  5
1F6
  8
0
  6
CONTINUOUS
 62
     7
 10
262.0100884956
 20
176.702013219
 30
0.0
 11
262.0100884956
 21
180.7806415536
 31
0.0
  0
LINE
  5
1F7
  8
0
  6
CONTINUOUS
 62
     7
 10
262.660143946
 20
258.725222756
 30
0.0
 11
262.0100884956
 21
258.725222756
 31
0.0
  0
LINE
  5
1F8
  8
0
  6
CONTINUOUS
 62
     7
 10
262.0100884956
 20
255.748432293
 30
0.0
 11
262.0100884956
 21
258.725222756
 31
0.0
  0
LINE
  5
1F9
  8
0
  6
CONTINUOUS
 62
     7
 10
262.660143946
 20
173.725222756
 30
0.0
 11
262.0100884956
 21
173.725222756
 31
0.0
  0
LINE
  5
1FA
  8
0
  6
CONTINUOUS
 62
     7
 10
262.0100884956
 20
173.725222756
 30
0.0
 11
262.0100884956
 21
176.702013219
 31
0.0
  0
LINE
  5
1FB
  8
0
  6
CONTINUOUS
 62
     7
 10
313.0100884956
 20
224.225222756
 30
0.0
 11
313.0100884956
 21
208.225222756
 31
0.0
  0
ARC
  5
1FC
  8
0
  6
CONTINUOUS
 62
     7
 10
330.7865009398
 20
224.2629763128
 30
0.0
 40
187.0967960209538
 50
170.3119195882
 51
172.1467954868
  0
ARC
  5
1FD
  8
0
  6
CONTINUOUS
 62
     7
 10
154.9100752458
 20
247.5980729602
 30
0.0
 40
9.724560197945337
 50
166.7494088549
 51
194.9191989765
  0
ARC
  5
1FE
  8
0
  6
CONTINUOUS
 62
     7
 10
156.0806148229
 20
255.8920494511
 30
0.0
 40
15.10815230113242
 50
225.6177087515
 51
233.0057964162
  0
ARC
  5
1FF
  8
0
  6
CONTINUOUS
 62
     7
 10
340.4630090643
 20
216.225222756
 30
0.0
 40
195.4322133119308
 50
171.8812367166
 51
188.1187632834
  0
ARC
  5
200
  8
0
  6
CONTINUOUS
 62
     7
 10
156.0806148229
 20
176.558396061
 30
0.0
 40
15.10815230112816
 50
126.9942035838
 51
134.3822912485
  0
POLYLINE
  5
201
  8
0
  6
CONTINUOUS
 62
     7
 66
     1
 10
0.0
 20
0.0
 30
0.0
 70
   128
  0
VERTEX
  5
436
  8
0
  6
CONTINUOUS
 62
     7
 10
145.4444130482
 20
182.6234018915
 30
0.0
  0
VERTEX
  5
437
  8
0
  6
CONTINUOUS
 62
     7
 10
145.3264679833
 20
183.5907324311
 30
0.0
  0
VERTEX
  5
438
  8
0
  6
CONTINUOUS
 62
     7
 10
145.2470634904
 20
184.4981185857
 30
0.0
  0
VERTEX
  5
439
  8
0
  6
CONTINUOUS
 62
     7
 10
145.2093219973
 20
185.3187369448
 30
0.0
  0
VERTEX
  5
43A
  8
0
  6
CONTINUOUS
 62
     7
 10
145.2139464756
 20
186.029257874
 30
0.0
  0
VERTEX
  5
43B
  8
0
  6
CONTINUOUS
 62
     7
 10
145.2607697911
 20
186.6026345823
 30
0.0
  0
VERTEX
  5
43C
  8
0
  6
CONTINUOUS
 62
     7
 10
145.347527368
 20
187.0327143146
 30
0.0
  0
VERTEX
  5
43D
  8
0
  6
CONTINUOUS
 62
     7
 10
145.5133312982
 20
187.3560247295
 30
0.0
  0
SEQEND
  5
505
  8
0
  6
CONTINUOUS
 62
     7
  0
ARC
  5
202
  8
0
  6
CONTINUOUS
 62
     7
 10
330.7865009397
 20
208.1874691992
 30
0.0
 40
187.0967960208803
 50
187.8532045132
 51
189.6880804118
  0
LINE
  5
203
  8
0
  6
CONTINUOUS
 62
     7
 10
146.3579859454
 20
173.725222756
 30
0.0
 11
146.3579859454
 21
176.702013219
 31
0.0
  0
LINE
  5
204
  8
0
  6
CONTINUOUS
 62
     7
 10
145.0307957524
 20
173.725222756
 30
0.0
 11
146.3579859454
 21
173.725222756
 31
0.0
  0
LINE
  5
205
  8
0
  6
CONTINUOUS
 62
     7
 10
146.3579859454
 20
258.725222756
 30
0.0
 11
145.0307957524
 21
258.725222756
 31
0.0
  0
LINE
  5
206
  8
0
  6
CONTINUOUS
 62
     7
 10
146.3579859454
 20
255.748432293
 30
0.0
 11
146.3579859454
 21
258.725222756
 31
0.0
  0
LINE
  5
207
  8
0
  6
CONTINUOUS
 62
     7
 10
144.0100884956
 20
253.725222756
 30
0.0
 11
144.0100884956
 21
178.725222756
 31
0.0
  0
LINE
  5
208
  8
0
  6
CONTINUOUS
 62
     7
 10
145.5133312982
 20
245.0944207825
 30
0.0
 11
158.9100884956
 21
245.0944207825
 31
0.0
  0
LINE
  5
209
  8
0
  6
CONTINUOUS
 62
     7
 10
146.9895225087
 20
243.825222756
 30
0.0
 11
158.9100884956
 21
243.825222756
 31
0.0
  0
LINE
  5
20A
  8
0
  6
CONTINUOUS
 62
     7
 10
158.9100884956
 20
243.825222756
 30
0.0
 11
158.9100884956
 21
245.0944207825
 31
0.0
  0
LINE
  5
20B
  8
0
  6
CONTINUOUS
 62
     7
 10
146.9895225087
 20
188.625222756
 30
0.0
 11
158.9100884956
 21
188.625222756
 31
0.0
  0
LINE
  5
20C
  8
0
  6
CONTINUOUS
 62
     7
 10
158.9100884956
 20
188.625222756
 30
0.0
 11
158.9100884956
 21
243.825222756
 31
0.0
  0
LINE
  5
20D
  8
0
  6
CONTINUOUS
 62
     7
 10
145.5133312982
 20
187.3560247295
 30
0.0
 11
158.9100884956
 21
187.3560247295
 31
0.0
  0
LINE
  5
20E
  8
0
  6
CONTINUOUS
 62
     7
 10
158.9100884956
 20
187.3560247295
 30
0.0
 11
158.9100884956
 21
188.625222756
 31
0.0
  0
LINE
  5
20F
  8
0
  6
CONTINUOUS
 62
     7
 10
145.4444130482
 20
249.8270436205
 30
0.0
 11
158.9100884956
 21
249.8270436205
 31
0.0
  0
LINE
  5
210
  8
0
  6
CONTINUOUS
 62
     7
 10
158.9100884956
 20
245.0944207825
 30
0.0
 11
158.9100884956
 21
249.8270436205
 31
0.0
  0
LINE
  5
211
  8
0
  6
CONTINUOUS
 62
     7
 10
145.4444130482
 20
182.6234018915
 30
0.0
 11
158.9100884956
 21
182.6234018915
 31
0.0
  0
LINE
  5
212
  8
0
  6
CONTINUOUS
 62
     7
 10
158.9100884956
 20
182.6234018915
 30
0.0
 11
158.9100884956
 21
187.3560247295
 31
0.0
  0
LINE
  5
213
  8
0
  6
CONTINUOUS
 62
     7
 10
146.3579859454
 20
255.748432293
 30
0.0
 11
158.9100884956
 21
255.748432293
 31
0.0
  0
LINE
  5
214
  8
0
  6
CONTINUOUS
 62
     7
 10
158.9100884956
 20
249.8270436205
 30
0.0
 11
158.9100884956
 21
255.748432293
 31
0.0
  0
LINE
  5
215
  8
0
  6
CONTINUOUS
 62
     7
 10
146.3579859454
 20
176.702013219
 30
0.0
 11
158.9100884956
 21
176.702013219
 31
0.0
  0
LINE
  5
216
  8
0
  6
CONTINUOUS
 62
     7
 10
158.9100884956
 20
176.702013219
 30
0.0
 11
158.9100884956
 21
182.6234018915
 31
0.0
  0
LINE
  5
217
  8
0
  6
CONTINUOUS
 62
     7
 10
146.3579859454
 20
258.725222756
 30
0.0
 11
158.9100884956
 21
258.725222756
 31
0.0
  0
LINE
  5
218
  8
0
  6
CONTINUOUS
 62
     7
 10
158.9100884956
 20
255.748432293
 30
0.0
 11
158.9100884956
 21
258.725222756
 31
0.0
  0
LINE
  5
219
  8
0
  6
CONTINUOUS
 62
     7
 10
146.3579859454
 20
173.725222756
 30
0.0
 11
158.9100884956
 21
173.725222756
 31
0.0
  0
LINE
  5
21A
  8
0
  6
CONTINUOUS
 62
     7
 10
158.9100884956
 20
173.725222756
 30
0.0
 11
158.9100884956
 21
176.702013219
 31
0.0
  0
LINE
  5
21B
  8
0
  6
CONTINUOUS
 62
     7
 10
158.9100884956
 20
243.825222756
 30
0.0
 11
172.0100884956
 21
243.825222756
 31
0.0
  0
LINE
  5
21C
  8
0
  6
CONTINUOUS
 62
     7
 10
158.9100884956
 20
245.0944207825
 30
0.0
 11
172.0100884956
 21
245.0944207825
 31
0.0
  0
LINE
  5
21D
  8
0
  6
CONTINUOUS
 62
     7
 10
172.0100884956
 20
243.825222756
 30
0.0
 11
172.0100884956
 21
245.0944207825
 31
0.0
  0
LINE
  5
21E
  8
0
  6
CONTINUOUS
 62
     7
 10
158.9100884956
 20
188.625222756
 30
0.0
 11
172.0100884956
 21
188.625222756
 31
0.0
  0
LINE
  5
21F
  8
0
  6
CONTINUOUS
 62
     7
 10
172.0100884956
 20
188.625222756
 30
0.0
 11
172.0100884956
 21
243.825222756
 31
0.0
  0
LINE
  5
220
  8
0
  6
CONTINUOUS
 62
     7
 10
158.9100884956
 20
187.3560247295
 30
0.0
 11
172.0100884956
 21
187.3560247295
 31
0.0
  0
LINE
  5
221
  8
0
  6
CONTINUOUS
 62
     7
 10
172.0100884956
 20
187.3560247295
 30
0.0
 11
172.0100884956
 21
188.625222756
 31
0.0
  0
LINE
  5
222
  8
0
  6
CONTINUOUS
 62
     7
 10
158.9100884956
 20
249.8270436205
 30
0.0
 11
172.0100884956
 21
249.8270436205
 31
0.0
  0
LINE
  5
223
  8
0
  6
CONTINUOUS
 62
     7
 10
172.0100884956
 20
245.0944207825
 30
0.0
 11
172.0100884956
 21
249.8270436205
 31
0.0
  0
LINE
  5
224
  8
0
  6
CONTINUOUS
 62
     7
 10
158.9100884956
 20
182.6234018915
 30
0.0
 11
172.0100884956
 21
182.6234018915
 31
0.0
  0
LINE
  5
225
  8
0
  6
CONTINUOUS
 62
     7
 10
172.0100884956
 20
182.6234018915
 30
0.0
 11
172.0100884956
 21
187.3560247295
 31
0.0
  0
LINE
  5
226
  8
0
  6
CONTINUOUS
 62
     7
 10
158.9100884956
 20
255.748432293
 30
0.0
 11
172.0100884956
 21
255.748432293
 31
0.0
  0
LINE
  5
227
  8
0
  6
CONTINUOUS
 62
     7
 10
172.0100884956
 20
249.8270436205
 30
0.0
 11
172.0100884956
 21
255.748432293
 31
0.0
  0
LINE
  5
228
  8
0
  6
CONTINUOUS
 62
     7
 10
158.9100884956
 20
176.702013219
 30
0.0
 11
172.0100884956
 21
176.702013219
 31
0.0
  0
LINE
  5
229
  8
0
  6
CONTINUOUS
 62
     7
 10
172.0100884956
 20
176.702013219
 30
0.0
 11
172.0100884956
 21
182.6234018915
 31
0.0
  0
LINE
  5
22A
  8
0
  6
CONTINUOUS
 62
     7
 10
158.9100884956
 20
258.725222756
 30
0.0
 11
172.0100884956
 21
258.725222756
 31
0.0
  0
LINE
  5
22B
  8
0
  6
CONTINUOUS
 62
     7
 10
172.0100884956
 20
255.748432293
 30
0.0
 11
172.0100884956
 21
258.725222756
 31
0.0
  0
LINE
  5
22C
  8
0
  6
CONTINUOUS
 62
     7
 10
158.9100884956
 20
173.725222756
 30
0.0
 11
172.0100884956
 21
173.725222756
 31
0.0
  0
LINE
  5
22D
  8
0
  6
CONTINUOUS
 62
     7
 10
172.0100884956
 20
173.725222756
 30
0.0
 11
172.0100884956
 21
176.702013219
 31
0.0
  0
LINE
  5
22E
  8
0
  6
CONTINUOUS
 62
     7
 10
172.0100884956
 20
243.825222756
 30
0.0
 11
175.0100884956
 21
243.825222756
 31
0.0
  0
LINE
  5
22F
  8
0
  6
CONTINUOUS
 62
     7
 10
172.0100884956
 20
245.0944207825
 30
0.0
 11
175.0100884956
 21
245.0944207825
 31
0.0
  0
LINE
  5
230
  8
0
  6
CONTINUOUS
 62
     7
 10
175.0100884956
 20
243.825222756
 30
0.0
 11
175.0100884956
 21
245.0944207825
 31
0.0
  0
LINE
  5
231
  8
0
  6
CONTINUOUS
 62
     7
 10
172.0100884956
 20
188.625222756
 30
0.0
 11
175.0100884956
 21
188.625222756
 31
0.0
  0
LINE
  5
232
  8
0
  6
CONTINUOUS
 62
     7
 10
175.0100884956
 20
188.625222756
 30
0.0
 11
175.0100884956
 21
243.825222756
 31
0.0
  0
LINE
  5
233
  8
0
  6
CONTINUOUS
 62
     7
 10
172.0100884956
 20
187.3560247295
 30
0.0
 11
175.0100884956
 21
187.3560247295
 31
0.0
  0
LINE
  5
234
  8
0
  6
CONTINUOUS
 62
     7
 10
175.0100884956
 20
187.3560247295
 30
0.0
 11
175.0100884956
 21
188.625222756
 31
0.0
  0
LINE
  5
235
  8
0
  6
CONTINUOUS
 62
     7
 10
172.0100884956
 20
249.8270436205
 30
0.0
 11
175.0100884956
 21
249.8270436205
 31
0.0
  0
LINE
  5
236
  8
0
  6
CONTINUOUS
 62
     7
 10
175.0100884956
 20
245.0944207825
 30
0.0
 11
175.0100884956
 21
249.8270436205
 31
0.0
  0
LINE
  5
237
  8
0
  6
CONTINUOUS
 62
     7
 10
172.0100884956
 20
182.6234018915
 30
0.0
 11
175.0100884956
 21
182.6234018915
 31
0.0
  0
LINE
  5
238
  8
0
  6
CONTINUOUS
 62
     7
 10
175.0100884956
 20
182.6234018915
 30
0.0
 11
175.0100884956
 21
187.3560247295
 31
0.0
  0
LINE
  5
239
  8
0
  6
CONTINUOUS
 62
     7
 10
172.0100884956
 20
255.748432293
 30
0.0
 11
175.0100884956
 21
255.748432293
 31
0.0
  0
LINE
  5
23A
  8
0
  6
CONTINUOUS
 62
     7
 10
175.0100884956
 20
249.8270436205
 30
0.0
 11
175.0100884956
 21
255.748432293
 31
0.0
  0
LINE
  5
23B
  8
0
  6
CONTINUOUS
 62
     7
 10
172.0100884956
 20
176.702013219
 30
0.0
 11
175.0100884956
 21
176.702013219
 31
0.0
  0
LINE
  5
23C
  8
0
  6
CONTINUOUS
 62
     7
 10
175.0100884956
 20
176.702013219
 30
0.0
 11
175.0100884956
 21
182.6234018915
 31
0.0
  0
LINE
  5
23D
  8
0
  6
CONTINUOUS
 62
     7
 10
172.0100884956
 20
258.725222756
 30
0.0
 11
175.0100884956
 21
258.725222756
 31
0.0
  0
LINE
  5
23E
  8
0
  6
CONTINUOUS
 62
     7
 10
175.0100884956
 20
255.748432293
 30
0.0
 11
175.0100884956
 21
258.725222756
 31
0.0
  0
LINE
  5
23F
  8
0
  6
CONTINUOUS
 62
     7
 10
172.0100884956
 20
173.725222756
 30
0.0
 11
175.0100884956
 21
173.725222756
 31
0.0
  0
LINE
  5
240
  8
0
  6
CONTINUOUS
 62
     7
 10
175.0100884956
 20
173.725222756
 30
0.0
 11
175.0100884956
 21
176.702013219
 31
0.0
  0
LINE
  5
241
  8
0
  6
CONTINUOUS
 62
     7
 10
175.0100884956
 20
243.825222756
 30
0.0
 11
262.0100884956
 21
243.825222756
 31
0.0
  0
LINE
  5
242
  8
0
  6
CONTINUOUS
 62
     7
 10
175.0100884956
 20
245.0944207825
 30
0.0
 11
262.0100884956
 21
245.0944207825
 31
0.0
  0
LINE
  5
243
  8
0
  6
CONTINUOUS
 62
     7
 10
175.0100884956
 20
188.625222756
 30
0.0
 11
262.0100884956
 21
188.625222756
 31
0.0
  0
LINE
  5
244
  8
0
  6
CONTINUOUS
 62
     7
 10
175.0100884956
 20
187.3560247295
 30
0.0
 11
262.0100884956
 21
187.3560247295
 31
0.0
  0
LINE
  5
245
  8
0
  6
CONTINUOUS
 62
     7
 10
175.0100884956
 20
249.8270436205
 30
0.0
 11
262.0100884956
 21
249.8270436205
 31
0.0
  0
LINE
  5
246
  8
0
  6
CONTINUOUS
 62
     7
 10
175.0100884956
 20
182.6234018915
 30
0.0
 11
262.0100884956
 21
182.6234018915
 31
0.0
  0
LINE
  5
247
  8
0
  6
CONTINUOUS
 62
     7
 10
175.0100884956
 20
255.748432293
 30
0.0
 11
262.0100884956
 21
255.748432293
 31
0.0
  0
LINE
  5
248
  8
0
  6
CONTINUOUS
 62
     7
 10
175.0100884956
 20
176.702013219
 30
0.0
 11
262.0100884956
 21
176.702013219
 31
0.0
  0
LINE
  5
249
  8
0
  6
CONTINUOUS
 62
     7
 10
175.0100884956
 20
258.725222756
 30
0.0
 11
262.0100884956
 21
258.725222756
 31
0.0
  0
LINE
  5
24A
  8
0
  6
CONTINUOUS
 62
     7
 10
175.0100884956
 20
173.725222756
 30
0.0
 11
262.0100884956
 21
173.725222756
 31
0.0
  0
LINE
  5
24B
  8
0
  6
CONTINUOUS
 62
     7
 10
154.9100884956
 20
382.2251920959
 30
0.0
 11
154.9100884956
 21
419.2251920959
 31
0.0
  0
LINE
  5
24C
  8
0
  6
CONTINUOUS
 62
     7
 10
148.9100884956
 20
419.2251920959
 30
0.0
 11
148.9100884956
 21
382.2251920959
 31
0.0
  0
LINE
  5
24D
  8
0
  6
CONTINUOUS
 62
     7
 10
186.0100884956
 20
382.2251920959
 30
0.0
 11
186.0100884956
 21
419.2251920959
 31
0.0
  0
LINE
  5
24E
  8
0
  6
CONTINUOUS
 62
     7
 10
178.0100884956
 20
419.2251920959
 30
0.0
 11
178.0100884956
 21
382.2251920959
 31
0.0
  0
LINE
  5
24F
  8
0
  6
CONTINUOUS
 62
     7
 10
276.0100884956
 20
296.7251920959
 30
0.0
 11
279.0100884956
 21
296.7251920959
 31
0.0
  0
LINE
  5
250
  8
0
  6
CONTINUOUS
 62
     7
 10
279.0100884956
 20
356.7251920959
 30
0.0
 11
276.0100884956
 21
356.7251920959
 31
0.0
  0
LINE
  5
251
  8
0
  6
CONTINUOUS
 62
     7
 10
313.0100884956
 20
334.7251920959
 30
0.0
 11
279.0100884956
 21
334.7251920959
 31
0.0
  0
LINE
  5
252
  8
0
  6
CONTINUOUS
 62
     7
 10
279.0100884956
 20
318.7251920959
 30
0.0
 11
313.0100884956
 21
318.7251920959
 31
0.0
  0
ARC
  5
253
  8
0
  6
CONTINUOUS
 62
     7
 10
340.4630090643
 20
326.7251920959
 30
0.0
 40
200.0
 50
190.8069228749
 51
192.268898996
  0
ARC
  5
254
  8
0
  6
CONTINUOUS
 62
     7
 10
340.4630090643
 20
326.7251920959
 30
0.0
 40
200.0000000000001
 50
167.731101004
 51
169.1930771251
  0
LINE
  5
255
  8
0
  6
CONTINUOUS
 62
     7
 10
201.5229163208
 20
374.2189346202
 30
0.0
 11
189.2305781499
 21
380.2151971426
 31
0.0
  0
LINE
  5
256
  8
0
  6
CONTINUOUS
 62
     7
 10
176.7600884956
 20
380.2251920959
 30
0.0
 11
173.0100884956
 21
380.2251920959
 31
0.0
  0
LINE
  5
257
  8
0
  6
CONTINUOUS
 62
     7
 10
189.2100884956
 20
380.2251920959
 30
0.0
 11
187.1950066924
 21
380.2251920959
 31
0.0
  0
LINE
  5
258
  8
0
  6
CONTINUOUS
 62
     7
 10
187.2600884956
 20
380.2195717801
 30
0.0
 11
187.2600884956
 21
382.2251920959
 31
0.0
  0
LINE
  5
259
  8
0
  6
CONTINUOUS
 62
     7
 10
176.7600884956
 20
382.2251920959
 30
0.0
 11
176.7600884956
 21
380.2251920959
 31
0.0
  0
LINE
  5
25A
  8
0
  6
CONTINUOUS
 62
     7
 10
146.9100884956
 20
380.2251920959
 30
0.0
 11
145.9100884956
 21
380.2251920959
 31
0.0
  0
LINE
  5
25B
  8
0
  6
CONTINUOUS
 62
     7
 10
157.9100884956
 20
380.2251920959
 30
0.0
 11
156.8481902849
 21
380.2251920959
 31
0.0
  0
LINE
  5
25C
  8
0
  6
CONTINUOUS
 62
     7
 10
156.9100884956
 20
380.2201017094
 30
0.0
 11
156.9100884956
 21
382.2251920959
 31
0.0
  0
LINE
  5
25D
  8
0
  6
CONTINUOUS
 62
     7
 10
146.9100884956
 20
382.2251920959
 30
0.0
 11
146.9100884956
 21
380.2251920959
 31
0.0
  0
LINE
  5
25E
  8
0
  6
CONTINUOUS
 62
     7
 10
148.9100884956
 20
419.2251920959
 30
0.0
 11
154.9100884956
 21
419.2251920959
 31
0.0
  0
LINE
  5
25F
  8
0
  6
CONTINUOUS
 62
     7
 10
178.0100884956
 20
419.2251920959
 30
0.0
 11
186.0100884956
 21
419.2251920959
 31
0.0
  0
ARC
  5
260
  8
0
  6
CONTINUOUS
 62
     7
 10
452.5863992458
 20
331.7115191261
 30
0.0
 40
192.976076758833
 50
168.7905898534
 51
170.954732184
  0
LINE
  5
261
  8
0
  6
CONTINUOUS
 62
     7
 10
264.3664664456
 20
369.2251920959
 30
0.0
 11
263.2916805093
 21
369.2251920959
 31
0.0
  0
POLYLINE
  5
262
  8
0
  6
CONTINUOUS
 62
     7
 66
     1
 10
0.0
 20
0.0
 30
0.0
 70
   128
  0
VERTEX
  5
43E
  8
0
  6
CONTINUOUS
 62
     7
 10
264.3664664456
 20
361.0251920959
 30
0.0
  0
VERTEX
  5
43F
  8
0
  6
CONTINUOUS
 62
     7
 10
264.5873189778
 20
362.3761702444
 30
0.0
  0
VERTEX
  5
440
  8
0
  6
CONTINUOUS
 62
     7
 10
264.7633605991
 20
363.6965099562
 30
0.0
  0
VERTEX
  5
441
  8
0
  6
CONTINUOUS
 62
     7
 10
264.8882709887
 20
364.9488521739
 30
0.0
  0
VERTEX
  5
442
  8
0
  6
CONTINUOUS
 62
     7
 10
264.958336197
 20
366.0956158462
 30
0.0
  0
VERTEX
  5
443
  8
0
  6
CONTINUOUS
 62
     7
 10
264.9705148929
 20
367.0844464803
 30
0.0
  0
VERTEX
  5
444
  8
0
  6
CONTINUOUS
 62
     7
 10
264.9269156416
 20
367.9096519625
 30
0.0
  0
VERTEX
  5
445
  8
0
  6
CONTINUOUS
 62
     7
 10
264.8292346102
 20
368.5412216611
 30
0.0
  0
VERTEX
  5
446
  8
0
  6
CONTINUOUS
 62
     7
 10
264.6813308842
 20
368.9733717633
 30
0.0
  0
VERTEX
  5
447
  8
0
  6
CONTINUOUS
 62
     7
 10
264.3664664456
 20
369.2251920959
 30
0.0
  0
SEQEND
  5
506
  8
0
  6
CONTINUOUS
 62
     7
  0
ARC
  5
263
  8
0
  6
CONTINUOUS
 62
     7
 10
456.7651670649
 20
326.7251920959
 30
0.0
 40
195.4322133119308
 50
169.8917533355
 51
173.318834654
  0
LINE
  5
264
  8
0
  6
CONTINUOUS
 62
     7
 10
262.660143946
 20
354.3142462278
 30
0.0
 11
262.660143946
 21
349.4626061969
 31
0.0
  0
ARC
  5
265
  8
0
  6
CONTINUOUS
 62
     7
 10
276.5634415641
 20
364.5831142674
 30
0.0
 40
17.28442464968921
 50
212.6488928602
 51
216.4492882759
  0
LINE
  5
266
  8
0
  6
CONTINUOUS
 62
     7
 10
262.0100884956
 20
355.2583488583
 30
0.0
 11
262.0100884956
 21
355.7255267584
 31
0.0
  0
POLYLINE
  5
267
  8
0
  6
CONTINUOUS
 62
     7
 66
     1
 10
0.0
 20
0.0
 30
0.0
 70
   128
  0
VERTEX
  5
448
  8
0
  6
CONTINUOUS
 62
     7
 10
262.0100884956
 20
355.7255267584
 30
0.0
  0
VERTEX
  5
449
  8
0
  6
CONTINUOUS
 62
     7
 10
262.2124842878
 20
355.8254801922
 30
0.0
  0
VERTEX
  5
44A
  8
0
  6
CONTINUOUS
 62
     7
 10
262.4393239671
 20
356.0965751473
 30
0.0
  0
VERTEX
  5
44B
  8
0
  6
CONTINUOUS
 62
     7
 10
262.6841070806
 20
356.53087191
 30
0.0
  0
VERTEX
  5
44C
  8
0
  6
CONTINUOUS
 62
     7
 10
262.9399128989
 20
357.1129198078
 30
0.0
  0
VERTEX
  5
44D
  8
0
  6
CONTINUOUS
 62
     7
 10
263.2045247058
 20
357.8418384477
 30
0.0
  0
VERTEX
  5
44E
  8
0
  6
CONTINUOUS
 62
     7
 10
263.4659909661
 20
358.6863517095
 30
0.0
  0
VERTEX
  5
44F
  8
0
  6
CONTINUOUS
 62
     7
 10
263.7184480583
 20
359.631188194
 30
0.0
  0
VERTEX
  5
450
  8
0
  6
CONTINUOUS
 62
     7
 10
263.9527692997
 20
360.6432516698
 30
0.0
  0
VERTEX
  5
451
  8
0
  6
CONTINUOUS
 62
     7
 10
264.1586483512
 20
361.6793126249
 30
0.0
  0
VERTEX
  5
452
  8
0
  6
CONTINUOUS
 62
     7
 10
264.3332372864
 20
362.7222157228
 30
0.0
  0
VERTEX
  5
453
  8
0
  6
CONTINUOUS
 62
     7
 10
264.4666771123
 20
363.7111195537
 30
0.0
  0
VERTEX
  5
454
  8
0
  6
CONTINUOUS
 62
     7
 10
264.560464264
 20
364.6466559615
 30
0.0
  0
VERTEX
  5
455
  8
0
  6
CONTINUOUS
 62
     7
 10
264.6097321444
 20
365.4741101407
 30
0.0
  0
VERTEX
  5
456
  8
0
  6
CONTINUOUS
 62
     7
 10
264.6168682996
 20
366.1995235808
 30
0.0
  0
VERTEX
  5
457
  8
0
  6
CONTINUOUS
 62
     7
 10
264.5819804103
 20
366.7902725107
 30
0.0
  0
VERTEX
  5
458
  8
0
  6
CONTINUOUS
 62
     7
 10
264.5073575012
 20
367.2459447895
 30
0.0
  0
VERTEX
  5
459
  8
0
  6
CONTINUOUS
 62
     7
 10
264.3945699956
 20
367.5535957694
 30
0.0
  0
VERTEX
  5
45A
  8
0
  6
CONTINUOUS
 62
     7
 10
264.2478607456
 20
367.7073861739
 30
0.0
  0
VERTEX
  5
45B
  8
0
  6
CONTINUOUS
 62
     7
 10
264.067224001
 20
367.7015319384
 30
0.0
  0
VERTEX
  5
45C
  8
0
  6
CONTINUOUS
 62
     7
 10
263.8611729288
 20
367.5357967171
 30
0.0
  0
VERTEX
  5
45D
  8
0
  6
CONTINUOUS
 62
     7
 10
263.628089514
 20
367.2025703879
 30
0.0
  0
VERTEX
  5
45E
  8
0
  6
CONTINUOUS
 62
     7
 10
263.380711933
 20
366.7172965521
 30
0.0
  0
VERTEX
  5
45F
  8
0
  6
CONTINUOUS
 62
     7
 10
263.1187014354
 20
366.0735325821
 30
0.0
  0
VERTEX
  5
460
  8
0
  6
CONTINUOUS
 62
     7
 10
262.8559489397
 20
365.302410331
 30
0.0
  0
VERTEX
  5
461
  8
0
  6
CONTINUOUS
 62
     7
 10
262.5967874781
 20
364.412474779
 30
0.0
  0
VERTEX
  5
462
  8
0
  6
CONTINUOUS
 62
     7
 10
262.3517315445
 20
363.4384688776
 30
0.0
  0
VERTEX
  5
463
  8
0
  6
CONTINUOUS
 62
     7
 10
262.0100884956
 20
361.7885627397
 30
0.0
  0
SEQEND
  5
507
  8
0
  6
CONTINUOUS
 62
     7
  0
LINE
  5
268
  8
0
  6
CONTINUOUS
 62
     7
 10
262.0100884956
 20
361.7885627397
 30
0.0
 11
262.0100884956
 21
362.0502070024
 31
0.0
  0
LINE
  5
269
  8
0
  6
CONTINUOUS
 62
     7
 10
262.660143946
 20
303.9877779949
 30
0.0
 11
262.0100884956
 21
303.9877779949
 31
0.0
  0
LINE
  5
26A
  8
0
  6
CONTINUOUS
 62
     7
 10
262.660143946
 20
349.4626061969
 30
0.0
 11
262.0100884956
 21
349.4626061969
 31
0.0
  0
LINE
  5
26B
  8
0
  6
CONTINUOUS
 62
     7
 10
276.0100884956
 20
361.0251920959
 30
0.0
 11
264.3664664456
 21
361.0251920959
 31
0.0
  0
LINE
  5
26C
  8
0
  6
CONTINUOUS
 62
     7
 10
276.0100884956
 20
292.4251920959
 30
0.0
 11
276.0100884956
 21
361.0251920959
 31
0.0
  0
LINE
  5
26D
  8
0
  6
CONTINUOUS
 62
     7
 10
264.3664664456
 20
292.4251920959
 30
0.0
 11
276.0100884956
 21
292.4251920959
 31
0.0
  0
ARC
  5
26E
  8
0
  6
CONTINUOUS
 62
     7
 10
456.7651670649
 20
326.7251920959
 30
0.0
 40
195.4322133119308
 50
186.681165346
 51
190.1082466645
  0
LINE
  5
26F
  8
0
  6
CONTINUOUS
 62
     7
 10
262.0100884956
 20
303.9877779949
 30
0.0
 11
262.0100884956
 21
349.4626061969
 31
0.0
  0
LINE
  5
270
  8
0
  6
CONTINUOUS
 62
     7
 10
262.660143946
 20
354.3142462278
 30
0.0
 11
262.0100884956
 21
354.3142462278
 31
0.0
  0
LINE
  5
271
  8
0
  6
CONTINUOUS
 62
     7
 10
262.0100884956
 20
349.4626061969
 30
0.0
 11
262.0100884956
 21
354.3142462278
 31
0.0
  0
LINE
  5
272
  8
0
  6
CONTINUOUS
 62
     7
 10
264.3664664456
 20
369.2251920959
 30
0.0
 11
276.0100884956
 21
369.2251920959
 31
0.0
  0
LINE
  5
273
  8
0
  6
CONTINUOUS
 62
     7
 10
276.0100884956
 20
369.2251920959
 30
0.0
 11
276.0100884956
 21
361.0251920959
 31
0.0
  0
LINE
  5
274
  8
0
  6
CONTINUOUS
 62
     7
 10
262.660143946
 20
299.1361379639
 30
0.0
 11
262.0100884956
 21
299.1361379639
 31
0.0
  0
LINE
  5
275
  8
0
  6
CONTINUOUS
 62
     7
 10
262.660143946
 20
303.9877779949
 30
0.0
 11
262.660143946
 21
299.1361379639
 31
0.0
  0
LINE
  5
276
  8
0
  6
CONTINUOUS
 62
     7
 10
262.0100884956
 20
299.1361379639
 30
0.0
 11
262.0100884956
 21
303.9877779949
 31
0.0
  0
ARC
  5
277
  8
0
  6
CONTINUOUS
 62
     7
 10
276.563441564
 20
288.8672699244
 30
0.0
 40
17.28442464962905
 50
143.5507117241
 51
147.3511071398
  0
POLYLINE
  5
278
  8
0
  6
CONTINUOUS
 62
     7
 66
     1
 10
0.0
 20
0.0
 30
0.0
 70
   128
  0
VERTEX
  5
464
  8
0
  6
CONTINUOUS
 62
     7
 10
264.3664664456
 20
284.2251920959
 30
0.0
  0
VERTEX
  5
465
  8
0
  6
CONTINUOUS
 62
     7
 10
264.5873189778
 20
284.3380564831
 30
0.0
  0
VERTEX
  5
466
  8
0
  6
CONTINUOUS
 62
     7
 10
264.7633605991
 20
284.6725112119
 30
0.0
  0
VERTEX
  5
467
  8
0
  6
CONTINUOUS
 62
     7
 10
264.8882709887
 20
285.2258587829
 30
0.0
  0
VERTEX
  5
468
  8
0
  6
CONTINUOUS
 62
     7
 10
264.958336197
 20
285.9807524001
 30
0.0
  0
VERTEX
  5
469
  8
0
  6
CONTINUOUS
 62
     7
 10
264.9705148929
 20
286.9014702127
 30
0.0
  0
VERTEX
  5
46A
  8
0
  6
CONTINUOUS
 62
     7
 10
264.9269156416
 20
287.970507781
 30
0.0
  0
VERTEX
  5
46B
  8
0
  6
CONTINUOUS
 62
     7
 10
264.8292346102
 20
289.1485360993
 30
0.0
  0
VERTEX
  5
46C
  8
0
  6
CONTINUOUS
 62
     7
 10
264.6813308842
 20
290.4086505085
 30
0.0
  0
VERTEX
  5
46D
  8
0
  6
CONTINUOUS
 62
     7
 10
264.3664664456
 20
292.4251920959
 30
0.0
  0
SEQEND
  5
508
  8
0
  6
CONTINUOUS
 62
     7
  0
LINE
  5
279
  8
0
  6
CONTINUOUS
 62
     7
 10
263.2916805093
 20
284.2251920959
 30
0.0
 11
264.3664664456
 21
284.2251920959
 31
0.0
  0
ARC
  5
27A
  8
0
  6
CONTINUOUS
 62
     7
 10
452.5863992459
 20
321.7388650656
 30
0.0
 40
192.9760767589192
 50
189.045267816
 51
191.2094101466
  0
POLYLINE
  5
27B
  8
0
  6
CONTINUOUS
 62
     7
 66
     1
 10
0.0
 20
0.0
 30
0.0
 70
   128
  0
VERTEX
  5
46E
  8
0
  6
CONTINUOUS
 62
     7
 10
262.0100884956
 20
291.6618214521
 30
0.0
  0
VERTEX
  5
46F
  8
0
  6
CONTINUOUS
 62
     7
 10
262.2124842878
 20
290.6361503027
 30
0.0
  0
VERTEX
  5
470
  8
0
  6
CONTINUOUS
 62
     7
 10
262.4393239671
 20
289.6470508
 30
0.0
  0
VERTEX
  5
471
  8
0
  6
CONTINUOUS
 62
     7
 10
262.6841070806
 20
288.7231387025
 30
0.0
  0
VERTEX
  5
472
  8
0
  6
CONTINUOUS
 62
     7
 10
262.9399128989
 20
287.8876219869
 30
0.0
  0
VERTEX
  5
473
  8
0
  6
CONTINUOUS
 62
     7
 10
263.2045247058
 20
287.1521704435
 30
0.0
  0
VERTEX
  5
474
  8
0
  6
CONTINUOUS
 62
     7
 10
263.4659909661
 20
286.5516585736
 30
0.0
  0
VERTEX
  5
475
  8
0
  6
CONTINUOUS
 62
     7
 10
263.7184480583
 20
286.1031385796
 30
0.0
  0
VERTEX
  5
476
  8
0
  6
CONTINUOUS
 62
     7
 10
263.9527692997
 20
285.8235478407
 30
0.0
  0
VERTEX
  5
477
  8
0
  6
CONTINUOUS
 62
     7
 10
264.1586483512
 20
285.726046774
 30
0.0
  0
VERTEX
  5
478
  8
0
  6
CONTINUOUS
 62
     7
 10
264.3332372864
 20
285.8086099839
 30
0.0
  0
VERTEX
  5
479
  8
0
  6
CONTINUOUS
 62
     7
 10
264.4666771123
 20
286.0641061543
 30
0.0
  0
VERTEX
  5
47A
  8
0
  6
CONTINUOUS
 62
     7
 10
264.560464264
 20
286.4844813729
 30
0.0
  0
VERTEX
  5
47B
  8
0
  6
CONTINUOUS
 62
     7
 10
264.6097321444
 20
287.041406412
 30
0.0
  0
VERTEX
  5
47C
  8
0
  6
CONTINUOUS
 62
     7
 10
264.6168682996
 20
287.7276481295
 30
0.0
  0
VERTEX
  5
47D
  8
0
  6
CONTINUOUS
 62
     7
 10
264.5819804103
 20
288.5099423076
 30
0.0
  0
VERTEX
  5
47E
  8
0
  6
CONTINUOUS
 62
     7
 10
264.5073575012
 20
289.3754496215
 30
0.0
  0
VERTEX
  5
47F
  8
0
  6
CONTINUOUS
 62
     7
 10
264.3945699956
 20
290.3028326392
 30
0.0
  0
VERTEX
  5
480
  8
0
  6
CONTINUOUS
 62
     7
 10
264.2478607456
 20
291.2632894943
 30
0.0
  0
VERTEX
  5
481
  8
0
  6
CONTINUOUS
 62
     7
 10
264.067224001
 20
292.251498048
 30
0.0
  0
VERTEX
  5
482
  8
0
  6
CONTINUOUS
 62
     7
 10
263.8611729288
 20
293.2208103411
 30
0.0
  0
VERTEX
  5
483
  8
0
  6
CONTINUOUS
 62
     7
 10
263.628089514
 20
294.1730198931
 30
0.0
  0
VERTEX
  5
484
  8
0
  6
CONTINUOUS
 62
     7
 10
263.380711933
 20
295.0536892189
 30
0.0
  0
VERTEX
  5
485
  8
0
  6
CONTINUOUS
 62
     7
 10
263.1187014354
 20
295.8585983774
 30
0.0
  0
VERTEX
  5
486
  8
0
  6
CONTINUOUS
 62
     7
 10
262.8559489397
 20
296.5421942443
 30
0.0
  0
VERTEX
  5
487
  8
0
  6
CONTINUOUS
 62
     7
 10
262.5967874781
 20
297.0890534678
 30
0.0
  0
VERTEX
  5
488
  8
0
  6
CONTINUOUS
 62
     7
 10
262.3517315445
 20
297.4753818901
 30
0.0
  0
VERTEX
  5
489
  8
0
  6
CONTINUOUS
 62
     7
 10
262.0100884956
 20
297.7248574333
 30
0.0
  0
SEQEND
  5
509
  8
0
  6
CONTINUOUS
 62
     7
  0
LINE
  5
27C
  8
0
  6
CONTINUOUS
 62
     7
 10
262.0100884956
 20
298.1920353335
 30
0.0
 11
262.0100884956
 21
297.7248574333
 31
0.0
  0
LINE
  5
27D
  8
0
  6
CONTINUOUS
 62
     7
 10
262.0100884956
 20
291.6618214521
 30
0.0
 11
262.0100884956
 21
291.4001771893
 31
0.0
  0
LINE
  5
27E
  8
0
  6
CONTINUOUS
 62
     7
 10
276.0100884956
 20
284.2251920959
 30
0.0
 11
264.3664664456
 21
284.2251920959
 31
0.0
  0
LINE
  5
27F
  8
0
  6
CONTINUOUS
 62
     7
 10
276.0100884956
 20
292.4251920959
 30
0.0
 11
276.0100884956
 21
284.2251920959
 31
0.0
  0
LINE
  5
280
  8
0
  6
CONTINUOUS
 62
     7
 10
262.0100884956
 20
361.7885627397
 30
0.0
 11
262.0100884956
 21
355.7255267584
 31
0.0
  0
LINE
  5
281
  8
0
  6
CONTINUOUS
 62
     7
 10
262.0100884956
 20
297.7248574333
 30
0.0
 11
262.0100884956
 21
291.6618214521
 31
0.0
  0
LINE
  5
282
  8
0
  6
CONTINUOUS
 62
     7
 10
262.0100884956
 20
354.3142462278
 30
0.0
 11
262.0100884956
 21
355.2583488583
 31
0.0
  0
LINE
  5
283
  8
0
  6
CONTINUOUS
 62
     7
 10
262.0100884956
 20
298.1920353335
 30
0.0
 11
262.0100884956
 21
299.1361379639
 31
0.0
  0
LINE
  5
284
  8
0
  6
CONTINUOUS
 62
     7
 10
279.0100884956
 20
296.7251920959
 30
0.0
 11
279.0100884956
 21
356.7251920959
 31
0.0
  0
LINE
  5
285
  8
0
  6
CONTINUOUS
 62
     7
 10
263.2916805093
 20
369.2251920959
 30
0.0
 11
262.0100884956
 21
369.2251920959
 31
0.0
  0
LINE
  5
286
  8
0
  6
CONTINUOUS
 62
     7
 10
262.0100884956
 20
362.0502070024
 30
0.0
 11
262.0100884956
 21
369.2251920959
 31
0.0
  0
LINE
  5
287
  8
0
  6
CONTINUOUS
 62
     7
 10
263.2916805093
 20
284.2251920959
 30
0.0
 11
262.0100884956
 21
284.2251920959
 31
0.0
  0
LINE
  5
288
  8
0
  6
CONTINUOUS
 62
     7
 10
262.0100884956
 20
284.2251920959
 30
0.0
 11
262.0100884956
 21
291.4001771893
 31
0.0
  0
LINE
  5
289
  8
0
  6
CONTINUOUS
 62
     7
 10
313.0100884956
 20
326.7251920959
 30
0.0
 11
313.0100884956
 21
318.7251920959
 31
0.0
  0
LINE
  5
28A
  8
0
  6
CONTINUOUS
 62
     7
 10
313.0100884956
 20
334.7251920959
 30
0.0
 11
313.0100884956
 21
326.7251920959
 31
0.0
  0
ARC
  5
28B
  8
0
  6
CONTINUOUS
 62
     7
 10
159.8668480275
 20
289.1423961179
 30
0.0
 40
16.80369693958392
 50
143.506277429
 51
149.1250560744
  0
ARC
  5
28C
  8
0
  6
CONTINUOUS
 62
     7
 10
156.0424073
 20
295.349486008
 30
0.0
 40
10.86989033917223
 50
167.1579018761
 51
194.3855110579
  0
ARC
  5
28D
  8
0
  6
CONTINUOUS
 62
     7
 10
336.2772916471
 20
321.7375864304
 30
0.0
 40
192.9690111756506
 50
188.6699695398
 51
191.2094388665
  0
LINE
  5
28E
  8
0
  6
CONTINUOUS
 62
     7
 10
145.0307957524
 20
284.2251920959
 30
0.0
 11
146.9895225087
 21
284.2251920959
 31
0.0
  0
LINE
  5
28F
  8
0
  6
CONTINUOUS
 62
     7
 10
146.9895225087
 20
369.2251920959
 30
0.0
 11
145.0307957524
 21
369.2251920959
 31
0.0
  0
ARC
  5
290
  8
0
  6
CONTINUOUS
 62
     7
 10
336.2772916471
 20
331.7127977614
 30
0.0
 40
192.9690111756546
 50
168.7905611335
 51
171.3300304602
  0
ARC
  5
291
  8
0
  6
CONTINUOUS
 62
     7
 10
157.5579028568
 20
358.0804850145
 30
0.0
 40
12.34809497934916
 50
167.2700296813
 51
191.1865573848
  0
ARC
  5
292
  8
0
  6
CONTINUOUS
 62
     7
 10
159.8668480275
 20
364.3079880738
 30
0.0
 40
16.80369693957671
 50
210.8749439256
 51
216.493722571
  0
LINE
  5
293
  8
0
  6
CONTINUOUS
 62
     7
 10
146.3579859454
 20
349.4626061969
 30
0.0
 11
146.3579859454
 21
354.3142462278
 31
0.0
  0
ARC
  5
294
  8
0
  6
CONTINUOUS
 62
     7
 10
340.4630090643
 20
326.7251920959
 30
0.0
 40
195.4322133119308
 50
173.318834654
 51
186.681165346
  0
LINE
  5
295
  8
0
  6
CONTINUOUS
 62
     7
 10
146.3579859454
 20
299.1361379639
 30
0.0
 11
146.3579859454
 21
303.9877779949
 31
0.0
  0
LINE
  5
296
  8
0
  6
CONTINUOUS
 62
     7
 10
144.0100884956
 20
326.7251920959
 30
0.0
 11
144.0100884956
 21
289.2251920959
 31
0.0
  0
LINE
  5
297
  8
0
  6
CONTINUOUS
 62
     7
 10
144.0100884956
 20
364.2251920959
 30
0.0
 11
144.0100884956
 21
326.7251920959
 31
0.0
  0
LINE
  5
298
  8
0
  6
CONTINUOUS
 62
     7
 10
146.3579859454
 20
354.3142462278
 30
0.0
 11
158.9100884956
 21
354.3142462278
 31
0.0
  0
LINE
  5
299
  8
0
  6
CONTINUOUS
 62
     7
 10
146.3579859454
 20
349.4626061969
 30
0.0
 11
158.9100884956
 21
349.4626061969
 31
0.0
  0
LINE
  5
29A
  8
0
  6
CONTINUOUS
 62
     7
 10
158.9100884956
 20
349.4626061969
 30
0.0
 11
158.9100884956
 21
354.3142462278
 31
0.0
  0
LINE
  5
29B
  8
0
  6
CONTINUOUS
 62
     7
 10
146.3579859454
 20
303.9877779949
 30
0.0
 11
158.9100884956
 21
303.9877779949
 31
0.0
  0
LINE
  5
29C
  8
0
  6
CONTINUOUS
 62
     7
 10
158.9100884956
 20
303.9877779949
 30
0.0
 11
158.9100884956
 21
349.4626061969
 31
0.0
  0
LINE
  5
29D
  8
0
  6
CONTINUOUS
 62
     7
 10
146.3579859454
 20
299.1361379639
 30
0.0
 11
158.9100884956
 21
299.1361379639
 31
0.0
  0
LINE
  5
29E
  8
0
  6
CONTINUOUS
 62
     7
 10
158.9100884956
 20
299.1361379639
 30
0.0
 11
158.9100884956
 21
303.9877779949
 31
0.0
  0
LINE
  5
29F
  8
0
  6
CONTINUOUS
 62
     7
 10
145.4444130482
 20
355.6849027729
 30
0.0
 11
158.9100884956
 21
355.6849027729
 31
0.0
  0
LINE
  5
2A0
  8
0
  6
CONTINUOUS
 62
     7
 10
158.9100884956
 20
354.3142462278
 30
0.0
 11
158.9100884956
 21
355.6849027729
 31
0.0
  0
LINE
  5
2A1
  8
0
  6
CONTINUOUS
 62
     7
 10
145.4444130482
 20
297.7654814188
 30
0.0
 11
158.9100884956
 21
297.7654814188
 31
0.0
  0
LINE
  5
2A2
  8
0
  6
CONTINUOUS
 62
     7
 10
158.9100884956
 20
297.7654814188
 30
0.0
 11
158.9100884956
 21
299.1361379639
 31
0.0
  0
LINE
  5
2A3
  8
0
  6
CONTINUOUS
 62
     7
 10
145.5133312982
 20
292.6489167097
 30
0.0
 11
158.9100884956
 21
292.6489167097
 31
0.0
  0
LINE
  5
2A4
  8
0
  6
CONTINUOUS
 62
     7
 10
158.9100884956
 20
292.6489167097
 30
0.0
 11
158.9100884956
 21
297.7654814188
 31
0.0
  0
LINE
  5
2A5
  8
0
  6
CONTINUOUS
 62
     7
 10
145.5133312982
 20
360.8014674821
 30
0.0
 11
158.9100884956
 21
360.8014674821
 31
0.0
  0
LINE
  5
2A6
  8
0
  6
CONTINUOUS
 62
     7
 10
158.9100884956
 20
355.6849027729
 30
0.0
 11
158.9100884956
 21
360.8014674821
 31
0.0
  0
LINE
  5
2A7
  8
0
  6
CONTINUOUS
 62
     7
 10
146.9895225087
 20
369.2251920959
 30
0.0
 11
158.9100884956
 21
369.2251920959
 31
0.0
  0
LINE
  5
2A8
  8
0
  6
CONTINUOUS
 62
     7
 10
158.9100884956
 20
360.8014674821
 30
0.0
 11
158.9100884956
 21
369.2251920959
 31
0.0
  0
LINE
  5
2A9
  8
0
  6
CONTINUOUS
 62
     7
 10
146.9895225087
 20
284.2251920959
 30
0.0
 11
158.9100884956
 21
284.2251920959
 31
0.0
  0
LINE
  5
2AA
  8
0
  6
CONTINUOUS
 62
     7
 10
158.9100884956
 20
284.2251920959
 30
0.0
 11
158.9100884956
 21
292.6489167097
 31
0.0
  0
LINE
  5
2AB
  8
0
  6
CONTINUOUS
 62
     7
 10
158.9100884956
 20
349.4626061969
 30
0.0
 11
172.0100884956
 21
349.4626061969
 31
0.0
  0
LINE
  5
2AC
  8
0
  6
CONTINUOUS
 62
     7
 10
158.9100884956
 20
354.3142462278
 30
0.0
 11
172.0100884956
 21
354.3142462278
 31
0.0
  0
LINE
  5
2AD
  8
0
  6
CONTINUOUS
 62
     7
 10
172.0100884956
 20
349.4626061969
 30
0.0
 11
172.0100884956
 21
354.3142462278
 31
0.0
  0
LINE
  5
2AE
  8
0
  6
CONTINUOUS
 62
     7
 10
158.9100884956
 20
303.9877779949
 30
0.0
 11
172.0100884956
 21
303.9877779949
 31
0.0
  0
LINE
  5
2AF
  8
0
  6
CONTINUOUS
 62
     7
 10
172.0100884956
 20
303.9877779949
 30
0.0
 11
172.0100884956
 21
349.4626061969
 31
0.0
  0
LINE
  5
2B0
  8
0
  6
CONTINUOUS
 62
     7
 10
158.9100884956
 20
299.1361379639
 30
0.0
 11
172.0100884956
 21
299.1361379639
 31
0.0
  0
LINE
  5
2B1
  8
0
  6
CONTINUOUS
 62
     7
 10
172.0100884956
 20
299.1361379639
 30
0.0
 11
172.0100884956
 21
303.9877779949
 31
0.0
  0
LINE
  5
2B2
  8
0
  6
CONTINUOUS
 62
     7
 10
158.9100884956
 20
355.6849027729
 30
0.0
 11
172.0100884956
 21
355.6849027729
 31
0.0
  0
LINE
  5
2B3
  8
0
  6
CONTINUOUS
 62
     7
 10
172.0100884956
 20
354.3142462278
 30
0.0
 11
172.0100884956
 21
355.6849027729
 31
0.0
  0
LINE
  5
2B4
  8
0
  6
CONTINUOUS
 62
     7
 10
158.9100884956
 20
297.7654814188
 30
0.0
 11
172.0100884956
 21
297.7654814188
 31
0.0
  0
LINE
  5
2B5
  8
0
  6
CONTINUOUS
 62
     7
 10
172.0100884956
 20
297.7654814188
 30
0.0
 11
172.0100884956
 21
299.1361379639
 31
0.0
  0
LINE
  5
2B6
  8
0
  6
CONTINUOUS
 62
     7
 10
158.9100884956
 20
360.8014674821
 30
0.0
 11
172.0100884956
 21
360.8014674821
 31
0.0
  0
LINE
  5
2B7
  8
0
  6
CONTINUOUS
 62
     7
 10
172.0100884956
 20
355.6849027729
 30
0.0
 11
172.0100884956
 21
360.8014674821
 31
0.0
  0
LINE
  5
2B8
  8
0
  6
CONTINUOUS
 62
     7
 10
158.9100884956
 20
292.6489167097
 30
0.0
 11
172.0100884956
 21
292.6489167097
 31
0.0
  0
LINE
  5
2B9
  8
0
  6
CONTINUOUS
 62
     7
 10
172.0100884956
 20
292.6489167097
 30
0.0
 11
172.0100884956
 21
297.7654814188
 31
0.0
  0
LINE
  5
2BA
  8
0
  6
CONTINUOUS
 62
     7
 10
158.9100884956
 20
369.2251920959
 30
0.0
 11
172.0100884956
 21
369.2251920959
 31
0.0
  0
LINE
  5
2BB
  8
0
  6
CONTINUOUS
 62
     7
 10
172.0100884956
 20
360.8014674821
 30
0.0
 11
172.0100884956
 21
369.2251920959
 31
0.0
  0
LINE
  5
2BC
  8
0
  6
CONTINUOUS
 62
     7
 10
158.9100884956
 20
284.2251920959
 30
0.0
 11
172.0100884956
 21
284.2251920959
 31
0.0
  0
LINE
  5
2BD
  8
0
  6
CONTINUOUS
 62
     7
 10
172.0100884956
 20
284.2251920959
 30
0.0
 11
172.0100884956
 21
292.6489167097
 31
0.0
  0
LINE
  5
2BE
  8
0
  6
CONTINUOUS
 62
     7
 10
172.0100884956
 20
349.4626061969
 30
0.0
 11
175.0100884956
 21
349.4626061969
 31
0.0
  0
LINE
  5
2BF
  8
0
  6
CONTINUOUS
 62
     7
 10
172.0100884956
 20
354.3142462278
 30
0.0
 11
175.0100884956
 21
354.3142462278
 31
0.0
  0
LINE
  5
2C0
  8
0
  6
CONTINUOUS
 62
     7
 10
175.0100884956
 20
349.4626061969
 30
0.0
 11
175.0100884956
 21
354.3142462278
 31
0.0
  0
LINE
  5
2C1
  8
0
  6
CONTINUOUS
 62
     7
 10
172.0100884956
 20
303.9877779949
 30
0.0
 11
175.0100884956
 21
303.9877779949
 31
0.0
  0
LINE
  5
2C2
  8
0
  6
CONTINUOUS
 62
     7
 10
175.0100884956
 20
303.9877779949
 30
0.0
 11
175.0100884956
 21
349.4626061969
 31
0.0
  0
LINE
  5
2C3
  8
0
  6
CONTINUOUS
 62
     7
 10
172.0100884956
 20
299.1361379639
 30
0.0
 11
175.0100884956
 21
299.1361379639
 31
0.0
  0
LINE
  5
2C4
  8
0
  6
CONTINUOUS
 62
     7
 10
175.0100884956
 20
299.1361379639
 30
0.0
 11
175.0100884956
 21
303.9877779949
 31
0.0
  0
LINE
  5
2C5
  8
0
  6
CONTINUOUS
 62
     7
 10
172.0100884956
 20
355.6849027729
 30
0.0
 11
175.0100884956
 21
355.6849027729
 31
0.0
  0
LINE
  5
2C6
  8
0
  6
CONTINUOUS
 62
     7
 10
175.0100884956
 20
354.3142462278
 30
0.0
 11
175.0100884956
 21
355.6849027729
 31
0.0
  0
LINE
  5
2C7
  8
0
  6
CONTINUOUS
 62
     7
 10
172.0100884956
 20
297.7654814188
 30
0.0
 11
175.0100884956
 21
297.7654814188
 31
0.0
  0
LINE
  5
2C8
  8
0
  6
CONTINUOUS
 62
     7
 10
175.0100884956
 20
297.7654814188
 30
0.0
 11
175.0100884956
 21
299.1361379639
 31
0.0
  0
LINE
  5
2C9
  8
0
  6
CONTINUOUS
 62
     7
 10
172.0100884956
 20
360.8014674821
 30
0.0
 11
175.0100884956
 21
360.8014674821
 31
0.0
  0
LINE
  5
2CA
  8
0
  6
CONTINUOUS
 62
     7
 10
175.0100884956
 20
355.6849027729
 30
0.0
 11
175.0100884956
 21
360.8014674821
 31
0.0
  0
LINE
  5
2CB
  8
0
  6
CONTINUOUS
 62
     7
 10
172.0100884956
 20
292.6489167097
 30
0.0
 11
175.0100884956
 21
292.6489167097
 31
0.0
  0
LINE
  5
2CC
  8
0
  6
CONTINUOUS
 62
     7
 10
175.0100884956
 20
292.6489167097
 30
0.0
 11
175.0100884956
 21
297.7654814188
 31
0.0
  0
LINE
  5
2CD
  8
0
  6
CONTINUOUS
 62
     7
 10
172.0100884956
 20
369.2251920959
 30
0.0
 11
175.0100884956
 21
369.2251920959
 31
0.0
  0
LINE
  5
2CE
  8
0
  6
CONTINUOUS
 62
     7
 10
175.0100884956
 20
360.8014674821
 30
0.0
 11
175.0100884956
 21
369.2251920959
 31
0.0
  0
LINE
  5
2CF
  8
0
  6
CONTINUOUS
 62
     7
 10
172.0100884956
 20
284.2251920959
 30
0.0
 11
175.0100884956
 21
284.2251920959
 31
0.0
  0
LINE
  5
2D0
  8
0
  6
CONTINUOUS
 62
     7
 10
175.0100884956
 20
284.2251920959
 30
0.0
 11
175.0100884956
 21
292.6489167097
 31
0.0
  0
LINE
  5
2D1
  8
0
  6
CONTINUOUS
 62
     7
 10
175.0100884956
 20
349.4626061969
 30
0.0
 11
262.0100884956
 21
349.4626061969
 31
0.0
  0
LINE
  5
2D2
  8
0
  6
CONTINUOUS
 62
     7
 10
175.0100884956
 20
354.3142462278
 30
0.0
 11
262.0100884956
 21
354.3142462278
 31
0.0
  0
LINE
  5
2D3
  8
0
  6
CONTINUOUS
 62
     7
 10
175.0100884956
 20
303.9877779949
 30
0.0
 11
262.0100884956
 21
303.9877779949
 31
0.0
  0
LINE
  5
2D4
  8
0
  6
CONTINUOUS
 62
     7
 10
175.0100884956
 20
299.1361379639
 30
0.0
 11
262.0100884956
 21
299.1361379639
 31
0.0
  0
LINE
  5
2D5
  8
0
  6
CONTINUOUS
 62
     7
 10
175.0100884956
 20
355.6849027729
 30
0.0
 11
262.0100884956
 21
355.6849027729
 31
0.0
  0
LINE
  5
2D6
  8
0
  6
CONTINUOUS
 62
     7
 10
175.0100884956
 20
297.7654814188
 30
0.0
 11
262.0100884956
 21
297.7654814188
 31
0.0
  0
LINE
  5
2D7
  8
0
  6
CONTINUOUS
 62
     7
 10
175.0100884956
 20
360.8014674821
 30
0.0
 11
262.0100884956
 21
360.8014674821
 31
0.0
  0
LINE
  5
2D8
  8
0
  6
CONTINUOUS
 62
     7
 10
175.0100884956
 20
292.6489167097
 30
0.0
 11
262.0100884956
 21
292.6489167097
 31
0.0
  0
LINE
  5
2D9
  8
0
  6
CONTINUOUS
 62
     7
 10
175.0100884956
 20
369.2251920959
 30
0.0
 11
262.0100884956
 21
369.2251920959
 31
0.0
  0
LINE
  5
2DA
  8
0
  6
CONTINUOUS
 62
     7
 10
175.0100884956
 20
284.2251920959
 30
0.0
 11
262.0100884956
 21
284.2251920959
 31
0.0
  0
LINE
  5
2DB
  8
0
  6
CONTINUOUS
 62
     7
 10
189.2100884956
 20
378.6867179056
 30
0.0
 11
189.2100884956
 21
380.2251920959
 31
0.0
  0
LINE
  5
2DC
  8
0
  6
CONTINUOUS
 62
     7
 10
201.5100884956
 20
374.1926375785
 30
0.0
 11
201.5100884956
 21
373.468335159
 31
0.0
  0
POLYLINE
  5
2DD
  8
0
  6
CONTINUOUS
 62
     7
 66
     1
 10
0.0
 20
0.0
 30
0.0
 70
   128
  0
VERTEX
  5
48A
  8
0
  6
CONTINUOUS
 62
     7
 10
197.5100884956
 20
374.6379374178
 30
0.0
  0
VERTEX
  5
48B
  8
0
  6
CONTINUOUS
 62
     7
 10
198.8692505637
 20
374.0293799032
 30
0.0
  0
VERTEX
  5
48C
  8
0
  6
CONTINUOUS
 62
     7
 10
200.1177686662
 20
373.5807743122
 30
0.0
  0
VERTEX
  5
48D
  8
0
  6
CONTINUOUS
 62
     7
 10
200.9819007563
 20
373.3730676685
 30
0.0
  0
VERTEX
  5
48E
  8
0
  6
CONTINUOUS
 62
     7
 10
201.4263415893
 20
373.3728693234
 30
0.0
  0
VERTEX
  5
48F
  8
0
  6
CONTINUOUS
 62
     7
 10
201.5100884956
 20
373.468335159
 30
0.0
  0
SEQEND
  5
50A
  8
0
  6
CONTINUOUS
 62
     7
  0
LINE
  5
2DE
  8
0
  6
CONTINUOUS
 62
     7
 10
197.5100884956
 20
374.6379374178
 30
0.0
 11
189.2100884956
 21
378.6867179056
 31
0.0
  0
LINE
  5
2DF
  8
0
  6
CONTINUOUS
 62
     7
 10
189.2100884956
 20
378.6867179056
 30
0.0
 11
173.0100884956
 21
378.6867179056
 31
0.0
  0
LINE
  5
2E0
  8
0
  6
CONTINUOUS
 62
     7
 10
173.0100884956
 20
378.6867179056
 30
0.0
 11
173.0100884956
 21
380.2251920959
 31
0.0
  0
POLYLINE
  5
2E1
  8
0
  6
CONTINUOUS
 62
     7
 66
     1
 10
0.0
 20
0.0
 30
0.0
 70
   128
  0
VERTEX
  5
490
  8
0
  6
CONTINUOUS
 62
     7
 10
176.7600884956
 20
380.2251920959
 30
0.0
  0
VERTEX
  5
491
  8
0
  6
CONTINUOUS
 62
     7
 10
177.0547210745
 20
380.2001299139
 30
0.0
  0
VERTEX
  5
492
  8
0
  6
CONTINUOUS
 62
     7
 10
177.9048173381
 20
380.1358818872
 30
0.0
  0
VERTEX
  5
493
  8
0
  6
CONTINUOUS
 62
     7
 10
179.2183106317
 20
380.0602280167
 30
0.0
  0
VERTEX
  5
494
  8
0
  6
CONTINUOUS
 62
     7
 10
180.8496523777
 20
380.0063271803
 30
0.0
  0
VERTEX
  5
495
  8
0
  6
CONTINUOUS
 62
     7
 10
182.6083468777
 20
379.9980572865
 30
0.0
  0
VERTEX
  5
496
  8
0
  6
CONTINUOUS
 62
     7
 10
184.2948867733
 20
380.0387173487
 30
0.0
  0
VERTEX
  5
497
  8
0
  6
CONTINUOUS
 62
     7
 10
185.7268671194
 20
380.1105153674
 30
0.0
  0
VERTEX
  5
498
  8
0
  6
CONTINUOUS
 62
     7
 10
186.7449238132
 20
380.1823114854
 30
0.0
  0
VERTEX
  5
499
  8
0
  6
CONTINUOUS
 62
     7
 10
187.2289301474
 20
380.2224737692
 30
0.0
  0
VERTEX
  5
49A
  8
0
  6
CONTINUOUS
 62
     7
 10
187.1950066924
 20
380.2195522204
 30
0.0
  0
SEQEND
  5
50B
  8
0
  6
CONTINUOUS
 62
     7
  0
LINE
  5
2E2
  8
0
  6
CONTINUOUS
 62
     7
 10
173.0100884956
 20
378.6867179056
 30
0.0
 11
173.0100884956
 21
369.2251920959
 31
0.0
  0
LINE
  5
2E3
  8
0
  6
CONTINUOUS
 62
     7
 10
197.5100884956
 20
369.2251920959
 30
0.0
 11
197.5100884956
 21
374.6379374178
 31
0.0
  0
LINE
  5
2E4
  8
0
  6
CONTINUOUS
 62
     7
 10
201.5100884956
 20
373.468335159
 30
0.0
 11
201.5100884956
 21
369.2251920959
 31
0.0
  0
LINE
  5
2E5
  8
0
  6
CONTINUOUS
 62
     7
 10
187.2600884956
 20
382.2251920959
 30
0.0
 11
176.7600884956
 21
382.2251920959
 31
0.0
  0
LINE
  5
2E6
  8
0
  6
CONTINUOUS
 62
     7
 10
157.9100884956
 20
378.7999306783
 30
0.0
 11
145.9100884956
 21
378.7999306783
 31
0.0
  0
POLYLINE
  5
2E7
  8
0
  6
CONTINUOUS
 62
     7
 66
     1
 10
0.0
 20
0.0
 30
0.0
 70
   128
  0
VERTEX
  5
49B
  8
0
  6
CONTINUOUS
 62
     7
 10
146.9100884956
 20
380.2251920959
 30
0.0
  0
VERTEX
  5
49C
  8
0
  6
CONTINUOUS
 62
     7
 10
147.1908070636
 20
380.2024512633
 30
0.0
  0
VERTEX
  5
49D
  8
0
  6
CONTINUOUS
 62
     7
 10
148.0008091876
 20
380.144157914
 30
0.0
  0
VERTEX
  5
49E
  8
0
  6
CONTINUOUS
 62
     7
 10
149.2520387473
 20
380.0755490578
 30
0.0
  0
VERTEX
  5
49F
  8
0
  6
CONTINUOUS
 62
     7
 10
150.8056160078
 20
380.0266959187
 30
0.0
  0
VERTEX
  5
4A0
  8
0
  6
CONTINUOUS
 62
     7
 10
152.480707364
 20
380.0192186027
 30
0.0
  0
VERTEX
  5
4A1
  8
0
  6
CONTINUOUS
 62
     7
 10
154.087404645
 20
380.0561264494
 30
0.0
  0
VERTEX
  5
4A2
  8
0
  6
CONTINUOUS
 62
     7
 10
155.4512505524
 20
380.1212673322
 30
0.0
  0
VERTEX
  5
4A3
  8
0
  6
CONTINUOUS
 62
     7
 10
156.4202733144
 20
380.1863609229
 30
0.0
  0
VERTEX
  5
4A4
  8
0
  6
CONTINUOUS
 62
     7
 10
156.8806022091
 20
380.2227421007
 30
0.0
  0
VERTEX
  5
4A5
  8
0
  6
CONTINUOUS
 62
     7
 10
156.8481902849
 20
380.2200837539
 30
0.0
  0
SEQEND
  5
50C
  8
0
  6
CONTINUOUS
 62
     7
  0
LINE
  5
2E8
  8
0
  6
CONTINUOUS
 62
     7
 10
157.9100884956
 20
378.7999306783
 30
0.0
 11
157.9100884956
 21
380.2251920959
 31
0.0
  0
LINE
  5
2E9
  8
0
  6
CONTINUOUS
 62
     7
 10
145.9100884956
 20
378.7999306783
 30
0.0
 11
145.9100884956
 21
380.2251920959
 31
0.0
  0
LINE
  5
2EA
  8
0
  6
CONTINUOUS
 62
     7
 10
157.9100884956
 20
378.7999306783
 30
0.0
 11
157.9100884956
 21
369.2251920959
 31
0.0
  0
LINE
  5
2EB
  8
0
  6
CONTINUOUS
 62
     7
 10
145.9100884956
 20
378.7999306783
 30
0.0
 11
145.9100884956
 21
369.2251920959
 31
0.0
  0
LINE
  5
2EC
  8
0
  6
CONTINUOUS
 62
     7
 10
156.9100884956
 20
382.2251920959
 30
0.0
 11
146.9100884956
 21
382.2251920959
 31
0.0
  0
LINE
  5
2ED
  8
0
  6
CONTINUOUS
 62
     7
 10
276.0100884956
 20
458.8019441951
 30
0.0
 11
279.0100884956
 21
458.8019441951
 31
0.0
  0
LINE
  5
2EE
  8
0
  6
CONTINUOUS
 62
     7
 10
279.0100884956
 20
518.8019441951
 30
0.0
 11
276.0100884956
 21
518.8019441951
 31
0.0
  0
LINE
  5
2EF
  8
0
  6
CONTINUOUS
 62
     7
 10
313.0100884956
 20
496.8019441951
 30
0.0
 11
279.0100884956
 21
496.8019441951
 31
0.0
  0
LINE
  5
2F0
  8
0
  6
CONTINUOUS
 62
     7
 10
279.0100884956
 20
480.8019441951
 30
0.0
 11
313.0100884956
 21
480.8019441951
 31
0.0
  0
ARC
  5
2F1
  8
0
  6
CONTINUOUS
 62
     7
 10
340.4630090643
 20
488.8019441951
 30
0.0
 40
200.0000000000001
 50
190.8069228749
 51
192.268898996
  0
ARC
  5
2F2
  8
0
  6
CONTINUOUS
 62
     7
 10
340.4630090643
 20
488.8019441951
 30
0.0
 40
200.0000000000001
 50
167.731101004
 51
169.1930771251
  0
LINE
  5
2F3
  8
0
  6
CONTINUOUS
 62
     7
 10
181.7100884956
 20
504.9019441951
 30
0.0
 11
181.7100884956
 21
506.0019441951
 31
0.0
  0
LINE
  5
2F4
  8
0
  6
CONTINUOUS
 62
     7
 10
174.7100884956
 20
506.0019441951
 30
0.0
 11
174.7100884956
 21
504.9019441951
 31
0.0
  0
LINE
  5
2F5
  8
0
  6
CONTINUOUS
 62
     7
 10
181.7100884956
 20
502.3019441951
 30
0.0
 11
181.7100884956
 21
504.9019441951
 31
0.0
  0
LINE
  5
2F6
  8
0
  6
CONTINUOUS
 62
     7
 10
174.7100884956
 20
504.9019441951
 30
0.0
 11
174.7100884956
 21
502.3019441951
 31
0.0
  0
LINE
  5
2F7
  8
0
  6
CONTINUOUS
 62
     7
 10
190.2100884956
 20
502.3019441951
 30
0.0
 11
190.2100884956
 21
502.6019441951
 31
0.0
  0
LINE
  5
2F8
  8
0
  6
CONTINUOUS
 62
     7
 10
184.2100884956
 20
502.6019441951
 30
0.0
 11
184.2100884956
 21
502.3019441951
 31
0.0
  0
CIRCLE
  5
2F9
  8
0
  6
CONTINUOUS
 62
     7
 10
151.9100884956
 20
488.8019441951
 30
0.0
 40
3.0
  0
CIRCLE
  5
2FA
  8
0
  6
CONTINUOUS
 62
     7
 10
182.0100884956
 20
488.8019441951
 30
0.0
 40
4.0
  0
ARC
  5
2FB
  8
0
  6
CONTINUOUS
 62
     7
 10
447.1097931578
 20
496.8362854523
 30
0.0
 40
187.1182030693373
 50
170.3119786612
 51
171.5766470985
  0
LINE
  5
2FC
  8
0
  6
CONTINUOUS
 62
     7
 10
262.660143946
 20
531.3019441951
 30
0.0
 11
262.660143946
 21
528.3251537321
 31
0.0
  0
LINE
  5
2FD
  8
0
  6
CONTINUOUS
 62
     7
 10
264.3664664456
 20
531.3019441951
 30
0.0
 11
262.660143946
 21
531.3019441951
 31
0.0
  0
POLYLINE
  5
2FE
  8
0
  6
CONTINUOUS
 62
     7
 66
     1
 10
0.0
 20
0.0
 30
0.0
 70
   128
  0
VERTEX
  5
4A6
  8
0
  6
CONTINUOUS
 62
     7
 10
264.3664664456
 20
523.1019441951
 30
0.0
  0
VERTEX
  5
4A7
  8
0
  6
CONTINUOUS
 62
     7
 10
264.5873189778
 20
524.4529223436
 30
0.0
  0
VERTEX
  5
4A8
  8
0
  6
CONTINUOUS
 62
     7
 10
264.7633605991
 20
525.7732620554
 30
0.0
  0
VERTEX
  5
4A9
  8
0
  6
CONTINUOUS
 62
     7
 10
264.8882709887
 20
527.0256042731
 30
0.0
  0
VERTEX
  5
4AA
  8
0
  6
CONTINUOUS
 62
     7
 10
264.958336197
 20
528.1723679454
 30
0.0
  0
VERTEX
  5
4AB
  8
0
  6
CONTINUOUS
 62
     7
 10
264.9705148929
 20
529.1611985795
 30
0.0
  0
VERTEX
  5
4AC
  8
0
  6
CONTINUOUS
 62
     7
 10
264.9269156416
 20
529.9864040617
 30
0.0
  0
VERTEX
  5
4AD
  8
0
  6
CONTINUOUS
 62
     7
 10
264.8292346102
 20
530.6179737603
 30
0.0
  0
VERTEX
  5
4AE
  8
0
  6
CONTINUOUS
 62
     7
 10
264.6813308842
 20
531.0501238625
 30
0.0
  0
VERTEX
  5
4AF
  8
0
  6
CONTINUOUS
 62
     7
 10
264.3664664456
 20
531.3019441951
 30
0.0
  0
SEQEND
  5
50D
  8
0
  6
CONTINUOUS
 62
     7
  0
ARC
  5
2FF
  8
0
  6
CONTINUOUS
 62
     7
 10
456.7651670649
 20
488.8019441951
 30
0.0
 40
195.4322133119308
 50
169.8917533355
 51
171.8812367166
  0
ARC
  5
300
  8
0
  6
CONTINUOUS
 62
     7
 10
272.6889051641
 20
528.8425981442
 30
0.0
 40
15.59094935838415
 50
226.7693543648
 51
232.9339067285
  0
LINE
  5
301
  8
0
  6
CONTINUOUS
 62
     7
 10
262.0100884956
 20
517.4829953142
 30
0.0
 11
262.0100884956
 21
517.8022788576
 31
0.0
  0
POLYLINE
  5
302
  8
0
  6
CONTINUOUS
 62
     7
 66
     1
 10
0.0
 20
0.0
 30
0.0
 70
   128
  0
VERTEX
  5
4B0
  8
0
  6
CONTINUOUS
 62
     7
 10
262.0100884956
 20
517.8022788576
 30
0.0
  0
VERTEX
  5
4B1
  8
0
  6
CONTINUOUS
 62
     7
 10
262.2124842878
 20
517.9022322914
 30
0.0
  0
VERTEX
  5
4B2
  8
0
  6
CONTINUOUS
 62
     7
 10
262.4393239671
 20
518.1733272464
 30
0.0
  0
VERTEX
  5
4B3
  8
0
  6
CONTINUOUS
 62
     7
 10
262.6841070806
 20
518.6076240092
 30
0.0
  0
VERTEX
  5
4B4
  8
0
  6
CONTINUOUS
 62
     7
 10
262.9399128989
 20
519.189671907
 30
0.0
  0
VERTEX
  5
4B5
  8
0
  6
CONTINUOUS
 62
     7
 10
263.2045247058
 20
519.9185905469
 30
0.0
  0
VERTEX
  5
4B6
  8
0
  6
CONTINUOUS
 62
     7
 10
263.4659909661
 20
520.7631038087
 30
0.0
  0
VERTEX
  5
4B7
  8
0
  6
CONTINUOUS
 62
     7
 10
263.7184480583
 20
521.7079402932
 30
0.0
  0
VERTEX
  5
4B8
  8
0
  6
CONTINUOUS
 62
     7
 10
263.9527692997
 20
522.720003769
 30
0.0
  0
VERTEX
  5
4B9
  8
0
  6
CONTINUOUS
 62
     7
 10
264.1586483512
 20
523.7560647241
 30
0.0
  0
VERTEX
  5
4BA
  8
0
  6
CONTINUOUS
 62
     7
 10
264.3332372864
 20
524.798967822
 30
0.0
  0
VERTEX
  5
4BB
  8
0
  6
CONTINUOUS
 62
     7
 10
264.4666771123
 20
525.7878716529
 30
0.0
  0
VERTEX
  5
4BC
  8
0
  6
CONTINUOUS
 62
     7
 10
264.560464264
 20
526.7234080607
 30
0.0
  0
VERTEX
  5
4BD
  8
0
  6
CONTINUOUS
 62
     7
 10
264.6097321444
 20
527.5508622399
 30
0.0
  0
VERTEX
  5
4BE
  8
0
  6
CONTINUOUS
 62
     7
 10
264.6168682996
 20
528.27627568
 30
0.0
  0
VERTEX
  5
4BF
  8
0
  6
CONTINUOUS
 62
     7
 10
264.5819804103
 20
528.8670246099
 30
0.0
  0
VERTEX
  5
4C0
  8
0
  6
CONTINUOUS
 62
     7
 10
264.5073575012
 20
529.3226968887
 30
0.0
  0
VERTEX
  5
4C1
  8
0
  6
CONTINUOUS
 62
     7
 10
264.3945699956
 20
529.6303478686
 30
0.0
  0
VERTEX
  5
4C2
  8
0
  6
CONTINUOUS
 62
     7
 10
264.2478607456
 20
529.7841382731
 30
0.0
  0
VERTEX
  5
4C3
  8
0
  6
CONTINUOUS
 62
     7
 10
264.067224001
 20
529.7782840376
 30
0.0
  0
VERTEX
  5
4C4
  8
0
  6
CONTINUOUS
 62
     7
 10
263.8611729288
 20
529.6125488163
 30
0.0
  0
VERTEX
  5
4C5
  8
0
  6
CONTINUOUS
 62
     7
 10
263.628089514
 20
529.2793224871
 30
0.0
  0
VERTEX
  5
4C6
  8
0
  6
CONTINUOUS
 62
     7
 10
263.380711933
 20
528.7940486513
 30
0.0
  0
VERTEX
  5
4C7
  8
0
  6
CONTINUOUS
 62
     7
 10
263.1187014354
 20
528.1502846813
 30
0.0
  0
VERTEX
  5
4C8
  8
0
  6
CONTINUOUS
 62
     7
 10
262.8559489397
 20
527.3791624302
 30
0.0
  0
VERTEX
  5
4C9
  8
0
  6
CONTINUOUS
 62
     7
 10
262.5967874781
 20
526.4892268782
 30
0.0
  0
VERTEX
  5
4CA
  8
0
  6
CONTINUOUS
 62
     7
 10
262.3517315445
 20
525.5152209768
 30
0.0
  0
VERTEX
  5
4CB
  8
0
  6
CONTINUOUS
 62
     7
 10
262.0100884956
 20
523.8653148389
 30
0.0
  0
SEQEND
  5
50E
  8
0
  6
CONTINUOUS
 62
     7
  0
LINE
  5
303
  8
0
  6
CONTINUOUS
 62
     7
 10
262.0100884956
 20
523.8653148389
 30
0.0
 11
262.0100884956
 21
524.2465253975
 31
0.0
  0
LINE
  5
304
  8
0
  6
CONTINUOUS
 62
     7
 10
264.3664664456
 20
531.3019441951
 30
0.0
 11
276.0100884956
 21
531.3019441951
 31
0.0
  0
LINE
  5
305
  8
0
  6
CONTINUOUS
 62
     7
 10
276.0100884956
 20
523.1019441951
 30
0.0
 11
264.3664664456
 21
523.1019441951
 31
0.0
  0
LINE
  5
306
  8
0
  6
CONTINUOUS
 62
     7
 10
276.0100884956
 20
531.3019441951
 30
0.0
 11
276.0100884956
 21
523.1019441951
 31
0.0
  0
LINE
  5
307
  8
0
  6
CONTINUOUS
 62
     7
 10
263.2916805093
 20
461.2019441951
 30
0.0
 11
262.0100884956
 21
461.2019441951
 31
0.0
  0
LINE
  5
308
  8
0
  6
CONTINUOUS
 62
     7
 10
263.2916805093
 20
516.4019441951
 30
0.0
 11
262.0100884956
 21
516.4019441951
 31
0.0
  0
LINE
  5
309
  8
0
  6
CONTINUOUS
 62
     7
 10
264.3664664456
 20
454.5019441951
 30
0.0
 11
276.0100884956
 21
454.5019441951
 31
0.0
  0
ARC
  5
30A
  8
0
  6
CONTINUOUS
 62
     7
 10
456.7651670649
 20
488.8019441951
 30
0.0
 40
195.4322133119308
 50
188.1187632834
 51
190.1082466645
  0
LINE
  5
30B
  8
0
  6
CONTINUOUS
 62
     7
 10
276.0100884956
 20
454.5019441951
 30
0.0
 11
276.0100884956
 21
523.1019441951
 31
0.0
  0
LINE
  5
30C
  8
0
  6
CONTINUOUS
 62
     7
 10
262.0100884956
 20
461.2019441951
 30
0.0
 11
262.0100884956
 21
516.4019441951
 31
0.0
  0
LINE
  5
30D
  8
0
  6
CONTINUOUS
 62
     7
 10
262.0100884956
 20
516.4019441951
 30
0.0
 11
262.0100884956
 21
517.4829953142
 31
0.0
  0
ARC
  5
30E
  8
0
  6
CONTINUOUS
 62
     7
 10
272.6889051641
 20
448.761290246
 30
0.0
 40
15.59094935834601
 50
127.0660932715
 51
133.2306456352
  0
LINE
  5
30F
  8
0
  6
CONTINUOUS
 62
     7
 10
262.0100884956
 20
460.1208930759
 30
0.0
 11
262.0100884956
 21
461.2019441951
 31
0.0
  0
POLYLINE
  5
310
  8
0
  6
CONTINUOUS
 62
     7
 66
     1
 10
0.0
 20
0.0
 30
0.0
 70
   128
  0
VERTEX
  5
4CC
  8
0
  6
CONTINUOUS
 62
     7
 10
264.3664664456
 20
446.3019441951
 30
0.0
  0
VERTEX
  5
4CD
  8
0
  6
CONTINUOUS
 62
     7
 10
264.5873189778
 20
446.4148085823
 30
0.0
  0
VERTEX
  5
4CE
  8
0
  6
CONTINUOUS
 62
     7
 10
264.7633605991
 20
446.7492633111
 30
0.0
  0
VERTEX
  5
4CF
  8
0
  6
CONTINUOUS
 62
     7
 10
264.8882709887
 20
447.3026108821
 30
0.0
  0
VERTEX
  5
4D0
  8
0
  6
CONTINUOUS
 62
     7
 10
264.958336197
 20
448.0575044993
 30
0.0
  0
VERTEX
  5
4D1
  8
0
  6
CONTINUOUS
 62
     7
 10
264.9705148929
 20
448.9782223119
 30
0.0
  0
VERTEX
  5
4D2
  8
0
  6
CONTINUOUS
 62
     7
 10
264.9269156416
 20
450.0472598802
 30
0.0
  0
VERTEX
  5
4D3
  8
0
  6
CONTINUOUS
 62
     7
 10
264.8292346102
 20
451.2252881985
 30
0.0
  0
VERTEX
  5
4D4
  8
0
  6
CONTINUOUS
 62
     7
 10
264.6813308842
 20
452.4854026076
 30
0.0
  0
VERTEX
  5
4D5
  8
0
  6
CONTINUOUS
 62
     7
 10
264.3664664456
 20
454.5019441951
 30
0.0
  0
SEQEND
  5
50F
  8
0
  6
CONTINUOUS
 62
     7
  0
LINE
  5
311
  8
0
  6
CONTINUOUS
 62
     7
 10
262.660143946
 20
446.3019441951
 30
0.0
 11
264.3664664456
 21
446.3019441951
 31
0.0
  0
LINE
  5
312
  8
0
  6
CONTINUOUS
 62
     7
 10
262.660143946
 20
449.2787346581
 30
0.0
 11
262.660143946
 21
446.3019441951
 31
0.0
  0
ARC
  5
313
  8
0
  6
CONTINUOUS
 62
     7
 10
447.109793158
 20
480.7676029379
 30
0.0
 40
187.1182030694922
 50
188.4233529015
 51
189.6880213388
  0
POLYLINE
  5
314
  8
0
  6
CONTINUOUS
 62
     7
 66
     1
 10
0.0
 20
0.0
 30
0.0
 70
   128
  0
VERTEX
  5
4D6
  8
0
  6
CONTINUOUS
 62
     7
 10
262.0100884956
 20
453.7385735513
 30
0.0
  0
VERTEX
  5
4D7
  8
0
  6
CONTINUOUS
 62
     7
 10
262.2124842878
 20
452.7129024019
 30
0.0
  0
VERTEX
  5
4D8
  8
0
  6
CONTINUOUS
 62
     7
 10
262.4393239671
 20
451.7238028992
 30
0.0
  0
VERTEX
  5
4D9
  8
0
  6
CONTINUOUS
 62
     7
 10
262.6841070806
 20
450.7998908017
 30
0.0
  0
VERTEX
  5
4DA
  8
0
  6
CONTINUOUS
 62
     7
 10
262.9399128989
 20
449.9643740861
 30
0.0
  0
VERTEX
  5
4DB
  8
0
  6
CONTINUOUS
 62
     7
 10
263.2045247058
 20
449.2289225427
 30
0.0
  0
VERTEX
  5
4DC
  8
0
  6
CONTINUOUS
 62
     7
 10
263.4659909661
 20
448.6284106728
 30
0.0
  0
VERTEX
  5
4DD
  8
0
  6
CONTINUOUS
 62
     7
 10
263.7184480583
 20
448.1798906788
 30
0.0
  0
VERTEX
  5
4DE
  8
0
  6
CONTINUOUS
 62
     7
 10
263.9527692997
 20
447.9002999399
 30
0.0
  0
VERTEX
  5
4DF
  8
0
  6
CONTINUOUS
 62
     7
 10
264.1586483512
 20
447.8027988732
 30
0.0
  0
VERTEX
  5
4E0
  8
0
  6
CONTINUOUS
 62
     7
 10
264.3332372864
 20
447.8853620831
 30
0.0
  0
VERTEX
  5
4E1
  8
0
  6
CONTINUOUS
 62
     7
 10
264.4666771123
 20
448.1408582535
 30
0.0
  0
VERTEX
  5
4E2
  8
0
  6
CONTINUOUS
 62
     7
 10
264.560464264
 20
448.5612334721
 30
0.0
  0
VERTEX
  5
4E3
  8
0
  6
CONTINUOUS
 62
     7
 10
264.6097321444
 20
449.1181585112
 30
0.0
  0
VERTEX
  5
4E4
  8
0
  6
CONTINUOUS
 62
     7
 10
264.6168682996
 20
449.8044002287
 30
0.0
  0
VERTEX
  5
4E5
  8
0
  6
CONTINUOUS
 62
     7
 10
264.5819804103
 20
450.5866944068
 30
0.0
  0
VERTEX
  5
4E6
  8
0
  6
CONTINUOUS
 62
     7
 10
264.5073575012
 20
451.4522017207
 30
0.0
  0
VERTEX
  5
4E7
  8
0
  6
CONTINUOUS
 62
     7
 10
264.3945699956
 20
452.3795847384
 30
0.0
  0
VERTEX
  5
4E8
  8
0
  6
CONTINUOUS
 62
     7
 10
264.2478607456
 20
453.3400415935
 30
0.0
  0
VERTEX
  5
4E9
  8
0
  6
CONTINUOUS
 62
     7
 10
264.067224001
 20
454.3282501472
 30
0.0
  0
VERTEX
  5
4EA
  8
0
  6
CONTINUOUS
 62
     7
 10
263.8611729288
 20
455.2975624403
 30
0.0
  0
VERTEX
  5
4EB
  8
0
  6
CONTINUOUS
 62
     7
 10
263.628089514
 20
456.2497719923
 30
0.0
  0
VERTEX
  5
4EC
  8
0
  6
CONTINUOUS
 62
     7
 10
263.380711933
 20
457.1304413181
 30
0.0
  0
VERTEX
  5
4ED
  8
0
  6
CONTINUOUS
 62
     7
 10
263.1187014354
 20
457.9353504766
 30
0.0
  0
VERTEX
  5
4EE
  8
0
  6
CONTINUOUS
 62
     7
 10
262.8559489397
 20
458.6189463435
 30
0.0
  0
VERTEX
  5
4EF
  8
0
  6
CONTINUOUS
 62
     7
 10
262.5967874781
 20
459.165805567
 30
0.0
  0
VERTEX
  5
4F0
  8
0
  6
CONTINUOUS
 62
     7
 10
262.3517315445
 20
459.5521339893
 30
0.0
  0
VERTEX
  5
4F1
  8
0
  6
CONTINUOUS
 62
     7
 10
262.0100884956
 20
459.8016095325
 30
0.0
  0
SEQEND
  5
510
  8
0
  6
CONTINUOUS
 62
     7
  0
LINE
  5
315
  8
0
  6
CONTINUOUS
 62
     7
 10
262.0100884956
 20
459.8016095325
 30
0.0
 11
262.0100884956
 21
460.1208930759
 31
0.0
  0
LINE
  5
316
  8
0
  6
CONTINUOUS
 62
     7
 10
262.0100884956
 20
453.3573629926
 30
0.0
 11
262.0100884956
 21
453.7385735513
 31
0.0
  0
LINE
  5
317
  8
0
  6
CONTINUOUS
 62
     7
 10
276.0100884956
 20
446.3019441951
 30
0.0
 11
264.3664664456
 21
446.3019441951
 31
0.0
  0
LINE
  5
318
  8
0
  6
CONTINUOUS
 62
     7
 10
276.0100884956
 20
454.5019441951
 30
0.0
 11
276.0100884956
 21
446.3019441951
 31
0.0
  0
LINE
  5
319
  8
0
  6
CONTINUOUS
 62
     7
 10
262.0100884956
 20
523.8653148389
 30
0.0
 11
262.0100884956
 21
517.8022788576
 31
0.0
  0
LINE
  5
31A
  8
0
  6
CONTINUOUS
 62
     7
 10
262.0100884956
 20
459.8016095325
 30
0.0
 11
262.0100884956
 21
453.7385735513
 31
0.0
  0
LINE
  5
31B
  8
0
  6
CONTINUOUS
 62
     7
 10
279.0100884956
 20
458.8019441951
 30
0.0
 11
279.0100884956
 21
518.8019441951
 31
0.0
  0
LINE
  5
31C
  8
0
  6
CONTINUOUS
 62
     7
 10
262.660143946
 20
528.3251537321
 30
0.0
 11
262.0100884956
 21
528.3251537321
 31
0.0
  0
LINE
  5
31D
  8
0
  6
CONTINUOUS
 62
     7
 10
262.0100884956
 20
524.2465253975
 30
0.0
 11
262.0100884956
 21
528.3251537321
 31
0.0
  0
LINE
  5
31E
  8
0
  6
CONTINUOUS
 62
     7
 10
262.660143946
 20
449.2787346581
 30
0.0
 11
262.0100884956
 21
449.2787346581
 31
0.0
  0
LINE
  5
31F
  8
0
  6
CONTINUOUS
 62
     7
 10
262.0100884956
 20
449.2787346581
 30
0.0
 11
262.0100884956
 21
453.3573629926
 31
0.0
  0
LINE
  5
320
  8
0
  6
CONTINUOUS
 62
     7
 10
262.660143946
 20
531.3019441951
 30
0.0
 11
262.0100884956
 21
531.3019441951
 31
0.0
  0
LINE
  5
321
  8
0
  6
CONTINUOUS
 62
     7
 10
262.0100884956
 20
528.3251537321
 30
0.0
 11
262.0100884956
 21
531.3019441951
 31
0.0
  0
LINE
  5
322
  8
0
  6
CONTINUOUS
 62
     7
 10
262.660143946
 20
446.3019441951
 30
0.0
 11
262.0100884956
 21
446.3019441951
 31
0.0
  0
LINE
  5
323
  8
0
  6
CONTINUOUS
 62
     7
 10
262.0100884956
 20
446.3019441951
 30
0.0
 11
262.0100884956
 21
449.2787346581
 31
0.0
  0
LINE
  5
324
  8
0
  6
CONTINUOUS
 62
     7
 10
313.0100884956
 20
496.8019441951
 30
0.0
 11
313.0100884956
 21
480.8019441951
 31
0.0
  0
LINE
  5
325
  8
0
  6
CONTINUOUS
 62
     7
 10
146.3579859454
 20
531.3019441951
 30
0.0
 11
145.0307957524
 21
531.3019441951
 31
0.0
  0
LINE
  5
326
  8
0
  6
CONTINUOUS
 62
     7
 10
146.3579859454
 20
528.3251537321
 30
0.0
 11
146.3579859454
 21
531.3019441951
 31
0.0
  0
ARC
  5
327
  8
0
  6
CONTINUOUS
 62
     7
 10
330.7865009397
 20
496.8396977519
 30
0.0
 40
187.096796020869
 50
170.3119195882
 51
172.1467954868
  0
ARC
  5
328
  8
0
  6
CONTINUOUS
 62
     7
 10
154.9100752458
 20
520.1747943993
 30
0.0
 40
9.724560197947495
 50
166.7494088549
 51
194.9191989765
  0
ARC
  5
329
  8
0
  6
CONTINUOUS
 62
     7
 10
156.0806148229
 20
528.4687708901
 30
0.0
 40
15.10815230114882
 50
225.6177087515
 51
233.0057964162
  0
ARC
  5
32A
  8
0
  6
CONTINUOUS
 62
     7
 10
340.4630090643
 20
488.8019441951
 30
0.0
 40
195.4322133119308
 50
171.8812367166
 51
188.1187632834
  0
ARC
  5
32B
  8
0
  6
CONTINUOUS
 62
     7
 10
156.0806148229
 20
449.1351175
 30
0.0
 40
15.10815230113534
 50
126.9942035838
 51
134.3822912485
  0
POLYLINE
  5
32C
  8
0
  6
CONTINUOUS
 62
     7
 66
     1
 10
0.0
 20
0.0
 30
0.0
 70
   128
  0
VERTEX
  5
4F2
  8
0
  6
CONTINUOUS
 62
     7
 10
145.4444130482
 20
455.2001233305
 30
0.0
  0
VERTEX
  5
4F3
  8
0
  6
CONTINUOUS
 62
     7
 10
145.3264679833
 20
456.1674538702
 30
0.0
  0
VERTEX
  5
4F4
  8
0
  6
CONTINUOUS
 62
     7
 10
145.2470634904
 20
457.0748400248
 30
0.0
  0
VERTEX
  5
4F5
  8
0
  6
CONTINUOUS
 62
     7
 10
145.2093219973
 20
457.8954583838
 30
0.0
  0
VERTEX
  5
4F6
  8
0
  6
CONTINUOUS
 62
     7
 10
145.2139464756
 20
458.605979313
 30
0.0
  0
VERTEX
  5
4F7
  8
0
  6
CONTINUOUS
 62
     7
 10
145.2607697911
 20
459.1793560214
 30
0.0
  0
VERTEX
  5
4F8
  8
0
  6
CONTINUOUS
 62
     7
 10
145.347527368
 20
459.6094357536
 30
0.0
  0
VERTEX
  5
4F9
  8
0
  6
CONTINUOUS
 62
     7
 10
145.5133312982
 20
459.9327461685
 30
0.0
  0
SEQEND
  5
511
  8
0
  6
CONTINUOUS
 62
     7
  0
ARC
  5
32D
  8
0
  6
CONTINUOUS
 62
     7
 10
330.7865009397
 20
480.7641906383
 30
0.0
 40
187.096796020871
 50
187.8532045132
 51
189.6880804118
  0
LINE
  5
32E
  8
0
  6
CONTINUOUS
 62
     7
 10
146.3579859454
 20
446.3019441951
 30
0.0
 11
146.3579859454
 21
449.2787346581
 31
0.0
  0
LINE
  5
32F
  8
0
  6
CONTINUOUS
 62
     7
 10
145.0307957524
 20
446.3019441951
 30
0.0
 11
146.3579859454
 21
446.3019441951
 31
0.0
  0
LINE
  5
330
  8
0
  6
CONTINUOUS
 62
     7
 10
144.0100884956
 20
526.3019441951
 30
0.0
 11
144.0100884956
 21
451.3019441951
 31
0.0
  0
LINE
  5
331
  8
0
  6
CONTINUOUS
 62
     7
 10
145.5133312982
 20
517.6711422216
 30
0.0
 11
158.9100884956
 21
517.6711422216
 31
0.0
  0
LINE
  5
332
  8
0
  6
CONTINUOUS
 62
     7
 10
146.9895225087
 20
516.4019441951
 30
0.0
 11
158.9100884956
 21
516.4019441951
 31
0.0
  0
LINE
  5
333
  8
0
  6
CONTINUOUS
 62
     7
 10
158.9100884956
 20
516.4019441951
 30
0.0
 11
158.9100884956
 21
517.6711422216
 31
0.0
  0
LINE
  5
334
  8
0
  6
CONTINUOUS
 62
     7
 10
146.9895225087
 20
461.2019441951
 30
0.0
 11
158.9100884956
 21
461.2019441951
 31
0.0
  0
LINE
  5
335
  8
0
  6
CONTINUOUS
 62
     7
 10
158.9100884956
 20
461.2019441951
 30
0.0
 11
158.9100884956
 21
516.4019441951
 31
0.0
  0
LINE
  5
336
  8
0
  6
CONTINUOUS
 62
     7
 10
145.5133312982
 20
459.9327461685
 30
0.0
 11
158.9100884956
 21
459.9327461685
 31
0.0
  0
LINE
  5
337
  8
0
  6
CONTINUOUS
 62
     7
 10
158.9100884956
 20
459.9327461685
 30
0.0
 11
158.9100884956
 21
461.2019441951
 31
0.0
  0
LINE
  5
338
  8
0
  6
CONTINUOUS
 62
     7
 10
145.4444130482
 20
522.4037650596
 30
0.0
 11
158.9100884956
 21
522.4037650596
 31
0.0
  0
LINE
  5
339
  8
0
  6
CONTINUOUS
 62
     7
 10
158.9100884956
 20
517.6711422216
 30
0.0
 11
158.9100884956
 21
522.4037650596
 31
0.0
  0
LINE
  5
33A
  8
0
  6
CONTINUOUS
 62
     7
 10
145.4444130482
 20
455.2001233305
 30
0.0
 11
158.9100884956
 21
455.2001233305
 31
0.0
  0
LINE
  5
33B
  8
0
  6
CONTINUOUS
 62
     7
 10
158.9100884956
 20
455.2001233305
 30
0.0
 11
158.9100884956
 21
459.9327461685
 31
0.0
  0
LINE
  5
33C
  8
0
  6
CONTINUOUS
 62
     7
 10
146.3579859454
 20
528.3251537321
 30
0.0
 11
158.9100884956
 21
528.3251537321
 31
0.0
  0
LINE
  5
33D
  8
0
  6
CONTINUOUS
 62
     7
 10
158.9100884956
 20
522.4037650596
 30
0.0
 11
158.9100884956
 21
528.3251537321
 31
0.0
  0
LINE
  5
33E
  8
0
  6
CONTINUOUS
 62
     7
 10
146.3579859454
 20
449.2787346581
 30
0.0
 11
158.9100884956
 21
449.2787346581
 31
0.0
  0
LINE
  5
33F
  8
0
  6
CONTINUOUS
 62
     7
 10
158.9100884956
 20
449.2787346581
 30
0.0
 11
158.9100884956
 21
455.2001233305
 31
0.0
  0
LINE
  5
340
  8
0
  6
CONTINUOUS
 62
     7
 10
146.3579859454
 20
531.3019441951
 30
0.0
 11
158.9100884956
 21
531.3019441951
 31
0.0
  0
LINE
  5
341
  8
0
  6
CONTINUOUS
 62
     7
 10
158.9100884956
 20
528.3251537321
 30
0.0
 11
158.9100884956
 21
531.3019441951
 31
0.0
  0
LINE
  5
342
  8
0
  6
CONTINUOUS
 62
     7
 10
146.3579859454
 20
446.3019441951
 30
0.0
 11
158.9100884956
 21
446.3019441951
 31
0.0
  0
LINE
  5
343
  8
0
  6
CONTINUOUS
 62
     7
 10
158.9100884956
 20
446.3019441951
 30
0.0
 11
158.9100884956
 21
449.2787346581
 31
0.0
  0
LINE
  5
344
  8
0
  6
CONTINUOUS
 62
     7
 10
158.9100884956
 20
516.4019441951
 30
0.0
 11
172.0100884956
 21
516.4019441951
 31
0.0
  0
LINE
  5
345
  8
0
  6
CONTINUOUS
 62
     7
 10
158.9100884956
 20
517.6711422216
 30
0.0
 11
172.0100884956
 21
517.6711422216
 31
0.0
  0
LINE
  5
346
  8
0
  6
CONTINUOUS
 62
     7
 10
172.0100884956
 20
516.4019441951
 30
0.0
 11
172.0100884956
 21
517.6711422216
 31
0.0
  0
LINE
  5
347
  8
0
  6
CONTINUOUS
 62
     7
 10
158.9100884956
 20
461.2019441951
 30
0.0
 11
172.0100884956
 21
461.2019441951
 31
0.0
  0
LINE
  5
348
  8
0
  6
CONTINUOUS
 62
     7
 10
172.0100884956
 20
461.2019441951
 30
0.0
 11
172.0100884956
 21
516.4019441951
 31
0.0
  0
LINE
  5
349
  8
0
  6
CONTINUOUS
 62
     7
 10
158.9100884956
 20
459.9327461685
 30
0.0
 11
172.0100884956
 21
459.9327461685
 31
0.0
  0
LINE
  5
34A
  8
0
  6
CONTINUOUS
 62
     7
 10
172.0100884956
 20
459.9327461685
 30
0.0
 11
172.0100884956
 21
461.2019441951
 31
0.0
  0
LINE
  5
34B
  8
0
  6
CONTINUOUS
 62
     7
 10
158.9100884956
 20
522.4037650596
 30
0.0
 11
172.0100884956
 21
522.4037650596
 31
0.0
  0
LINE
  5
34C
  8
0
  6
CONTINUOUS
 62
     7
 10
172.0100884956
 20
517.6711422216
 30
0.0
 11
172.0100884956
 21
522.4037650596
 31
0.0
  0
LINE
  5
34D
  8
0
  6
CONTINUOUS
 62
     7
 10
158.9100884956
 20
455.2001233305
 30
0.0
 11
172.0100884956
 21
455.2001233305
 31
0.0
  0
LINE
  5
34E
  8
0
  6
CONTINUOUS
 62
     7
 10
172.0100884956
 20
455.2001233305
 30
0.0
 11
172.0100884956
 21
459.9327461685
 31
0.0
  0
LINE
  5
34F
  8
0
  6
CONTINUOUS
 62
     7
 10
158.9100884956
 20
528.3251537321
 30
0.0
 11
172.0100884956
 21
528.3251537321
 31
0.0
  0
LINE
  5
350
  8
0
  6
CONTINUOUS
 62
     7
 10
172.0100884956
 20
522.4037650596
 30
0.0
 11
172.0100884956
 21
528.3251537321
 31
0.0
  0
LINE
  5
351
  8
0
  6
CONTINUOUS
 62
     7
 10
158.9100884956
 20
449.2787346581
 30
0.0
 11
172.0100884956
 21
449.2787346581
 31
0.0
  0
LINE
  5
352
  8
0
  6
CONTINUOUS
 62
     7
 10
172.0100884956
 20
449.2787346581
 30
0.0
 11
172.0100884956
 21
455.2001233305
 31
0.0
  0
LINE
  5
353
  8
0
  6
CONTINUOUS
 62
     7
 10
158.9100884956
 20
531.3019441951
 30
0.0
 11
172.0100884956
 21
531.3019441951
 31
0.0
  0
LINE
  5
354
  8
0
  6
CONTINUOUS
 62
     7
 10
172.0100884956
 20
528.3251537321
 30
0.0
 11
172.0100884956
 21
531.3019441951
 31
0.0
  0
LINE
  5
355
  8
0
  6
CONTINUOUS
 62
     7
 10
158.9100884956
 20
446.3019441951
 30
0.0
 11
172.0100884956
 21
446.3019441951
 31
0.0
  0
LINE
  5
356
  8
0
  6
CONTINUOUS
 62
     7
 10
172.0100884956
 20
446.3019441951
 30
0.0
 11
172.0100884956
 21
449.2787346581
 31
0.0
  0
LINE
  5
357
  8
0
  6
CONTINUOUS
 62
     7
 10
172.0100884956
 20
516.4019441951
 30
0.0
 11
175.0100884956
 21
516.4019441951
 31
0.0
  0
LINE
  5
358
  8
0
  6
CONTINUOUS
 62
     7
 10
172.0100884956
 20
517.6711422216
 30
0.0
 11
175.0100884956
 21
517.6711422216
 31
0.0
  0
LINE
  5
359
  8
0
  6
CONTINUOUS
 62
     7
 10
175.0100884956
 20
516.4019441951
 30
0.0
 11
175.0100884956
 21
517.6711422216
 31
0.0
  0
LINE
  5
35A
  8
0
  6
CONTINUOUS
 62
     7
 10
172.0100884956
 20
461.2019441951
 30
0.0
 11
175.0100884956
 21
461.2019441951
 31
0.0
  0
LINE
  5
35B
  8
0
  6
CONTINUOUS
 62
     7
 10
175.0100884956
 20
461.2019441951
 30
0.0
 11
175.0100884956
 21
475.3019441951
 31
0.0
  0
LINE
  5
35C
  8
0
  6
CONTINUOUS
 62
     7
 10
175.0100884956
 20
506.818361254
 30
0.0
 11
175.0100884956
 21
516.4019441951
 31
0.0
  0
LINE
  5
35D
  8
0
  6
CONTINUOUS
 62
     7
 10
172.0100884956
 20
459.9327461685
 30
0.0
 11
175.0100884956
 21
459.9327461685
 31
0.0
  0
LINE
  5
35E
  8
0
  6
CONTINUOUS
 62
     7
 10
175.0100884956
 20
459.9327461685
 30
0.0
 11
175.0100884956
 21
461.2019441951
 31
0.0
  0
LINE
  5
35F
  8
0
  6
CONTINUOUS
 62
     7
 10
172.0100884956
 20
522.4037650596
 30
0.0
 11
175.0100884956
 21
522.4037650596
 31
0.0
  0
LINE
  5
360
  8
0
  6
CONTINUOUS
 62
     7
 10
175.0100884956
 20
517.6711422216
 30
0.0
 11
175.0100884956
 21
522.4037650596
 31
0.0
  0
LINE
  5
361
  8
0
  6
CONTINUOUS
 62
     7
 10
172.0100884956
 20
455.2001233305
 30
0.0
 11
175.0100884956
 21
455.2001233305
 31
0.0
  0
LINE
  5
362
  8
0
  6
CONTINUOUS
 62
     7
 10
175.0100884956
 20
455.2001233305
 30
0.0
 11
175.0100884956
 21
459.9327461685
 31
0.0
  0
LINE
  5
363
  8
0
  6
CONTINUOUS
 62
     7
 10
172.0100884956
 20
528.3251537321
 30
0.0
 11
175.0100884956
 21
528.3251537321
 31
0.0
  0
LINE
  5
364
  8
0
  6
CONTINUOUS
 62
     7
 10
175.0100884956
 20
522.4037650596
 30
0.0
 11
175.0100884956
 21
528.3251537321
 31
0.0
  0
LINE
  5
365
  8
0
  6
CONTINUOUS
 62
     7
 10
172.0100884956
 20
449.2787346581
 30
0.0
 11
175.0100884956
 21
449.2787346581
 31
0.0
  0
LINE
  5
366
  8
0
  6
CONTINUOUS
 62
     7
 10
175.0100884956
 20
449.2787346581
 30
0.0
 11
175.0100884956
 21
455.2001233305
 31
0.0
  0
LINE
  5
367
  8
0
  6
CONTINUOUS
 62
     7
 10
172.0100884956
 20
531.3019441951
 30
0.0
 11
175.0100884956
 21
531.3019441951
 31
0.0
  0
LINE
  5
368
  8
0
  6
CONTINUOUS
 62
     7
 10
175.0100884956
 20
528.3251537321
 30
0.0
 11
175.0100884956
 21
531.3019441951
 31
0.0
  0
LINE
  5
369
  8
0
  6
CONTINUOUS
 62
     7
 10
172.0100884956
 20
446.3019441951
 30
0.0
 11
175.0100884956
 21
446.3019441951
 31
0.0
  0
LINE
  5
36A
  8
0
  6
CONTINUOUS
 62
     7
 10
175.0100884956
 20
446.3019441951
 30
0.0
 11
175.0100884956
 21
449.2787346581
 31
0.0
  0
LINE
  5
36B
  8
0
  6
CONTINUOUS
 62
     7
 10
175.0100884956
 20
516.4019441951
 30
0.0
 11
262.0100884956
 21
516.4019441951
 31
0.0
  0
LINE
  5
36C
  8
0
  6
CONTINUOUS
 62
     7
 10
175.0100884956
 20
517.6711422216
 30
0.0
 11
262.0100884956
 21
517.6711422216
 31
0.0
  0
LINE
  5
36D
  8
0
  6
CONTINUOUS
 62
     7
 10
175.0100884956
 20
461.2019441951
 30
0.0
 11
262.0100884956
 21
461.2019441951
 31
0.0
  0
LINE
  5
36E
  8
0
  6
CONTINUOUS
 62
     7
 10
175.0100884956
 20
459.9327461685
 30
0.0
 11
262.0100884956
 21
459.9327461685
 31
0.0
  0
LINE
  5
36F
  8
0
  6
CONTINUOUS
 62
     7
 10
175.0100884956
 20
522.4037650596
 30
0.0
 11
262.0100884956
 21
522.4037650596
 31
0.0
  0
LINE
  5
370
  8
0
  6
CONTINUOUS
 62
     7
 10
175.0100884956
 20
455.2001233305
 30
0.0
 11
262.0100884956
 21
455.2001233305
 31
0.0
  0
LINE
  5
371
  8
0
  6
CONTINUOUS
 62
     7
 10
175.0100884956
 20
528.3251537321
 30
0.0
 11
262.0100884956
 21
528.3251537321
 31
0.0
  0
LINE
  5
372
  8
0
  6
CONTINUOUS
 62
     7
 10
175.0100884956
 20
449.2787346581
 30
0.0
 11
262.0100884956
 21
449.2787346581
 31
0.0
  0
LINE
  5
373
  8
0
  6
CONTINUOUS
 62
     7
 10
175.0100884956
 20
531.3019441951
 30
0.0
 11
262.0100884956
 21
531.3019441951
 31
0.0
  0
LINE
  5
374
  8
0
  6
CONTINUOUS
 62
     7
 10
175.0100884956
 20
446.3019441951
 30
0.0
 11
262.0100884956
 21
446.3019441951
 31
0.0
  0
LINE
  5
375
  8
0
  6
CONTINUOUS
 62
     7
 10
176.0243391961
 20
507.3019441951
 30
0.0
 11
180.395837795
 21
507.3019441951
 31
0.0
  0
ARC
  5
376
  8
0
  6
CONTINUOUS
 62
     7
 10
180.3994182318
 20
506.0002176995
 30
0.0
 40
1.301731419622032
 50
0.0759918196
 51
90.1575933205
  0
LINE
  5
377
  8
0
  6
CONTINUOUS
 62
     7
 10
181.7011485065
 20
506.0019441951
 30
0.0
 11
174.7190284846
 21
506.0019441951
 31
0.0
  0
ARC
  5
378
  8
0
  6
CONTINUOUS
 62
     7
 10
176.0215057477
 20
505.9994676595
 30
0.0
 40
1.302479617558963
 50
89.8753571572
 51
179.8910577026
  0
LINE
  5
379
  8
0
  6
CONTINUOUS
 62
     7
 10
174.7100884956
 20
504.9019441951
 30
0.0
 11
181.7100884956
 21
504.9019441951
 31
0.0
  0
LINE
  5
37A
  8
0
  6
CONTINUOUS
 62
     7
 10
181.7011485065
 20
506.0019441951
 30
0.0
 11
181.7100884956
 21
506.0019441951
 31
0.0
  0
LINE
  5
37B
  8
0
  6
CONTINUOUS
 62
     7
 10
174.7100884956
 20
506.0019441951
 30
0.0
 11
174.7190284846
 21
506.0019441951
 31
0.0
  0
CIRCLE
  5
37C
  8
0
  6
CONTINUOUS
 62
     7
 10
182.0100884956
 20
488.8019441951
 30
0.0
 40
5.250000000002103
  0
LINE
  5
37D
  8
0
  6
CONTINUOUS
 62
     7
 10
189.2100884956
 20
475.3019441951
 30
0.0
 11
173.0100884956
 21
475.3019441951
 31
0.0
  0
LINE
  5
37E
  8
0
  6
CONTINUOUS
 62
     7
 10
173.0100884956
 20
475.3019441951
 30
0.0
 11
173.0100884956
 21
502.3019441951
 31
0.0
  0
LINE
  5
37F
  8
0
  6
CONTINUOUS
 62
     7
 10
173.0100884956
 20
502.3019441951
 30
0.0
 11
189.2100884956
 21
502.3019441951
 31
0.0
  0
LINE
  5
380
  8
0
  6
CONTINUOUS
 62
     7
 10
189.2100884956
 20
502.3019441951
 30
0.0
 11
189.2100884956
 21
475.3019441951
 31
0.0
  0
LINE
  5
381
  8
0
  6
CONTINUOUS
 62
     7
 10
197.5100884956
 20
502.3019441951
 30
0.0
 11
189.2100884956
 21
502.3019441951
 31
0.0
  0
ARC
  5
382
  8
0
  6
CONTINUOUS
 62
     7
 10
197.5100884956
 20
498.3019441951
 30
0.0
 40
3.999999999999886
 50
0.0000000001
 51
90.0
  0
LINE
  5
383
  8
0
  6
CONTINUOUS
 62
     7
 10
201.5100884956
 20
498.3019441951
 30
0.0
 11
201.5100884956
 21
479.3019441951
 31
0.0
  0
ARC
  5
384
  8
0
  6
CONTINUOUS
 62
     7
 10
197.5100884956
 20
479.3019441951
 30
0.0
 40
4.000000000000028
 50
270.0
 51
359.9999999999
  0
LINE
  5
385
  8
0
  6
CONTINUOUS
 62
     7
 10
197.5100884956
 20
475.3019441951
 30
0.0
 11
189.2100884956
 21
475.3019441951
 31
0.0
  0
LINE
  5
386
  8
0
  6
CONTINUOUS
 62
     7
 10
184.2100884956
 20
502.6019441951
 30
0.0
 11
190.2100884956
 21
502.6019441951
 31
0.0
  0
CIRCLE
  5
387
  8
0
  6
CONTINUOUS
 62
     7
 10
151.9100884956
 20
488.8019441951
 30
0.0
 40
5.0
  0
LINE
  5
388
  8
0
  6
CONTINUOUS
 62
     7
 10
157.9100884956
 20
475.8019441951
 30
0.0
 11
145.9100884956
 21
475.8019441951
 31
0.0
  0
LINE
  5
389
  8
0
  6
CONTINUOUS
 62
     7
 10
145.9100884956
 20
501.8019441951
 30
0.0
 11
157.9100884956
 21
501.8019441951
 31
0.0
  0
LINE
  5
38A
  8
0
  6
CONTINUOUS
 62
     7
 10
145.9100884956
 20
475.8019441951
 30
0.0
 11
145.9100884956
 21
501.8019441951
 31
0.0
  0
LINE
  5
38B
  8
0
  6
CONTINUOUS
 62
     7
 10
157.9100884956
 20
475.8019441951
 30
0.0
 11
157.9100884956
 21
501.8019441951
 31
0.0
  0
ENDSEC
  0
EOF
