  0
SECTION
  2
HEADER
  9
$ACADVER
  1
AC1009
  9
$DWGCODEPAGE
  3
dos932
  9
$INSBASE
 10
0.0
 20
0.0
 30
0.0
  9
$EXTMIN
 10
0.0
 20
0.0
 30
0.0
  9
$EXTMAX
 10
431.8
 20
279.4
 30
0.0
  9
$LIMMIN
 10
0.0
 20
0.0
  9
$LIMMAX
 10
431.8
 20
279.4
  9
$ORTHOMODE
 70
     0
  9
$REGENMODE
 70
     1
  9
$FILLMODE
 70
     1
  9
$QTEXTMODE
 70
     0
  9
$MIRRTEXT
 70
     1
  9
$DRAGMODE
 70
     2
  9
$LTSCALE
 40
1.0
  9
$OSMODE
 70
    37
  9
$ATTMODE
 70
     1
  9
$TEXTSIZE
 40
3.5
  9
$TRACEWID
 40
1.0
  9
$TEXTSTYLE
  7
STANDARD
  9
$CLAYER
  8
0
  9
$CELTYPE
  6
BYLAYER
  9
$CECOLOR
 62
   256
  9
$DIMSCALE
 40
1.0
  9
$DIMASZ
 40
3.0
  9
$DIMEXO
 40
0.01
  9
$DIMDLI
 40
3.75
  9
$DIMRND
 40
0.0
  9
$DIMDLE
 40
0.0
  9
$DIMEXE
 40
1.0
  9
$DIMTP
 40
0.0
  9
$DIMTM
 40
0.0
  9
$DIMTXT
 40
3.5
  9
$DIMCEN
 40
2.5
  9
$DIMTSZ
 40
0.0
  9
$DIMTOL
 70
     0
  9
$DIMLIM
 70
     0
  9
$DIMTIH
 70
     1
  9
$DIMTOH
 70
     1
  9
$DIMSE1
 70
     0
  9
$DIMSE2
 70
     0
  9
$DIMTAD
 70
     1
  9
$DIMZIN
 70
     0
  9
$DIMBLK
  1

  9
$DIMASO
 70
     1
  9
$DIMSHO
 70
     1
  9
$DIMPOST
  1

  9
$DIMAPOST
  1

  9
$DIMALT
 70
     0
  9
$DIMALTD
 70
     3
  9
$DIMALTF
 40
0.0393700787
  9
$DIMLFAC
 40
1.0
  9
$DIMTOFL
 70
     1
  9
$DIMTVP
 40
0.0
  9
$DIMTIX
 70
     0
  9
$DIMSOXD
 70
     0
  9
$DIMSAH
 70
     0
  9
$DIMBLK1
  1

  9
$DIMBLK2
  1

  9
$DIMSTYLE
  2
ISO-25
  9
$DIMCLRD
 70
     0
  9
$DIMCLRE
 70
     0
  9
$DIMCLRT
 70
     0
  9
$DIMTFAC
 40
1.0
  9
$DIMGAP
 40
1.524
  9
$LUNITS
 70
     2
  9
$LUPREC
 70
     4
  9
$SKETCHINC
 40
1.0
  9
$FILLETRAD
 40
10.0
  9
$AUNITS
 70
     0
  9
$AUPREC
 70
     2
  9
$MENU
  1
.
  9
$ELEVATION
 40
0.0
  9
$PELEVATION
 40
0.0
  9
$THICKNESS
 40
0.0
  9
$LIMCHECK
 70
     0
  9
$CHAMFERA
 40
0.0
  9
$CHAMFERB
 40
0.0
  9
$SKPOLY
 70
     0
  9
$TDCREATE
 40
2459916.69343088
  9
$TDUPDATE
 40
2459916.693431736
  9
$TDINDWG
 40
0.0000000116
  9
$TDUSRTIMER
 40
0.0000000116
  9
$USRTIMER
 70
     1
  9
$ANGBASE
 50
0.0
  9
$ANGDIR
 70
     0
  9
$PDMODE
 70
     0
  9
$PDSIZE
 40
-1.0
  9
$PLINEWID
 40
0.0
  9
$COORDS
 70
     1
  9
$SPLFRAME
 70
     0
  9
$SPLINETYPE
 70
     6
  9
$SPLINESEGS
 70
     8
  9
$ATTDIA
 70
     0
  9
$ATTREQ
 70
     1
  9
$HANDLING
 70
     1
  9
$HANDSEED
  5
4F0
  9
$SURFTAB1
 70
     6
  9
$SURFTAB2
 70
     6
  9
$SURFTYPE
 70
     6
  9
$SURFU
 70
     6
  9
$SURFV
 70
     6
  9
$UCSNAME
  2

  9
$UCSORG
 10
0.0
 20
0.0
 30
0.0
  9
$UCSXDIR
 10
1.0
 20
0.0
 30
0.0
  9
$UCSYDIR
 10
0.0
 20
1.0
 30
0.0
  9
$PUCSNAME
  2

  9
$PUCSORG
 10
0.0
 20
0.0
 30
0.0
  9
$PUCSXDIR
 10
1.0
 20
0.0
 30
0.0
  9
$PUCSYDIR
 10
0.0
 20
1.0
 30
0.0
  9
$USERI1
 70
     0
  9
$USERI2
 70
     0
  9
$USERI3
 70
     0
  9
$USERI4
 70
     0
  9
$USERI5
 70
     0
  9
$USERR1
 40
0.0
  9
$USERR2
 40
0.0
  9
$USERR3
 40
0.0
  9
$USERR4
 40
0.0
  9
$USERR5
 40
0.0
  9
$WORLDVIEW
 70
     1
  9
$SHADEDGE
 70
     3
  9
$SHADEDIF
 70
    70
  9
$TILEMODE
 70
     1
  9
$MAXACTVP
 70
    64
  9
$PLIMCHECK
 70
     0
  9
$PEXTMIN
 10
1.0000000000E+20
 20
1.0000000000E+20
 30
1.0000000000E+20
  9
$PEXTMAX
 10
-1.0000000000E+20
 20
-1.0000000000E+20
 30
-1.0000000000E+20
  9
$PLIMMIN
 10
0.0
 20
0.0
  9
$PLIMMAX
 10
420.0
 20
297.0
  9
$UNITMODE
 70
     0
  9
$VISRETAIN
 70
     1
  9
$PLINEGEN
 70
     0
  9
$PSLTSCALE
 70
     1
  0
ENDSEC
  0
SECTION
  2
TABLES
  0
TABLE
  2
VPORT
 70
     1
  0
VPORT
  2
*ACTIVE
 70
     0
 10
0.0
 20
0.0
 11
1.0
 21
1.0
 12
215.9
 22
139.7
 13
0.0
 23
0.0
 14
10.0
 24
10.0
 15
10.0
 25
10.0
 16
0.0
 26
0.0
 36
1.0
 17
0.0
 27
0.0
 37
0.0
 40
279.4
 41
1.5454545455
 42
50.0
 43
0.0
 44
0.0
 50
0.0
 51
0.0
 71
     0
 72
  2000
 73
     1
 74
     3
 75
     0
 76
     0
 77
     0
 78
     0
  0
ENDTAB
  0
TABLE
  2
LTYPE
 70
     6
  0
LTYPE
  2
CONTINUOUS
 70
     0
  3
Solid line
 72
    65
 73
     0
 40
0.0
  0
LTYPE
  2
HIDDEN
 70
     0
  3
Hidden __ __ __ __ __ __ __ __ __ __ __ __ __ __
 72
    65
 73
     2
 40
1.905
 49
1.27
 49
-0.635
  0
LTYPE
  2
PHANTOM
 70
     0
  3
Phantom ______  __  __  ______  __  __  ______
 72
    65
 73
     6
 40
12.7
 49
6.35
 49
-1.27
 49
1.27
 49
-1.27
 49
1.27
 49
-1.27
  0
LTYPE
  2
CENTER
 70
     0
  3
Center ____ _ ____ _ ____ _ ____ _ ____ _ ____
 72
    65
 73
     4
 40
10.16
 49
6.35
 49
-1.27
 49
1.27
 49
-1.27
  0
LTYPE
  2
CENTERX2
 70
     0
  3
Center (2x) ________  __  ________  __  _____
 72
    65
 73
     4
 40
20.32
 49
12.7
 49
-2.54
 49
2.54
 49
-2.54
  0
LTYPE
  2
DOT2
 70
     0
  3
Dot (.5x) ........................................
 72
    65
 73
     2
 40
0.635
 49
0.0
 49
-0.635
  0
ENDTAB
  0
TABLE
  2
LAYER
 70
     3
  0
LAYER
  2
0
 70
     0
 62
     7
  6
CONTINUOUS
  0
LAYER
  2
DIM
 70
     0
 62
     7
  6
CONTINUOUS
  0
LAYER
  2
TXT
 70
     0
 62
     7
  6
CONTINUOUS
  0
ENDTAB
  0
TABLE
  2
STYLE
 70
     1
  0
STYLE
  2
STANDARD
 70
     0
 40
0.0
 41
1.0
 50
0.0
 71
     0
 42
3.5
  3
txt
  4
bigfont
  0
ENDTAB
  0
TABLE
  2
VIEW
 70
     0
  0
ENDTAB
  0
TABLE
  2
UCS
 70
     0
  0
ENDTAB
  0
TABLE
  2
APPID
 70
     1
  0
APPID
  2
ACAD
 70
     0
  0
ENDTAB
  0
TABLE
  2
DIMSTYLE
 70
     1
  0
DIMSTYLE
  2
ISO-25
 70
     0
  3

  4

  5

  6

  7

 40
1.0
 41
2.5
 42
0.625
 43
3.75
 44
1.25
 45
0.0
 46
0.0
 47
0.0
 48
0.0
140
2.5
141
2.5
142
0.0
143
0.0393700787
144
1.0
145
0.0
146
1.0
147
0.625
 71
     0
 72
     0
 73
     0
 74
     0
 75
     0
 76
     0
 77
     1
 78
     8
170
     0
171
     3
172
     1
173
     0
174
     0
175
     0
176
     0
177
     0
178
     0
  0
ENDTAB
  0
ENDSEC
  0
SECTION
  2
BLOCKS
  0
BLOCK
  8
0
  2
$MODEL_SPACE
 70
     0
 10
0.0
 20
0.0
 30
0.0
  3
$MODEL_SPACE
  1

  0
ENDBLK
  5
21
  8
0
  0
BLOCK
 67
     1
  8
0
  2
$PAPER_SPACE
 70
     0
 10
0.0
 20
0.0
 30
0.0
  3
$PAPER_SPACE
  1

  0
ENDBLK
  5
1D
 67
     1
  8
0
  0
ENDSEC
  0
SECTION
  2
ENTITIES
  0
LINE
  5
75
  8
0
  6
CONTINUOUS
 62
     7
 10
287.4658533502
 20
115.8665309735
 30
0.0
 11
284.4658533502
 21
115.8665309735
 31
0.0
  0
LINE
  5
76
  8
0
  6
CONTINUOUS
 62
     7
 10
284.4658533502
 20
79.8665309735
 30
0.0
 11
287.4658533502
 21
79.8665309735
 31
0.0
  0
LINE
  5
77
  8
0
  6
CONTINUOUS
 62
     7
 10
308.4658533502
 20
104.8665309735
 30
0.0
 11
287.4658533502
 21
104.8665309735
 31
0.0
  0
LINE
  5
78
  8
0
  6
CONTINUOUS
 62
     7
 10
287.4658533502
 20
90.8665309735
 30
0.0
 11
308.4658533502
 21
90.8665309735
 31
0.0
  0
LINE
  5
79
  8
0
  6
CONTINUOUS
 62
     7
 10
204.891133439
 20
56.8788627241
 30
0.0
 11
217.1786811754
 21
62.8727884492
 31
0.0
  0
LINE
  5
7A
  8
0
  6
CONTINUOUS
 62
     7
 10
202.899572442
 20
56.8665309735
 30
0.0
 11
204.8658533502
 21
56.8665309735
 31
0.0
  0
LINE
  5
7B
  8
0
  6
CONTINUOUS
 62
     7
 10
188.6658533502
 20
56.8665309735
 30
0.0
 11
192.4158533502
 21
56.8665309735
 31
0.0
  0
LINE
  5
7C
  8
0
  6
CONTINUOUS
 62
     7
 10
192.4158533502
 20
56.8665309735
 30
0.0
 11
192.4158533502
 21
54.8665309735
 31
0.0
  0
LINE
  5
7D
  8
0
  6
CONTINUOUS
 62
     7
 10
202.9158533502
 20
54.8665309735
 30
0.0
 11
202.9158533502
 21
56.8679514487
 31
0.0
  0
LINE
  5
7E
  8
0
  6
CONTINUOUS
 62
     7
 10
193.9158533502
 20
54.8665309735
 30
0.0
 11
193.9158533502
 21
52.8665309735
 31
0.0
  0
LINE
  5
7F
  8
0
  6
CONTINUOUS
 62
     7
 10
201.4158533502
 20
52.8665309735
 30
0.0
 11
201.4158533502
 21
54.8665309735
 31
0.0
  0
LINE
  5
80
  8
0
  6
CONTINUOUS
 62
     7
 10
200.9158533502
 20
17.8665309735
 30
0.0
 11
200.9158533502
 21
52.8665309735
 31
0.0
  0
LINE
  5
81
  8
0
  6
CONTINUOUS
 62
     7
 10
194.4158533502
 20
52.8665309735
 30
0.0
 11
194.4158533502
 21
17.8665309735
 31
0.0
  0
ARC
  5
82
  8
0
  6
CONTINUOUS
 62
     7
 10
361.39720168
 20
97.8665309735
 30
0.0
 40
200.0
 50
187.1807557815
 51
188.6269265587
  0
ARC
  5
83
  8
0
  6
CONTINUOUS
 62
     7
 10
361.39720168
 20
97.8665309735
 30
0.0
 40
200.0
 50
171.3730734413
 51
172.8192442185
  0
LINE
  5
84
  8
0
  6
CONTINUOUS
 62
     7
 10
175.350294368
 20
56.8665309735
 30
0.0
 11
176.3658533502
 21
56.8665309735
 31
0.0
  0
LINE
  5
85
  8
0
  6
CONTINUOUS
 62
     7
 10
164.3658533502
 20
56.8665309735
 30
0.0
 11
165.3658533502
 21
56.8665309735
 31
0.0
  0
LINE
  5
86
  8
0
  6
CONTINUOUS
 62
     7
 10
165.3658533502
 20
56.8665309735
 30
0.0
 11
165.3658533502
 21
54.8665309735
 31
0.0
  0
LINE
  5
87
  8
0
  6
CONTINUOUS
 62
     7
 10
175.3658533502
 20
54.8665309735
 30
0.0
 11
175.3658533502
 21
56.8678238584
 31
0.0
  0
LINE
  5
88
  8
0
  6
CONTINUOUS
 62
     7
 10
167.3658533502
 20
54.8665309735
 30
0.0
 11
167.3658533502
 21
17.8665309735
 31
0.0
  0
LINE
  5
89
  8
0
  6
CONTINUOUS
 62
     7
 10
173.3658533502
 20
17.8665309735
 30
0.0
 11
173.3658533502
 21
54.8665309735
 31
0.0
  0
LINE
  5
8A
  8
0
  6
CONTINUOUS
 62
     7
 10
287.4658533502
 20
115.8665309735
 30
0.0
 11
287.4658533502
 21
79.8665309735
 31
0.0
  0
LINE
  5
8B
  8
0
  6
CONTINUOUS
 62
     7
 10
308.4658533502
 20
104.8665309735
 30
0.0
 11
308.4658533502
 21
90.8665309735
 31
0.0
  0
ARC
  5
8C
  8
0
  6
CONTINUOUS
 62
     7
 10
193.8658533502
 20
63.6665309735
 30
0.0
 40
2.199999999999997
 50
186.5249788441
 51
353.4750211559
  0
LINE
  5
8D
  8
0
  6
CONTINUOUS
 62
     7
 10
196.0516026496
 20
63.4165309735
 30
0.0
 11
197.3569133611
 21
63.4165309735
 31
0.0
  0
ARC
  5
8E
  8
0
  6
CONTINUOUS
 62
     7
 10
193.8658533502
 20
63.6665309735
 30
0.0
 40
3.500000000000014
 50
184.0960437582
 51
355.9039562418
  0
LINE
  5
8F
  8
0
  6
CONTINUOUS
 62
     7
 10
190.3747933392
 20
63.4165309735
 30
0.0
 11
191.6801040508
 21
63.4165309735
 31
0.0
  0
ARC
  5
90
  8
0
  6
CONTINUOUS
 62
     7
 10
193.8658533502
 20
63.6665309735
 30
0.0
 40
2.199999999999997
 50
6.5249788441
 51
173.4750211559
  0
LINE
  5
91
  8
0
  6
CONTINUOUS
 62
     7
 10
191.6801040508
 20
63.9165309735
 30
0.0
 11
190.3747933392
 21
63.9165309735
 31
0.0
  0
ARC
  5
92
  8
0
  6
CONTINUOUS
 62
     7
 10
193.8658533502
 20
63.6665309735
 30
0.0
 40
3.500000000000014
 50
4.0960437582
 51
175.9039562418
  0
LINE
  5
93
  8
0
  6
CONTINUOUS
 62
     7
 10
197.3569133611
 20
63.9165309735
 30
0.0
 11
196.0516026496
 21
63.9165309735
 31
0.0
  0
LINE
  5
94
  8
0
  6
CONTINUOUS
 62
     7
 10
194.1158533502
 20
64.9165309735
 30
0.0
 11
194.1158533502
 21
65.7665309735
 31
0.0
  0
LINE
  5
95
  8
0
  6
CONTINUOUS
 62
     7
 10
194.1158533502
 20
65.7665309735
 30
0.0
 11
193.6158533502
 21
65.7665309735
 31
0.0
  0
LINE
  5
96
  8
0
  6
CONTINUOUS
 62
     7
 10
193.6158533502
 20
65.7665309735
 30
0.0
 11
193.6158533502
 21
64.9165309735
 31
0.0
  0
ARC
  5
97
  8
0
  6
CONTINUOUS
 62
     7
 10
192.6158533502
 20
64.9165309735
 30
0.0
 40
1.0
 50
270.0
 51
0.0
  0
ARC
  5
98
  8
0
  6
CONTINUOUS
 62
     7
 10
195.1158533502
 20
64.9165309735
 30
0.0
 40
1.0
 50
180.0
 51
270.0
  0
LINE
  5
99
  8
0
  6
CONTINUOUS
 62
     7
 10
196.0516026496
 20
63.9165309735
 30
0.0
 11
195.1158533502
 21
63.9165309735
 31
0.0
  0
LINE
  5
9A
  8
0
  6
CONTINUOUS
 62
     7
 10
192.6158533502
 20
63.9165309735
 30
0.0
 11
191.6801040508
 21
63.9165309735
 31
0.0
  0
LINE
  5
9B
  8
0
  6
CONTINUOUS
 62
     7
 10
193.6158533502
 20
62.4165309735
 30
0.0
 11
193.6158533502
 21
61.5665309735
 31
0.0
  0
LINE
  5
9C
  8
0
  6
CONTINUOUS
 62
     7
 10
193.6158533502
 20
61.5665309735
 30
0.0
 11
194.1158533502
 21
61.5665309735
 31
0.0
  0
LINE
  5
9D
  8
0
  6
CONTINUOUS
 62
     7
 10
194.1158533502
 20
61.5665309735
 30
0.0
 11
194.1158533502
 21
62.4165309735
 31
0.0
  0
ARC
  5
9E
  8
0
  6
CONTINUOUS
 62
     7
 10
195.1158533502
 20
62.4165309735
 30
0.0
 40
1.0
 50
90.0
 51
180.0
  0
ARC
  5
9F
  8
0
  6
CONTINUOUS
 62
     7
 10
192.6158533502
 20
62.4165309735
 30
0.0
 40
1.0
 50
0.0
 51
90.0
  0
LINE
  5
A0
  8
0
  6
CONTINUOUS
 62
     7
 10
191.6801040508
 20
63.4165309735
 30
0.0
 11
192.6158533502
 21
63.4165309735
 31
0.0
  0
LINE
  5
A1
  8
0
  6
CONTINUOUS
 62
     7
 10
195.1158533502
 20
63.4165309735
 30
0.0
 11
196.0516026496
 21
63.4165309735
 31
0.0
  0
ARC
  5
A2
  8
0
  6
CONTINUOUS
 62
     7
 10
193.8658533502
 20
63.6665309735
 30
0.0
 40
3.499999999999985
 50
355.9039562418
 51
4.0960437582
  0
ARC
  5
A3
  8
0
  6
CONTINUOUS
 62
     7
 10
193.8658533502
 20
63.6665309735
 30
0.0
 40
3.500000000000014
 50
175.9039562418
 51
184.0960437582
  0
POLYLINE
  5
A4
  8
0
  6
CONTINUOUS
 62
     7
 66
     1
 10
0.0
 20
0.0
 30
0.0
 70
   128
  0
VERTEX
  5
396
  8
0
  6
CONTINUOUS
 62
     7
 10
273.1149479025
 20
69.809805318
 30
0.0
  0
VERTEX
  5
397
  8
0
  6
CONTINUOUS
 62
     7
 10
273.3736791166
 20
68.9732504269
 30
0.0
  0
VERTEX
  5
398
  8
0
  6
CONTINUOUS
 62
     7
 10
273.6030578759
 20
68.5861544847
 30
0.0
  0
VERTEX
  5
399
  8
0
  6
CONTINUOUS
 62
     7
 10
273.7749532264
 20
68.6965015592
 30
0.0
  0
VERTEX
  5
39A
  8
0
  6
CONTINUOUS
 62
     7
 10
273.8693010669
 20
69.28129513
 30
0.0
  0
VERTEX
  5
39B
  8
0
  6
CONTINUOUS
 62
     7
 10
273.8779094327
 20
70.2586898826
 30
0.0
  0
VERTEX
  5
39C
  8
0
  6
CONTINUOUS
 62
     7
 10
273.8023673668
 20
71.5139523516
 30
0.0
  0
VERTEX
  5
39D
  8
0
  6
CONTINUOUS
 62
     7
 10
273.651470254
 20
72.9160981776
 30
0.0
  0
VERTEX
  5
39E
  8
0
  6
CONTINUOUS
 62
     7
 10
273.4401147658
 20
74.3225213282
 30
0.0
  0
VERTEX
  5
39F
  8
0
  6
CONTINUOUS
 62
     7
 10
273.1896429573
 20
75.5810779068
 30
0.0
  0
VERTEX
  5
3A0
  8
0
  6
CONTINUOUS
 62
     7
 10
272.9277765511
 20
76.5412508528
 30
0.0
  0
VERTEX
  5
3A1
  8
0
  6
CONTINUOUS
 62
     7
 10
272.6860882451
 20
77.0786514738
 30
0.0
  0
VERTEX
  5
3A2
  8
0
  6
CONTINUOUS
 62
     7
 10
272.5827526774
 20
77.1639593976
 30
0.0
  0
VERTEX
  5
3A3
  8
0
  6
CONTINUOUS
 62
     7
 10
272.4945597562
 20
77.1242976009
 30
0.0
  0
VERTEX
  5
3A4
  8
0
  6
CONTINUOUS
 62
     7
 10
272.3754853707
 20
76.6808146215
 30
0.0
  0
VERTEX
  5
3A5
  8
0
  6
CONTINUOUS
 62
     7
 10
272.3401989234
 20
75.8145123691
 30
0.0
  0
VERTEX
  5
3A6
  8
0
  6
CONTINUOUS
 62
     7
 10
272.3898090011
 20
74.6320704437
 30
0.0
  0
VERTEX
  5
3A7
  8
0
  6
CONTINUOUS
 62
     7
 10
272.5177391098
 20
73.2605406835
 30
0.0
  0
VERTEX
  5
3A8
  8
0
  6
CONTINUOUS
 62
     7
 10
272.7112987129
 20
71.8393663608
 30
0.0
  0
VERTEX
  5
3A9
  8
0
  6
CONTINUOUS
 62
     7
 10
272.951581309
 20
70.5184004864
 30
0.0
  0
VERTEX
  5
3AA
  8
0
  6
CONTINUOUS
 62
     7
 10
273.1149479025
 20
69.809805318
 30
0.0
  0
SEQEND
  5
4DA
  8
0
  6
CONTINUOUS
 62
     7
  0
ARC
  5
A5
  8
0
  6
CONTINUOUS
 62
     7
 10
465.66430773
 20
94.3655476953
 30
0.0
 40
194.3387089278144
 50
186.145264304
 51
187.836968981
  0
ARC
  5
A6
  8
0
  6
CONTINUOUS
 62
     7
 10
285.6870781277
 20
75.6350922713
 30
0.0
 40
13.40605894112366
 50
172.2562785972
 51
188.8972505963
  0
ARC
  5
A7
  8
0
  6
CONTINUOUS
 62
     7
 10
284.9920700205
 20
72.2578900491
 30
0.0
 40
13.61422622482207
 50
153.3399859245
 51
157.6200829554
  0
LINE
  5
A8
  8
0
  6
CONTINUOUS
 62
     7
 10
272.8252437393
 20
81.8665309733
 30
0.0
 11
272.8252437393
 21
78.3665309735
 31
0.0
  0
ARC
  5
A9
  8
0
  6
CONTINUOUS
 62
     7
 10
469.9140562046
 20
97.8665309737
 30
0.0
 40
197.737199330325
 50
184.6411893675
 51
187.2633690637
  0
POLYLINE
  5
AA
  8
0
  6
CONTINUOUS
 62
     7
 66
     1
 10
0.0
 20
0.0
 30
0.0
 70
   128
  0
VERTEX
  5
3AB
  8
0
  6
CONTINUOUS
 62
     7
 10
273.7636037479
 20
67.8665309735
 30
0.0
  0
VERTEX
  5
3AC
  8
0
  6
CONTINUOUS
 62
     7
 10
273.8606279605
 20
67.9365951188
 30
0.0
  0
VERTEX
  5
3AD
  8
0
  6
CONTINUOUS
 62
     7
 10
273.9375505153
 20
68.1435658599
 30
0.0
  0
VERTEX
  5
3AE
  8
0
  6
CONTINUOUS
 62
     7
 10
273.991741132
 20
68.4846480069
 30
0.0
  0
VERTEX
  5
3AF
  8
0
  6
CONTINUOUS
 62
     7
 10
274.0217885181
 20
68.9487637962
 30
0.0
  0
VERTEX
  5
3B0
  8
0
  6
CONTINUOUS
 62
     7
 10
274.0264447633
 20
69.5189850846
 30
0.0
  0
VERTEX
  5
3B1
  8
0
  6
CONTINUOUS
 62
     7
 10
274.0063023206
 20
70.1811783606
 30
0.0
  0
VERTEX
  5
3B2
  8
0
  6
CONTINUOUS
 62
     7
 10
273.9618669747
 20
70.9143615571
 30
0.0
  0
VERTEX
  5
3B3
  8
0
  6
CONTINUOUS
 62
     7
 10
273.8948096325
 20
71.6992738555
 30
0.0
  0
VERTEX
  5
3B4
  8
0
  6
CONTINUOUS
 62
     7
 10
273.7636037479
 20
72.8665309735
 30
0.0
  0
SEQEND
  5
4DB
  8
0
  6
CONTINUOUS
 62
     7
  0
LINE
  5
AB
  8
0
  6
CONTINUOUS
 62
     7
 10
273.1407094348
 20
67.8665309735
 30
0.0
 11
273.7636037479
 21
67.8665309735
 31
0.0
  0
LINE
  5
AC
  8
0
  6
CONTINUOUS
 62
     7
 10
273.7636037479
 20
72.8665309735
 30
0.0
 11
284.4658533502
 21
72.8665309735
 31
0.0
  0
LINE
  5
AD
  8
0
  6
CONTINUOUS
 62
     7
 10
284.4658533502
 20
72.8665309735
 30
0.0
 11
284.4658533502
 21
67.8665309735
 31
0.0
  0
LINE
  5
AE
  8
0
  6
CONTINUOUS
 62
     7
 10
284.4658533502
 20
67.8665309735
 30
0.0
 11
273.7636037479
 21
67.8665309735
 31
0.0
  0
POLYLINE
  5
AF
  8
0
  6
CONTINUOUS
 62
     7
 66
     1
 10
0.0
 20
0.0
 30
0.0
 70
   128
  0
VERTEX
  5
3B5
  8
0
  6
CONTINUOUS
 62
     7
 10
272.3398526382
 20
119.8259716751
 30
0.0
  0
VERTEX
  5
3B6
  8
0
  6
CONTINUOUS
 62
     7
 10
272.382193401
 20
118.9986122248
 30
0.0
  0
VERTEX
  5
3B7
  8
0
  6
CONTINUOUS
 62
     7
 10
272.5040543293
 20
118.5974726547
 30
0.0
  0
VERTEX
  5
3B8
  8
0
  6
CONTINUOUS
 62
     7
 10
272.6926602048
 20
118.663431337
 30
0.0
  0
VERTEX
  5
3B9
  8
0
  6
CONTINUOUS
 62
     7
 10
272.9298625892
 20
119.1980360181
 30
0.0
  0
VERTEX
  5
3BA
  8
0
  6
CONTINUOUS
 62
     7
 10
273.1906800557
 20
120.1564856709
 30
0.0
  0
VERTEX
  5
3BB
  8
0
  6
CONTINUOUS
 62
     7
 10
273.4446984885
 20
121.4371030072
 30
0.0
  0
VERTEX
  5
3BC
  8
0
  6
CONTINUOUS
 62
     7
 10
273.5588986978
 20
122.1503008974
 30
0.0
  0
VERTEX
  5
3BD
  8
0
  6
CONTINUOUS
 62
     7
 10
273.6603187281
 20
122.8861864068
 30
0.0
  0
VERTEX
  5
3BE
  8
0
  6
CONTINUOUS
 62
     7
 10
273.8110923275
 20
124.3237147413
 30
0.0
  0
VERTEX
  5
3BF
  8
0
  6
CONTINUOUS
 62
     7
 10
273.8807665993
 20
125.5799442613
 30
0.0
  0
VERTEX
  5
3C0
  8
0
  6
CONTINUOUS
 62
     7
 10
273.8642798427
 20
126.5219574342
 30
0.0
  0
VERTEX
  5
3C1
  8
0
  6
CONTINUOUS
 62
     7
 10
273.7655529171
 20
127.0597636079
 30
0.0
  0
VERTEX
  5
3C2
  8
0
  6
CONTINUOUS
 62
     7
 10
273.5951899548
 20
127.1411644311
 30
0.0
  0
VERTEX
  5
3C3
  8
0
  6
CONTINUOUS
 62
     7
 10
273.3699081959
 20
126.7503049568
 30
0.0
  0
VERTEX
  5
3C4
  8
0
  6
CONTINUOUS
 62
     7
 10
273.1129964934
 20
125.9156071259
 30
0.0
  0
VERTEX
  5
3C5
  8
0
  6
CONTINUOUS
 62
     7
 10
272.8537057682
 20
124.7207641135
 30
0.0
  0
VERTEX
  5
3C6
  8
0
  6
CONTINUOUS
 62
     7
 10
272.733334163
 20
124.0308765277
 30
0.0
  0
VERTEX
  5
3C7
  8
0
  6
CONTINUOUS
 62
     7
 10
272.6238016229
 20
123.3053865924
 30
0.0
  0
VERTEX
  5
3C8
  8
0
  6
CONTINUOUS
 62
     7
 10
272.4515857231
 20
121.8451107807
 30
0.0
  0
VERTEX
  5
3C9
  8
0
  6
CONTINUOUS
 62
     7
 10
272.3563004568
 20
120.5162556764
 30
0.0
  0
VERTEX
  5
3CA
  8
0
  6
CONTINUOUS
 62
     7
 10
272.3398526382
 20
119.8259716751
 30
0.0
  0
SEQEND
  5
4DC
  8
0
  6
CONTINUOUS
 62
     7
  0
LINE
  5
B0
  8
0
  6
CONTINUOUS
 62
     7
 10
272.8252437393
 20
117.3665309735
 30
0.0
 11
272.8252437392
 21
113.8665309735
 31
0.0
  0
ARC
  5
B1
  8
0
  6
CONTINUOUS
 62
     7
 10
284.9920699717
 20
123.4751718765
 30
0.0
 40
13.61422617159199
 50
202.3799170398
 51
206.6600140875
  0
ARC
  5
B2
  8
0
  6
CONTINUOUS
 62
     7
 10
283.82181377
 20
120.1167468839
 30
0.0
 40
11.56348573284516
 50
169.7651248278
 51
189.081345979
  0
ARC
  5
B3
  8
0
  6
CONTINUOUS
 62
     7
 10
465.6643077308
 20
101.3675142521
 30
0.0
 40
194.3387089287007
 50
172.1630310191
 51
173.8547356961
  0
LINE
  5
B4
  8
0
  6
CONTINUOUS
 62
     7
 10
273.7636037478
 20
127.8665309735
 30
0.0
 11
273.1407094347
 21
127.8665309735
 31
0.0
  0
POLYLINE
  5
B5
  8
0
  6
CONTINUOUS
 62
     7
 66
     1
 10
0.0
 20
0.0
 30
0.0
 70
   128
  0
VERTEX
  5
3CB
  8
0
  6
CONTINUOUS
 62
     7
 10
273.7636037478
 20
122.8665309735
 30
0.0
  0
VERTEX
  5
3CC
  8
0
  6
CONTINUOUS
 62
     7
 10
273.8606279605
 20
123.6976603598
 30
0.0
  0
VERTEX
  5
3CD
  8
0
  6
CONTINUOUS
 62
     7
 10
273.9375505152
 20
124.507750196
 30
0.0
  0
VERTEX
  5
3CE
  8
0
  6
CONTINUOUS
 62
     7
 10
273.9917411319
 20
125.2735794863
 30
0.0
  0
VERTEX
  5
3CF
  8
0
  6
CONTINUOUS
 62
     7
 10
274.021788518
 20
125.9731529885
 30
0.0
  0
VERTEX
  5
3D0
  8
0
  6
CONTINUOUS
 62
     7
 10
274.0264447632
 20
126.5798617971
 30
0.0
  0
VERTEX
  5
3D1
  8
0
  6
CONTINUOUS
 62
     7
 10
274.0063023205
 20
127.0842177025
 30
0.0
  0
VERTEX
  5
3D2
  8
0
  6
CONTINUOUS
 62
     7
 10
273.9618669747
 20
127.4691538924
 30
0.0
  0
VERTEX
  5
3D3
  8
0
  6
CONTINUOUS
 62
     7
 10
273.8948096324
 20
127.7283733013
 30
0.0
  0
VERTEX
  5
3D4
  8
0
  6
CONTINUOUS
 62
     7
 10
273.7636037478
 20
127.8665309735
 30
0.0
  0
SEQEND
  5
4DD
  8
0
  6
CONTINUOUS
 62
     7
  0
ARC
  5
B6
  8
0
  6
CONTINUOUS
 62
     7
 10
469.9140562046
 20
97.8665309737
 30
0.0
 40
197.7371993303251
 50
172.7366309365
 51
175.3588106327
  0
LINE
  5
B7
  8
0
  6
CONTINUOUS
 62
     7
 10
273.7636037478
 20
127.8665309735
 30
0.0
 11
284.4658533502
 21
127.8665309735
 31
0.0
  0
LINE
  5
B8
  8
0
  6
CONTINUOUS
 62
     7
 10
284.4658533502
 20
127.8665309735
 30
0.0
 11
284.4658533502
 21
122.8665309735
 31
0.0
  0
LINE
  5
B9
  8
0
  6
CONTINUOUS
 62
     7
 10
284.4658533502
 20
122.8665309735
 30
0.0
 11
273.7636037478
 21
122.8665309735
 31
0.0
  0
LINE
  5
BA
  8
0
  6
CONTINUOUS
 62
     7
 10
272.8252437393
 20
81.8665309733
 30
0.0
 11
271.4658533502
 21
81.8665309735
 31
0.0
  0
LINE
  5
BB
  8
0
  6
CONTINUOUS
 62
     7
 10
271.4658533502
 20
81.8665309735
 30
0.0
 11
271.4658533502
 21
113.8665309735
 31
0.0
  0
LINE
  5
BC
  8
0
  6
CONTINUOUS
 62
     7
 10
272.8252437392
 20
113.8665309735
 30
0.0
 11
271.4658533502
 21
113.8665309735
 31
0.0
  0
LINE
  5
BD
  8
0
  6
CONTINUOUS
 62
     7
 10
284.4658533502
 20
72.8665309735
 30
0.0
 11
284.4658533502
 21
122.8665309735
 31
0.0
  0
LINE
  5
BE
  8
0
  6
CONTINUOUS
 62
     7
 10
272.8252437393
 20
117.3665309735
 30
0.0
 11
271.4658533502
 21
117.3665309735
 31
0.0
  0
LINE
  5
BF
  8
0
  6
CONTINUOUS
 62
     7
 10
271.4658533502
 20
113.8665309735
 30
0.0
 11
271.4658533502
 21
117.3665309735
 31
0.0
  0
LINE
  5
C0
  8
0
  6
CONTINUOUS
 62
     7
 10
272.8252437393
 20
78.3665309735
 30
0.0
 11
271.4658533502
 21
78.3665309735
 31
0.0
  0
LINE
  5
C1
  8
0
  6
CONTINUOUS
 62
     7
 10
271.4658533502
 20
78.3665309735
 30
0.0
 11
271.4658533502
 21
81.8665309735
 31
0.0
  0
LINE
  5
C2
  8
0
  6
CONTINUOUS
 62
     7
 10
272.4032734795
 20
77.4414561332
 30
0.0
 11
271.4658533502
 21
77.4414561332
 31
0.0
  0
LINE
  5
C3
  8
0
  6
CONTINUOUS
 62
     7
 10
271.4658533502
 20
77.4414561332
 30
0.0
 11
271.4658533502
 21
78.3665309735
 31
0.0
  0
LINE
  5
C4
  8
0
  6
CONTINUOUS
 62
     7
 10
272.4032734794
 20
118.2916058137
 30
0.0
 11
271.4658533502
 21
118.2916058137
 31
0.0
  0
LINE
  5
C5
  8
0
  6
CONTINUOUS
 62
     7
 10
271.4658533502
 20
117.3665309735
 30
0.0
 11
271.4658533502
 21
118.2916058137
 31
0.0
  0
LINE
  5
C6
  8
0
  6
CONTINUOUS
 62
     7
 10
272.4423304249
 20
122.1713906711
 30
0.0
 11
271.4658533502
 21
122.1713906711
 31
0.0
  0
LINE
  5
C7
  8
0
  6
CONTINUOUS
 62
     7
 10
271.4658533502
 20
118.2916058137
 30
0.0
 11
271.4658533502
 21
122.1713906711
 31
0.0
  0
LINE
  5
C8
  8
0
  6
CONTINUOUS
 62
     7
 10
272.442330425
 20
73.5616712758
 30
0.0
 11
271.4658533502
 21
73.5616712758
 31
0.0
  0
LINE
  5
C9
  8
0
  6
CONTINUOUS
 62
     7
 10
271.4658533502
 20
73.5616712758
 30
0.0
 11
271.4658533502
 21
77.4414561332
 31
0.0
  0
LINE
  5
CA
  8
0
  6
CONTINUOUS
 62
     7
 10
273.1407094348
 20
67.8665309735
 30
0.0
 11
271.4658533502
 21
67.8665309735
 31
0.0
  0
LINE
  5
CB
  8
0
  6
CONTINUOUS
 62
     7
 10
271.4658533502
 20
67.8665309735
 30
0.0
 11
271.4658533502
 21
73.5616712758
 31
0.0
  0
LINE
  5
CC
  8
0
  6
CONTINUOUS
 62
     7
 10
273.1407094347
 20
127.8665309735
 30
0.0
 11
271.4658533502
 21
127.8665309735
 31
0.0
  0
LINE
  5
CD
  8
0
  6
CONTINUOUS
 62
     7
 10
271.4658533502
 20
122.1713906711
 30
0.0
 11
271.4658533502
 21
127.8665309735
 31
0.0
  0
LINE
  5
CE
  8
0
  6
CONTINUOUS
 62
     7
 10
271.4658533502
 20
81.8665309735
 30
0.0
 11
190.6658533502
 21
81.8665309735
 31
0.0
  0
LINE
  5
CF
  8
0
  6
CONTINUOUS
 62
     7
 10
190.6658533502
 20
81.8665309735
 30
0.0
 11
190.6658533502
 21
113.8665309735
 31
0.0
  0
LINE
  5
D0
  8
0
  6
CONTINUOUS
 62
     7
 10
271.4658533502
 20
113.8665309735
 30
0.0
 11
190.6658533502
 21
113.8665309735
 31
0.0
  0
LINE
  5
D1
  8
0
  6
CONTINUOUS
 62
     7
 10
190.6658533502
 20
113.8665309735
 30
0.0
 11
190.6658533502
 21
117.3665309735
 31
0.0
  0
LINE
  5
D2
  8
0
  6
CONTINUOUS
 62
     7
 10
271.4658533502
 20
117.3665309735
 30
0.0
 11
190.6658533502
 21
117.3665309735
 31
0.0
  0
LINE
  5
D3
  8
0
  6
CONTINUOUS
 62
     7
 10
271.4658533502
 20
78.3665309735
 30
0.0
 11
190.6658533502
 21
78.3665309735
 31
0.0
  0
LINE
  5
D4
  8
0
  6
CONTINUOUS
 62
     7
 10
190.6658533502
 20
78.3665309735
 30
0.0
 11
190.6658533502
 21
81.8665309735
 31
0.0
  0
LINE
  5
D5
  8
0
  6
CONTINUOUS
 62
     7
 10
271.4658533502
 20
118.2916058137
 30
0.0
 11
190.6658533502
 21
118.2916058137
 31
0.0
  0
LINE
  5
D6
  8
0
  6
CONTINUOUS
 62
     7
 10
190.6658533502
 20
117.3665309735
 30
0.0
 11
190.6658533502
 21
118.2916058137
 31
0.0
  0
LINE
  5
D7
  8
0
  6
CONTINUOUS
 62
     7
 10
271.4658533502
 20
77.4414561332
 30
0.0
 11
190.6658533502
 21
77.4414561332
 31
0.0
  0
LINE
  5
D8
  8
0
  6
CONTINUOUS
 62
     7
 10
190.6658533502
 20
77.4414561332
 30
0.0
 11
190.6658533502
 21
78.3665309735
 31
0.0
  0
LINE
  5
D9
  8
0
  6
CONTINUOUS
 62
     7
 10
271.4658533502
 20
122.1713906711
 30
0.0
 11
190.6658533502
 21
122.1713906711
 31
0.0
  0
LINE
  5
DA
  8
0
  6
CONTINUOUS
 62
     7
 10
190.6658533502
 20
118.2916058137
 30
0.0
 11
190.6658533502
 21
122.1713906711
 31
0.0
  0
LINE
  5
DB
  8
0
  6
CONTINUOUS
 62
     7
 10
271.4658533502
 20
73.5616712758
 30
0.0
 11
190.6658533502
 21
73.5616712758
 31
0.0
  0
LINE
  5
DC
  8
0
  6
CONTINUOUS
 62
     7
 10
190.6658533502
 20
73.5616712758
 30
0.0
 11
190.6658533502
 21
77.4414561332
 31
0.0
  0
LINE
  5
DD
  8
0
  6
CONTINUOUS
 62
     7
 10
271.4658533502
 20
67.8665309735
 30
0.0
 11
190.6658533502
 21
67.8665309735
 31
0.0
  0
LINE
  5
DE
  8
0
  6
CONTINUOUS
 62
     7
 10
190.6658533502
 20
67.8665309735
 30
0.0
 11
190.6658533502
 21
73.5616712758
 31
0.0
  0
LINE
  5
DF
  8
0
  6
CONTINUOUS
 62
     7
 10
271.4658533502
 20
127.8665309735
 30
0.0
 11
190.6658533502
 21
127.8665309735
 31
0.0
  0
LINE
  5
E0
  8
0
  6
CONTINUOUS
 62
     7
 10
190.6658533502
 20
122.1713906711
 30
0.0
 11
190.6658533502
 21
127.8665309735
 31
0.0
  0
CIRCLE
  5
E1
  8
0
  6
CONTINUOUS
 62
     7
 10
202.8658533502
 20
63.6665309735
 30
0.0
 40
3.0
  0
CIRCLE
  5
E2
  8
0
  6
CONTINUOUS
 62
     7
 10
202.8658533502
 20
63.6665309735
 30
0.0
 40
2.649999999999977
  0
LINE
  5
E3
  8
0
  6
CONTINUOUS
 62
     7
 10
201.4658533502
 20
62.1965309735
 30
0.0
 11
204.2658533502
 21
62.1965309735
 31
0.0
  0
LINE
  5
E4
  8
0
  6
CONTINUOUS
 62
     7
 10
201.4658533502
 20
62.5465309735
 30
0.0
 11
201.4658533502
 21
62.1965309735
 31
0.0
  0
LINE
  5
E5
  8
0
  6
CONTINUOUS
 62
     7
 10
201.4658533502
 20
62.5465309735
 30
0.0
 11
204.2658533502
 21
62.5465309735
 31
0.0
  0
LINE
  5
E6
  8
0
  6
CONTINUOUS
 62
     7
 10
204.2658533502
 20
62.5465309735
 30
0.0
 11
204.2658533502
 21
62.1965309735
 31
0.0
  0
LINE
  5
E7
  8
0
  6
CONTINUOUS
 62
     7
 10
202.0658533502
 20
61.5665309735
 30
0.0
 11
203.6658533502
 21
61.5665309735
 31
0.0
  0
LINE
  5
E8
  8
0
  6
CONTINUOUS
 62
     7
 10
202.0658533502
 20
61.9165309735
 30
0.0
 11
202.0658533502
 21
61.5665309735
 31
0.0
  0
LINE
  5
E9
  8
0
  6
CONTINUOUS
 62
     7
 10
202.0658533502
 20
61.9165309735
 30
0.0
 11
203.6658533502
 21
61.9165309735
 31
0.0
  0
LINE
  5
EA
  8
0
  6
CONTINUOUS
 62
     7
 10
203.6658533502
 20
61.9165309735
 30
0.0
 11
203.6658533502
 21
61.5665309735
 31
0.0
  0
LINE
  5
EB
  8
0
  6
CONTINUOUS
 62
     7
 10
200.8658533502
 20
63.1765309735
 30
0.0
 11
200.8658533502
 21
62.8265309735
 31
0.0
  0
LINE
  5
EC
  8
0
  6
CONTINUOUS
 62
     7
 10
200.8658533502
 20
63.1765309735
 30
0.0
 11
202.6908533502
 21
63.1765309735
 31
0.0
  0
LINE
  5
ED
  8
0
  6
CONTINUOUS
 62
     7
 10
202.6908533502
 20
65.7765309735
 30
0.0
 11
203.0408533502
 21
65.7765309735
 31
0.0
  0
LINE
  5
EE
  8
0
  6
CONTINUOUS
 62
     7
 10
203.0408533502
 20
65.7765309735
 30
0.0
 11
203.0408533502
 21
63.1765309735
 31
0.0
  0
LINE
  5
EF
  8
0
  6
CONTINUOUS
 62
     7
 10
203.0408533502
 20
63.1765309735
 30
0.0
 11
204.8658533502
 21
63.1765309735
 31
0.0
  0
LINE
  5
F0
  8
0
  6
CONTINUOUS
 62
     7
 10
204.8658533502
 20
63.1765309735
 30
0.0
 11
204.8658533502
 21
62.8265309735
 31
0.0
  0
LINE
  5
F1
  8
0
  6
CONTINUOUS
 62
     7
 10
200.8658533502
 20
62.8265309735
 30
0.0
 11
204.8658533502
 21
62.8265309735
 31
0.0
  0
LINE
  5
F2
  8
0
  6
CONTINUOUS
 62
     7
 10
202.6908533502
 20
65.7765309735
 30
0.0
 11
202.6908533502
 21
63.1765309735
 31
0.0
  0
LINE
  5
F3
  8
0
  6
CONTINUOUS
 62
     7
 10
204.8658533502
 20
58.4050051637
 30
0.0
 11
204.8658533502
 21
56.8665309735
 31
0.0
  0
LINE
  5
F4
  8
0
  6
CONTINUOUS
 62
     7
 10
213.1658533502
 20
62.4537856515
 30
0.0
 11
204.8658533502
 21
58.4050051637
 31
0.0
  0
POLYLINE
  5
F5
  8
0
  6
CONTINUOUS
 62
     7
 66
     1
 10
0.0
 20
0.0
 30
0.0
 70
   128
  0
VERTEX
  5
3D5
  8
0
  6
CONTINUOUS
 62
     7
 10
217.1658533502
 20
63.6233879103
 30
0.0
  0
VERTEX
  5
3D6
  8
0
  6
CONTINUOUS
 62
     7
 10
216.9771925022
 20
63.7388247445
 30
0.0
  0
VERTEX
  5
3D7
  8
0
  6
CONTINUOUS
 62
     7
 10
216.4261016604
 20
63.6809638034
 30
0.0
  0
VERTEX
  5
3D8
  8
0
  6
CONTINUOUS
 62
     7
 10
215.5911947339
 20
63.4537427236
 30
0.0
  0
VERTEX
  5
3D9
  8
0
  6
CONTINUOUS
 62
     7
 10
214.5323250786
 20
63.0653085691
 30
0.0
  0
VERTEX
  5
3DA
  8
0
  6
CONTINUOUS
 62
     7
 10
213.8529802093
 20
62.7751550475
 30
0.0
  0
VERTEX
  5
3DB
  8
0
  6
CONTINUOUS
 62
     7
 10
213.1658533502
 20
62.4537856515
 30
0.0
  0
SEQEND
  5
4DE
  8
0
  6
CONTINUOUS
 62
     7
  0
LINE
  5
F6
  8
0
  6
CONTINUOUS
 62
     7
 10
217.1658533502
 20
63.6233879103
 30
0.0
 11
217.1658533502
 21
62.8860620704
 31
0.0
  0
LINE
  5
F7
  8
0
  6
CONTINUOUS
 62
     7
 10
213.1658533502
 20
62.4537856515
 30
0.0
 11
213.1658533502
 21
67.8665309735
 31
0.0
  0
LINE
  5
F8
  8
0
  6
CONTINUOUS
 62
     7
 10
217.1658533502
 20
67.8665309735
 30
0.0
 11
217.1658533502
 21
63.6233879103
 31
0.0
  0
LINE
  5
F9
  8
0
  6
CONTINUOUS
 62
     7
 10
188.6658533502
 20
56.8665309735
 30
0.0
 11
188.6658533502
 21
58.4050051637
 31
0.0
  0
LINE
  5
FA
  8
0
  6
CONTINUOUS
 62
     7
 10
188.6658533502
 20
58.4050051637
 30
0.0
 11
204.8658533502
 21
58.4050051637
 31
0.0
  0
POLYLINE
  5
FB
  8
0
  6
CONTINUOUS
 62
     7
 66
     1
 10
0.0
 20
0.0
 30
0.0
 70
   128
  0
VERTEX
  5
3DC
  8
0
  6
CONTINUOUS
 62
     7
 10
202.899572442
 20
56.8679524037
 30
0.0
  0
VERTEX
  5
3DD
  8
0
  6
CONTINUOUS
 62
     7
 10
202.9073519056
 20
56.8672742522
 30
0.0
  0
VERTEX
  5
3DE
  8
0
  6
CONTINUOUS
 62
     7
 10
202.7803849641
 20
56.8782326676
 30
0.0
  0
VERTEX
  5
3DF
  8
0
  6
CONTINUOUS
 62
     7
 10
202.5150364817
 20
56.9002731525
 30
0.0
  0
VERTEX
  5
3E0
  8
0
  6
CONTINUOUS
 62
     7
 10
202.103731923
 20
56.9321312832
 30
0.0
  0
VERTEX
  5
3E1
  8
0
  6
CONTINUOUS
 62
     7
 10
201.5793605482
 20
56.9686759318
 30
0.0
  0
VERTEX
  5
3E2
  8
0
  6
CONTINUOUS
 62
     7
 10
200.9277882849
 20
57.0077160878
 30
0.0
  0
VERTEX
  5
3E3
  8
0
  6
CONTINUOUS
 62
     7
 10
200.201302046
 20
57.0429068765
 30
0.0
  0
VERTEX
  5
3E4
  8
0
  6
CONTINUOUS
 62
     7
 10
199.3804736974
 20
57.0720711721
 30
0.0
  0
VERTEX
  5
3E5
  8
0
  6
CONTINUOUS
 62
     7
 10
198.5355631826
 20
57.0903325731
 30
0.0
  0
VERTEX
  5
3E6
  8
0
  6
CONTINUOUS
 62
     7
 10
197.6409435784
 20
57.09665461
 30
0.0
  0
VERTEX
  5
3E7
  8
0
  6
CONTINUOUS
 62
     7
 10
196.7750593441
 20
57.0900220928
 30
0.0
  0
VERTEX
  5
3E8
  8
0
  6
CONTINUOUS
 62
     7
 10
195.9098928668
 20
57.0708714552
 30
0.0
  0
VERTEX
  5
3E9
  8
0
  6
CONTINUOUS
 62
     7
 10
195.1179883485
 20
57.0423793617
 30
0.0
  0
VERTEX
  5
3EA
  8
0
  6
CONTINUOUS
 62
     7
 10
194.3764372568
 20
57.0062122453
 30
0.0
  0
VERTEX
  5
3EB
  8
0
  6
CONTINUOUS
 62
     7
 10
193.7450117549
 20
56.9681962819
 30
0.0
  0
VERTEX
  5
3EC
  8
0
  6
CONTINUOUS
 62
     7
 10
193.2081393445
 20
56.9306592925
 30
0.0
  0
VERTEX
  5
3ED
  8
0
  6
CONTINUOUS
 62
     7
 10
192.8102667756
 20
56.8997549972
 30
0.0
  0
VERTEX
  5
3EE
  8
0
  6
CONTINUOUS
 62
     7
 10
192.5409411505
 20
56.8773467395
 30
0.0
  0
VERTEX
  5
3EF
  8
0
  6
CONTINUOUS
 62
     7
 10
192.4158533502
 20
56.8665309735
 30
0.0
  0
SEQEND
  5
4DF
  8
0
  6
CONTINUOUS
 62
     7
  0
LINE
  5
FC
  8
0
  6
CONTINUOUS
 62
     7
 10
188.6658533502
 20
58.4050051637
 30
0.0
 11
188.6658533502
 21
67.8665309735
 31
0.0
  0
LINE
  5
FD
  8
0
  6
CONTINUOUS
 62
     7
 10
192.4158533502
 20
54.8665309735
 30
0.0
 11
202.9158533502
 21
54.8665309735
 31
0.0
  0
LINE
  5
FE
  8
0
  6
CONTINUOUS
 62
     7
 10
201.4158533502
 20
52.8665309735
 30
0.0
 11
193.9158533502
 21
52.8665309735
 31
0.0
  0
LINE
  5
FF
  8
0
  6
CONTINUOUS
 62
     7
 10
194.4158533502
 20
17.8665309735
 30
0.0
 11
200.9158533502
 21
17.8665309735
 31
0.0
  0
ARC
  5
100
  8
0
  6
CONTINUOUS
 62
     7
 10
357.1474532057
 20
101.3675142519
 30
0.0
 40
194.3387089306645
 50
172.1630310192
 51
173.8547356961
  0
ARC
  5
101
  8
0
  6
CONTINUOUS
 62
     7
 10
177.1702236005
 20
120.0979696756
 30
0.0
 40
13.40605894114687
 50
171.1027494039
 51
187.7437214029
  0
ARC
  5
102
  8
0
  6
CONTINUOUS
 62
     7
 10
176.4752154936
 20
123.4751718979
 30
0.0
 40
13.61422622502815
 50
202.3799170447
 51
206.6600140755
  0
LINE
  5
103
  8
0
  6
CONTINUOUS
 62
     7
 10
164.3083892122
 20
113.8665309735
 30
0.0
 11
164.3083892122
 21
117.3665309735
 31
0.0
  0
ARC
  5
104
  8
0
  6
CONTINUOUS
 62
     7
 10
361.39720168
 20
97.8665309735
 30
0.0
 40
197.7371993328519
 50
175.3588106327
 51
184.6411893673
  0
LINE
  5
105
  8
0
  6
CONTINUOUS
 62
     7
 10
164.3083892122
 20
78.3665309735
 30
0.0
 11
164.3083892122
 21
81.8665309735
 31
0.0
  0
ARC
  5
106
  8
0
  6
CONTINUOUS
 62
     7
 10
176.4752154936
 20
72.257890049
 30
0.0
 40
13.61422622505258
 50
153.3399859245
 51
157.6200829552
  0
ARC
  5
107
  8
0
  6
CONTINUOUS
 62
     7
 10
175.3049592429
 20
75.616315063
 30
0.0
 40
11.56348573286264
 50
170.9186540211
 51
190.2348751722
  0
ARC
  5
108
  8
0
  6
CONTINUOUS
 62
     7
 10
357.1474532054
 20
94.365547695
 30
0.0
 40
194.338708930343
 50
186.1452643039
 51
187.8369689808
  0
LINE
  5
109
  8
0
  6
CONTINUOUS
 62
     7
 10
163.6600023472
 20
67.8665309735
 30
0.0
 11
164.6238549077
 21
67.8665309735
 31
0.0
  0
LINE
  5
10A
  8
0
  6
CONTINUOUS
 62
     7
 10
164.6238549077
 20
127.8665309735
 30
0.0
 11
163.6600023472
 21
127.8665309735
 31
0.0
  0
LINE
  5
10B
  8
0
  6
CONTINUOUS
 62
     7
 10
162.9658533502
 20
122.8665309735
 30
0.0
 11
162.9658533502
 21
72.8665309735
 31
0.0
  0
LINE
  5
10C
  8
0
  6
CONTINUOUS
 62
     7
 10
164.3083892122
 20
117.3665309735
 30
0.0
 11
176.8658533502
 21
117.3665309735
 31
0.0
  0
LINE
  5
10D
  8
0
  6
CONTINUOUS
 62
     7
 10
176.8658533502
 20
113.8665309735
 30
0.0
 11
176.8658533502
 21
117.3665309735
 31
0.0
  0
LINE
  5
10E
  8
0
  6
CONTINUOUS
 62
     7
 10
164.3083892122
 20
113.8665309735
 30
0.0
 11
176.8658533502
 21
113.8665309735
 31
0.0
  0
LINE
  5
10F
  8
0
  6
CONTINUOUS
 62
     7
 10
176.8658533502
 20
81.8665309735
 30
0.0
 11
176.8658533502
 21
113.8665309735
 31
0.0
  0
LINE
  5
110
  8
0
  6
CONTINUOUS
 62
     7
 10
164.3083892122
 20
81.8665309735
 30
0.0
 11
176.8658533502
 21
81.8665309735
 31
0.0
  0
LINE
  5
111
  8
0
  6
CONTINUOUS
 62
     7
 10
164.3083892122
 20
78.3665309735
 30
0.0
 11
176.8658533502
 21
78.3665309735
 31
0.0
  0
LINE
  5
112
  8
0
  6
CONTINUOUS
 62
     7
 10
176.8658533502
 20
78.3665309735
 30
0.0
 11
176.8658533502
 21
81.8665309735
 31
0.0
  0
LINE
  5
113
  8
0
  6
CONTINUOUS
 62
     7
 10
163.8864189523
 20
118.2916058137
 30
0.0
 11
176.8658533502
 21
118.2916058137
 31
0.0
  0
LINE
  5
114
  8
0
  6
CONTINUOUS
 62
     7
 10
176.8658533502
 20
117.3665309735
 30
0.0
 11
176.8658533502
 21
118.2916058137
 31
0.0
  0
LINE
  5
115
  8
0
  6
CONTINUOUS
 62
     7
 10
163.8864189523
 20
77.4414561332
 30
0.0
 11
176.8658533502
 21
77.4414561332
 31
0.0
  0
LINE
  5
116
  8
0
  6
CONTINUOUS
 62
     7
 10
176.8658533502
 20
77.4414561332
 30
0.0
 11
176.8658533502
 21
78.3665309735
 31
0.0
  0
LINE
  5
117
  8
0
  6
CONTINUOUS
 62
     7
 10
163.9254758978
 20
73.5616712758
 30
0.0
 11
176.8658533502
 21
73.5616712758
 31
0.0
  0
LINE
  5
118
  8
0
  6
CONTINUOUS
 62
     7
 10
176.8658533502
 20
73.5616712758
 30
0.0
 11
176.8658533502
 21
77.4414561332
 31
0.0
  0
LINE
  5
119
  8
0
  6
CONTINUOUS
 62
     7
 10
163.9254758978
 20
122.1713906711
 30
0.0
 11
176.8658533502
 21
122.1713906711
 31
0.0
  0
LINE
  5
11A
  8
0
  6
CONTINUOUS
 62
     7
 10
176.8658533502
 20
118.2916058137
 30
0.0
 11
176.8658533502
 21
122.1713906711
 31
0.0
  0
LINE
  5
11B
  8
0
  6
CONTINUOUS
 62
     7
 10
164.6238549077
 20
67.8665309735
 30
0.0
 11
176.8658533502
 21
67.8665309735
 31
0.0
  0
LINE
  5
11C
  8
0
  6
CONTINUOUS
 62
     7
 10
176.8658533502
 20
67.8665309735
 30
0.0
 11
176.8658533502
 21
73.5616712758
 31
0.0
  0
LINE
  5
11D
  8
0
  6
CONTINUOUS
 62
     7
 10
164.6238549077
 20
127.8665309735
 30
0.0
 11
176.8658533502
 21
127.8665309735
 31
0.0
  0
LINE
  5
11E
  8
0
  6
CONTINUOUS
 62
     7
 10
176.8658533502
 20
122.1713906711
 30
0.0
 11
176.8658533502
 21
127.8665309735
 31
0.0
  0
LINE
  5
11F
  8
0
  6
CONTINUOUS
 62
     7
 10
164.3658533502
 20
58.291792391
 30
0.0
 11
176.3658533502
 21
58.291792391
 31
0.0
  0
LINE
  5
120
  8
0
  6
CONTINUOUS
 62
     7
 10
176.3658533502
 20
56.8665309735
 30
0.0
 11
176.3658533502
 21
58.291792391
 31
0.0
  0
POLYLINE
  5
121
  8
0
  6
CONTINUOUS
 62
     7
 66
     1
 10
0.0
 20
0.0
 30
0.0
 70
   128
  0
VERTEX
  5
3F0
  8
0
  6
CONTINUOUS
 62
     7
 10
175.350294368
 20
56.8678247042
 30
0.0
  0
VERTEX
  5
3F1
  8
0
  6
CONTINUOUS
 62
     7
 10
175.357648705
 20
56.8672141368
 30
0.0
  0
VERTEX
  5
3F2
  8
0
  6
CONTINUOUS
 62
     7
 10
175.2363718065
 20
56.8771823353
 30
0.0
  0
VERTEX
  5
3F3
  8
0
  6
CONTINUOUS
 62
     7
 10
174.9832212686
 20
56.89720476
 30
0.0
  0
VERTEX
  5
3F4
  8
0
  6
CONTINUOUS
 62
     7
 10
174.5909648154
 20
56.9261308505
 30
0.0
  0
VERTEX
  5
3F5
  8
0
  6
CONTINUOUS
 62
     7
 10
174.0911112971
 20
56.9592897853
 30
0.0
  0
VERTEX
  5
3F6
  8
0
  6
CONTINUOUS
 62
     7
 10
173.4701039533
 20
56.9946980985
 30
0.0
  0
VERTEX
  5
3F7
  8
0
  6
CONTINUOUS
 62
     7
 10
172.7779944256
 20
57.0265909286
 30
0.0
  0
VERTEX
  5
3F8
  8
0
  6
CONTINUOUS
 62
     7
 10
171.9961405808
 20
57.0530054424
 30
0.0
  0
VERTEX
  5
3F9
  8
0
  6
CONTINUOUS
 62
     7
 10
171.1913533868
 20
57.0695289557
 30
0.0
  0
VERTEX
  5
3FA
  8
0
  6
CONTINUOUS
 62
     7
 10
170.3393330327
 20
57.0752213764
 30
0.0
  0
VERTEX
  5
3FB
  8
0
  6
CONTINUOUS
 62
     7
 10
169.5144899954
 20
57.0691663195
 30
0.0
  0
VERTEX
  5
3FC
  8
0
  6
CONTINUOUS
 62
     7
 10
168.6904110524
 20
57.051757657
 30
0.0
  0
VERTEX
  5
3FD
  8
0
  6
CONTINUOUS
 62
     7
 10
167.9361965634
 20
57.025882313
 30
0.0
  0
VERTEX
  5
3FE
  8
0
  6
CONTINUOUS
 62
     7
 10
167.2300442672
 20
56.9930535514
 30
0.0
  0
VERTEX
  5
3FF
  8
0
  6
CONTINUOUS
 62
     7
 10
166.629092958
 20
56.95857342
 30
0.0
  0
VERTEX
  5
400
  8
0
  6
CONTINUOUS
 62
     7
 10
166.1182932547
 20
56.9245442966
 30
0.0
  0
VERTEX
  5
401
  8
0
  6
CONTINUOUS
 62
     7
 10
165.7399925329
 20
56.8965502472
 30
0.0
  0
VERTEX
  5
402
  8
0
  6
CONTINUOUS
 62
     7
 10
165.4841599627
 20
56.8762740118
 30
0.0
  0
VERTEX
  5
403
  8
0
  6
CONTINUOUS
 62
     7
 10
165.3658533502
 20
56.8665309735
 30
0.0
  0
SEQEND
  5
4E0
  8
0
  6
CONTINUOUS
 62
     7
  0
LINE
  5
122
  8
0
  6
CONTINUOUS
 62
     7
 10
164.3658533502
 20
56.8665309735
 30
0.0
 11
164.3658533502
 21
58.291792391
 31
0.0
  0
LINE
  5
123
  8
0
  6
CONTINUOUS
 62
     7
 10
176.3658533502
 20
58.291792391
 30
0.0
 11
176.3658533502
 21
67.8665309735
 31
0.0
  0
LINE
  5
124
  8
0
  6
CONTINUOUS
 62
     7
 10
164.3658533502
 20
58.291792391
 30
0.0
 11
164.3658533502
 21
67.8665309735
 31
0.0
  0
LINE
  5
125
  8
0
  6
CONTINUOUS
 62
     7
 10
165.3658533502
 20
54.8665309735
 30
0.0
 11
175.3658533502
 21
54.8665309735
 31
0.0
  0
LINE
  5
126
  8
0
  6
CONTINUOUS
 62
     7
 10
173.3658533502
 20
17.8665309735
 30
0.0
 11
167.3658533502
 21
17.8665309735
 31
0.0
  0
LINE
  5
127
  8
0
  6
CONTINUOUS
 62
     7
 10
187.6658533502
 20
117.3665309735
 30
0.0
 11
187.6658533502
 21
113.8665309735
 31
0.0
  0
LINE
  5
128
  8
0
  6
CONTINUOUS
 62
     7
 10
190.6658533502
 20
117.3665309735
 30
0.0
 11
187.6658533502
 21
117.3665309735
 31
0.0
  0
LINE
  5
129
  8
0
  6
CONTINUOUS
 62
     7
 10
190.6658533502
 20
113.8665309735
 30
0.0
 11
187.6658533502
 21
113.8665309735
 31
0.0
  0
LINE
  5
12A
  8
0
  6
CONTINUOUS
 62
     7
 10
187.6658533502
 20
81.8665309735
 30
0.0
 11
187.6658533502
 21
78.3665309735
 31
0.0
  0
LINE
  5
12B
  8
0
  6
CONTINUOUS
 62
     7
 10
190.6658533502
 20
81.8665309735
 30
0.0
 11
187.6658533502
 21
81.8665309735
 31
0.0
  0
LINE
  5
12C
  8
0
  6
CONTINUOUS
 62
     7
 10
190.6658533502
 20
78.3665309735
 30
0.0
 11
187.6658533502
 21
78.3665309735
 31
0.0
  0
LINE
  5
12D
  8
0
  6
CONTINUOUS
 62
     7
 10
187.6658533502
 20
113.8665309735
 30
0.0
 11
187.6658533502
 21
81.8665309735
 31
0.0
  0
LINE
  5
12E
  8
0
  6
CONTINUOUS
 62
     7
 10
190.6658533502
 20
77.4414561332
 30
0.0
 11
187.6658533502
 21
77.4414561332
 31
0.0
  0
LINE
  5
12F
  8
0
  6
CONTINUOUS
 62
     7
 10
187.6658533502
 20
78.3665309735
 30
0.0
 11
187.6658533502
 21
77.4414561332
 31
0.0
  0
LINE
  5
130
  8
0
  6
CONTINUOUS
 62
     7
 10
190.6658533502
 20
118.2916058137
 30
0.0
 11
187.6658533502
 21
118.2916058137
 31
0.0
  0
LINE
  5
131
  8
0
  6
CONTINUOUS
 62
     7
 10
187.6658533502
 20
118.2916058137
 30
0.0
 11
187.6658533502
 21
117.3665309735
 31
0.0
  0
LINE
  5
132
  8
0
  6
CONTINUOUS
 62
     7
 10
190.6658533502
 20
122.1713906711
 30
0.0
 11
187.6658533502
 21
122.1713906711
 31
0.0
  0
LINE
  5
133
  8
0
  6
CONTINUOUS
 62
     7
 10
187.6658533502
 20
122.1713906711
 30
0.0
 11
187.6658533502
 21
118.2916058137
 31
0.0
  0
LINE
  5
134
  8
0
  6
CONTINUOUS
 62
     7
 10
190.6658533502
 20
73.5616712758
 30
0.0
 11
187.6658533502
 21
73.5616712758
 31
0.0
  0
LINE
  5
135
  8
0
  6
CONTINUOUS
 62
     7
 10
187.6658533502
 20
77.4414561332
 30
0.0
 11
187.6658533502
 21
73.5616712758
 31
0.0
  0
LINE
  5
136
  8
0
  6
CONTINUOUS
 62
     7
 10
190.6658533502
 20
67.8665309735
 30
0.0
 11
187.6658533502
 21
67.8665309735
 31
0.0
  0
LINE
  5
137
  8
0
  6
CONTINUOUS
 62
     7
 10
187.6658533502
 20
73.5616712758
 30
0.0
 11
187.6658533502
 21
67.8665309735
 31
0.0
  0
LINE
  5
138
  8
0
  6
CONTINUOUS
 62
     7
 10
190.6658533502
 20
127.8665309735
 30
0.0
 11
187.6658533502
 21
127.8665309735
 31
0.0
  0
LINE
  5
139
  8
0
  6
CONTINUOUS
 62
     7
 10
187.6658533502
 20
127.8665309735
 30
0.0
 11
187.6658533502
 21
122.1713906711
 31
0.0
  0
LINE
  5
13A
  8
0
  6
CONTINUOUS
 62
     7
 10
187.6658533502
 20
117.3665309735
 30
0.0
 11
176.8658533502
 21
117.3665309735
 31
0.0
  0
LINE
  5
13B
  8
0
  6
CONTINUOUS
 62
     7
 10
187.6658533502
 20
113.8665309735
 30
0.0
 11
176.8658533502
 21
113.8665309735
 31
0.0
  0
LINE
  5
13C
  8
0
  6
CONTINUOUS
 62
     7
 10
187.6658533502
 20
81.8665309735
 30
0.0
 11
176.8658533502
 21
81.8665309735
 31
0.0
  0
LINE
  5
13D
  8
0
  6
CONTINUOUS
 62
     7
 10
187.6658533502
 20
78.3665309735
 30
0.0
 11
176.8658533502
 21
78.3665309735
 31
0.0
  0
LINE
  5
13E
  8
0
  6
CONTINUOUS
 62
     7
 10
187.6658533502
 20
118.2916058137
 30
0.0
 11
176.8658533502
 21
118.2916058137
 31
0.0
  0
LINE
  5
13F
  8
0
  6
CONTINUOUS
 62
     7
 10
187.6658533502
 20
77.4414561332
 30
0.0
 11
176.8658533502
 21
77.4414561332
 31
0.0
  0
LINE
  5
140
  8
0
  6
CONTINUOUS
 62
     7
 10
187.6658533502
 20
73.5616712758
 30
0.0
 11
176.8658533502
 21
73.5616712758
 31
0.0
  0
LINE
  5
141
  8
0
  6
CONTINUOUS
 62
     7
 10
187.6658533502
 20
122.1713906711
 30
0.0
 11
176.8658533502
 21
122.1713906711
 31
0.0
  0
LINE
  5
142
  8
0
  6
CONTINUOUS
 62
     7
 10
187.6658533502
 20
67.8665309735
 30
0.0
 11
176.8658533502
 21
67.8665309735
 31
0.0
  0
LINE
  5
143
  8
0
  6
CONTINUOUS
 62
     7
 10
187.6658533502
 20
127.8665309735
 30
0.0
 11
176.8658533502
 21
127.8665309735
 31
0.0
  0
ARC
  5
144
  8
0
  6
CONTINUOUS
 62
     7
 10
99.0727737042
 20
65.8665309735
 30
0.0
 40
1.300000000000011
 50
0.0
 51
90.0
  0
ARC
  5
145
  8
0
  6
CONTINUOUS
 62
     7
 10
99.0727737042
 20
61.4665309735
 30
0.0
 40
1.299999999999997
 50
270.0
 51
0.0
  0
LINE
  5
146
  8
0
  6
CONTINUOUS
 62
     7
 10
97.9727737042
 20
60.1665309735
 30
0.0
 11
99.0727737042
 21
60.1665309735
 31
0.0
  0
LINE
  5
147
  8
0
  6
CONTINUOUS
 62
     7
 10
99.0727737042
 20
67.1665309735
 30
0.0
 11
97.9727737042
 21
67.1665309735
 31
0.0
  0
LINE
  5
148
  8
0
  6
CONTINUOUS
 62
     7
 10
95.3727737042
 20
60.1665309735
 30
0.0
 11
97.9727737042
 21
60.1665309735
 31
0.0
  0
LINE
  5
149
  8
0
  6
CONTINUOUS
 62
     7
 10
97.9727737042
 20
67.1665309735
 30
0.0
 11
95.3727737042
 21
67.1665309735
 31
0.0
  0
LINE
  5
14A
  8
0
  6
CONTINUOUS
 62
     7
 10
76.6227737042
 20
57.0951714338
 30
0.0
 11
76.6227737042
 21
54.8665309735
 31
0.0
  0
LINE
  5
14B
  8
0
  6
CONTINUOUS
 62
     7
 10
87.1227737042
 20
54.8665309735
 30
0.0
 11
87.1227737042
 21
57.0964798629
 31
0.0
  0
LINE
  5
14C
  8
0
  6
CONTINUOUS
 62
     7
 10
78.1227737042
 20
54.8665309735
 30
0.0
 11
78.1227737042
 21
52.8665309735
 31
0.0
  0
LINE
  5
14D
  8
0
  6
CONTINUOUS
 62
     7
 10
85.6227737042
 20
52.8665309735
 30
0.0
 11
85.6227737042
 21
54.8665309735
 31
0.0
  0
LINE
  5
14E
  8
0
  6
CONTINUOUS
 62
     7
 10
85.1227737042
 20
17.8665309735
 30
0.0
 11
85.1227737042
 21
52.8665309735
 31
0.0
  0
LINE
  5
14F
  8
0
  6
CONTINUOUS
 62
     7
 10
78.6227737042
 20
52.8665309735
 30
0.0
 11
78.6227737042
 21
17.8665309735
 31
0.0
  0
LINE
  5
150
  8
0
  6
CONTINUOUS
 62
     7
 10
76.8727737042
 20
57.0738795561
 30
0.0
 11
76.8727737042
 21
54.8665309735
 31
0.0
  0
LINE
  5
151
  8
0
  6
CONTINUOUS
 62
     7
 10
86.8727737042
 20
54.8665309735
 30
0.0
 11
86.8727737042
 21
57.0750454724
 31
0.0
  0
LINE
  5
152
  8
0
  6
CONTINUOUS
 62
     7
 10
78.8727737042
 20
54.8665309735
 30
0.0
 11
78.8727737042
 21
17.8665309735
 31
0.0
  0
LINE
  5
153
  8
0
  6
CONTINUOUS
 62
     7
 10
84.8727737042
 20
17.8665309735
 30
0.0
 11
84.8727737042
 21
54.8665309735
 31
0.0
  0
LINE
  5
154
  8
0
  6
CONTINUOUS
 62
     7
 10
100.3727737042
 20
65.8665309735
 30
0.0
 11
100.3727737042
 21
63.9165309735
 31
0.0
  0
LINE
  5
155
  8
0
  6
CONTINUOUS
 62
     7
 10
100.3727737042
 20
63.9165309735
 30
0.0
 11
99.0727737042
 21
63.9165309735
 31
0.0
  0
LINE
  5
156
  8
0
  6
CONTINUOUS
 62
     7
 10
100.3727737042
 20
63.4165309735
 30
0.0
 11
100.3727737042
 21
61.4665309735
 31
0.0
  0
LINE
  5
157
  8
0
  6
CONTINUOUS
 62
     7
 10
99.0727737042
 20
63.4165309735
 30
0.0
 11
100.3727737042
 21
63.4165309735
 31
0.0
  0
LINE
  5
158
  8
0
  6
CONTINUOUS
 62
     7
 10
99.0727737042
 20
63.9165309735
 30
0.0
 11
99.0727737042
 21
63.4165309735
 31
0.0
  0
LINE
  5
159
  8
0
  6
CONTINUOUS
 62
     7
 10
97.9727737042
 20
67.1665309735
 30
0.0
 11
97.9727737042
 21
60.1665309735
 31
0.0
  0
CIRCLE
  5
15A
  8
0
  6
CONTINUOUS
 62
     7
 10
106.8727737042
 20
122.8665309735
 30
0.0
 40
4.300000000000011
  0
ARC
  5
15B
  8
0
  6
CONTINUOUS
 62
     7
 10
106.8718354733
 20
122.8655927425
 30
0.0
 40
5.000938318931309
 50
0.0107493172
 51
89.9892506828
  0
LINE
  5
15C
  8
0
  6
CONTINUOUS
 62
     7
 10
106.8727737042
 20
127.8665309735
 30
0.0
 11
101.3727737042
 21
127.8665309735
 31
0.0
  0
LINE
  5
15D
  8
0
  6
CONTINUOUS
 62
     7
 10
111.8727737042
 20
113.8665309735
 30
0.0
 11
111.8727737042
 21
122.8665309735
 31
0.0
  0
CIRCLE
  5
15E
  8
0
  6
CONTINUOUS
 62
     7
 10
56.8727737042
 20
72.8665309735
 30
0.0
 40
4.300000000000082
  0
ARC
  5
15F
  8
0
  6
CONTINUOUS
 62
     7
 10
56.8737119351
 20
72.8674692044
 30
0.0
 40
5.000938318931323
 50
180.0107493172
 51
269.9892506828
  0
LINE
  5
160
  8
0
  6
CONTINUOUS
 62
     7
 10
51.8727737042
 20
81.8665309735
 30
0.0
 11
51.8727737042
 21
72.8665309735
 31
0.0
  0
LINE
  5
161
  8
0
  6
CONTINUOUS
 62
     7
 10
56.8727737042
 20
67.8665309735
 30
0.0
 11
62.3727737042
 21
67.8665309735
 31
0.0
  0
CIRCLE
  5
162
  8
0
  6
CONTINUOUS
 62
     7
 10
56.8727737042
 20
122.8665309735
 30
0.0
 40
4.300000000000157
  0
ARC
  5
163
  8
0
  6
CONTINUOUS
 62
     7
 10
56.8737119351
 20
122.8655927425
 30
0.0
 40
5.000938318931287
 50
90.0107493172
 51
179.9892506828
  0
LINE
  5
164
  8
0
  6
CONTINUOUS
 62
     7
 10
51.8727737042
 20
122.8665309735
 30
0.0
 11
51.8727737042
 21
113.8665309733
 31
0.0
  0
LINE
  5
165
  8
0
  6
CONTINUOUS
 62
     7
 10
62.3727737042
 20
127.8665309735
 30
0.0
 11
56.8727737042
 21
127.8665309735
 31
0.0
  0
CIRCLE
  5
166
  8
0
  6
CONTINUOUS
 62
     7
 10
106.8727737042
 20
72.8665309735
 30
0.0
 40
4.300000000000013
  0
ARC
  5
167
  8
0
  6
CONTINUOUS
 62
     7
 10
106.8718354733
 20
72.8674692044
 30
0.0
 40
5.000938318931351
 50
270.0107493172
 51
359.9892506828
  0
LINE
  5
168
  8
0
  6
CONTINUOUS
 62
     7
 10
111.8727737042
 20
72.8665309735
 30
0.0
 11
111.8727737042
 21
81.8665309733
 31
0.0
  0
LINE
  5
169
  8
0
  6
CONTINUOUS
 62
     7
 10
101.3727737042
 20
67.8665309735
 30
0.0
 11
106.8727737042
 21
67.8665309735
 31
0.0
  0
CIRCLE
  5
16A
  8
0
  6
CONTINUOUS
 62
     7
 10
106.8727737042
 20
72.8665309735
 30
0.0
 40
2.249999999999986
  0
CIRCLE
  5
16B
  8
0
  6
CONTINUOUS
 62
     7
 10
106.8727737042
 20
122.8665309735
 30
0.0
 40
2.25
  0
CIRCLE
  5
16C
  8
0
  6
CONTINUOUS
 62
     7
 10
56.8727737042
 20
72.8665309735
 30
0.0
 40
2.25
  0
CIRCLE
  5
16D
  8
0
  6
CONTINUOUS
 62
     7
 10
56.8727737042
 20
122.8665309735
 30
0.0
 40
2.25
  0
LINE
  5
16E
  8
0
  6
CONTINUOUS
 62
     7
 10
95.3727737042
 20
58.4050051637
 30
0.0
 11
95.3727737042
 21
67.8665309735
 31
0.0
  0
LINE
  5
16F
  8
0
  6
CONTINUOUS
 62
     7
 10
68.3727737042
 20
58.4050051637
 30
0.0
 11
68.8727737042
 21
58.291792391
 31
0.0
  0
LINE
  5
170
  8
0
  6
CONTINUOUS
 62
     7
 10
94.8727737042
 20
58.291792391
 30
0.0
 11
95.3727737042
 21
58.4050051637
 31
0.0
  0
LINE
  5
171
  8
0
  6
CONTINUOUS
 62
     7
 10
68.3727737042
 20
58.4050051637
 30
0.0
 11
68.3727737042
 21
67.8665309735
 31
0.0
  0
LINE
  5
172
  8
0
  6
CONTINUOUS
 62
     7
 10
86.8727737042
 20
54.8665309735
 30
0.0
 11
87.1227737042
 21
54.8665309735
 31
0.0
  0
LINE
  5
173
  8
0
  6
CONTINUOUS
 62
     7
 10
76.6227737042
 20
54.8665309735
 30
0.0
 11
76.8727737042
 21
54.8665309735
 31
0.0
  0
LINE
  5
174
  8
0
  6
CONTINUOUS
 62
     7
 10
85.6227737042
 20
52.8665309735
 30
0.0
 11
84.8727737042
 21
52.8665309735
 31
0.0
  0
LINE
  5
175
  8
0
  6
CONTINUOUS
 62
     7
 10
78.8727737042
 20
52.8665309735
 30
0.0
 11
78.1227737042
 21
52.8665309735
 31
0.0
  0
LINE
  5
176
  8
0
  6
CONTINUOUS
 62
     7
 10
78.6227737042
 20
17.8665309735
 30
0.0
 11
78.8727737042
 21
17.8665309735
 31
0.0
  0
LINE
  5
177
  8
0
  6
CONTINUOUS
 62
     7
 10
84.8727737042
 20
17.8665309735
 30
0.0
 11
85.1227737042
 21
17.8665309735
 31
0.0
  0
CIRCLE
  5
178
  8
0
  6
CONTINUOUS
 62
     7
 10
81.8727737042
 20
97.8665309735
 30
0.0
 40
24.99999999999999
  0
LINE
  5
179
  8
0
  6
CONTINUOUS
 62
     7
 10
102.2244643384
 20
122.1713906711
 30
0.0
 11
101.3727737042
 21
127.8665309735
 31
0.0
  0
ARC
  5
17A
  8
0
  6
CONTINUOUS
 62
     7
 10
106.8727737042
 20
122.8665309735
 30
0.0
 40
4.700000000000004
 50
188.5053750292
 51
256.7522683717
  0
LINE
  5
17B
  8
0
  6
CONTINUOUS
 62
     7
 10
109.7250626586
 20
117.3665309735
 30
0.0
 11
105.7957129898
 21
118.2916058137
 31
0.0
  0
ARC
  5
17C
  8
0
  6
CONTINUOUS
 62
     7
 10
81.8727737042
 20
97.8665309735
 30
0.0
 40
34.0
 50
28.0724869359
 51
34.9967109205
  0
LINE
  5
17D
  8
0
  6
CONTINUOUS
 62
     7
 10
111.8727737042
 20
81.8665309735
 30
0.0
 11
111.8727737042
 21
113.8665309735
 31
0.0
  0
ARC
  5
17E
  8
0
  6
CONTINUOUS
 62
     7
 10
81.8727737042
 20
97.8665309735
 30
0.0
 40
34.00000000000002
 50
325.0032890795
 51
331.9275130641
  0
LINE
  5
17F
  8
0
  6
CONTINUOUS
 62
     7
 10
105.7957129898
 20
77.4414561332
 30
0.0
 11
109.7250626586
 21
78.3665309735
 31
0.0
  0
ARC
  5
180
  8
0
  6
CONTINUOUS
 62
     7
 10
106.8727737042
 20
72.8665309735
 30
0.0
 40
4.700000000000006
 50
103.2477316283
 51
171.4946249708
  0
LINE
  5
181
  8
0
  6
CONTINUOUS
 62
     7
 10
101.3727737042
 20
67.8665309735
 30
0.0
 11
102.2244643384
 21
73.5616712758
 31
0.0
  0
LINE
  5
182
  8
0
  6
CONTINUOUS
 62
     7
 10
62.3727737042
 20
67.8665309735
 30
0.0
 11
101.3727737042
 21
67.8665309735
 31
0.0
  0
LINE
  5
183
  8
0
  6
CONTINUOUS
 62
     7
 10
61.52108307
 20
73.5616712758
 30
0.0
 11
62.3727737042
 21
67.8665309735
 31
0.0
  0
ARC
  5
184
  8
0
  6
CONTINUOUS
 62
     7
 10
56.8727737042
 20
72.8665309735
 30
0.0
 40
4.699999999999933
 50
8.5053750292
 51
76.7522683717
  0
LINE
  5
185
  8
0
  6
CONTINUOUS
 62
     7
 10
54.0204847498
 20
78.3665309735
 30
0.0
 11
57.9498344185
 21
77.4414561332
 31
0.0
  0
ARC
  5
186
  8
0
  6
CONTINUOUS
 62
     7
 10
81.8727737042
 20
97.8665309735
 30
0.0
 40
34.0
 50
208.0724869359
 51
214.9967109205
  0
LINE
  5
187
  8
0
  6
CONTINUOUS
 62
     7
 10
51.8727737042
 20
113.8665309735
 30
0.0
 11
51.8727737042
 21
81.8665309735
 31
0.0
  0
ARC
  5
188
  8
0
  6
CONTINUOUS
 62
     7
 10
81.8727737042
 20
97.8665309735
 30
0.0
 40
33.99999999999999
 50
145.0032890795
 51
151.9275130641
  0
LINE
  5
189
  8
0
  6
CONTINUOUS
 62
     7
 10
57.9498344185
 20
118.2916058137
 30
0.0
 11
54.0204847498
 21
117.3665309735
 31
0.0
  0
ARC
  5
18A
  8
0
  6
CONTINUOUS
 62
     7
 10
56.8727737042
 20
122.8665309735
 30
0.0
 40
4.699999999999935
 50
283.2477316283
 51
351.4946249708
  0
LINE
  5
18B
  8
0
  6
CONTINUOUS
 62
     7
 10
62.3727737042
 20
127.8665309735
 30
0.0
 11
61.52108307
 21
122.1713906711
 31
0.0
  0
LINE
  5
18C
  8
0
  6
CONTINUOUS
 62
     7
 10
101.3727737042
 20
127.8665309735
 30
0.0
 11
62.3727737042
 21
127.8665309735
 31
0.0
  0
ARC
  5
18D
  8
0
  6
CONTINUOUS
 62
     7
 10
81.8727737042
 20
116.8665309735
 30
0.0
 40
60.00000000000001
 50
257.4866746371
 51
282.5133253629
  0
LINE
  5
18E
  8
0
  6
CONTINUOUS
 62
     7
 10
68.8727737042
 20
58.291792391
 30
0.0
 11
68.8727737042
 21
67.8665309735
 31
0.0
  0
LINE
  5
18F
  8
0
  6
CONTINUOUS
 62
     7
 10
94.8727737042
 20
58.291792391
 30
0.0
 11
94.8727737042
 21
67.8665309735
 31
0.0
  0
LINE
  5
190
  8
0
  6
CONTINUOUS
 62
     7
 10
81.8727737042
 20
54.8665309735
 30
0.0
 11
86.8727737042
 21
54.8665309735
 31
0.0
  0
LINE
  5
191
  8
0
  6
CONTINUOUS
 62
     7
 10
76.8727737042
 20
54.8665309735
 30
0.0
 11
81.8727737042
 21
54.8665309735
 31
0.0
  0
LINE
  5
192
  8
0
  6
CONTINUOUS
 62
     7
 10
84.8727737042
 20
17.8665309735
 30
0.0
 11
78.8727737042
 21
17.8665309735
 31
0.0
  0
LINE
  5
193
  8
0
  6
CONTINUOUS
 62
     8
 10
99.0727737042
 20
63.9165309735
 30
0.0
 11
99.0727737042
 21
67.1665309735
 31
0.0
  0
LINE
  5
194
  8
0
  6
CONTINUOUS
 62
     8
 10
99.0727737042
 20
60.1665309735
 30
0.0
 11
99.0727737042
 21
63.4165309735
 31
0.0
  0
ARC
  5
195
  8
0
  6
CONTINUOUS
 62
     7
 10
376.3221036662
 20
61.4665309735
 30
0.0
 40
1.300000000000011
 50
180.0
 51
270.0
  0
ARC
  5
196
  8
0
  6
CONTINUOUS
 62
     7
 10
376.3221036662
 20
65.8665309735
 30
0.0
 40
1.300000000000011
 50
90.0
 51
180.0
  0
LINE
  5
197
  8
0
  6
CONTINUOUS
 62
     7
 10
377.4221036662
 20
67.1665309735
 30
0.0
 11
376.3221036662
 21
67.1665309735
 31
0.0
  0
LINE
  5
198
  8
0
  6
CONTINUOUS
 62
     7
 10
376.3221036662
 20
60.1665309735
 30
0.0
 11
377.4221036662
 21
60.1665309735
 31
0.0
  0
LINE
  5
199
  8
0
  6
CONTINUOUS
 62
     7
 10
380.0221036662
 20
66.6665309735
 30
0.0
 11
379.7221036662
 21
66.6665309735
 31
0.0
  0
LINE
  5
19A
  8
0
  6
CONTINUOUS
 62
     7
 10
379.7221036662
 20
60.6665309735
 30
0.0
 11
380.0221036662
 21
60.6665309735
 31
0.0
  0
LINE
  5
19B
  8
0
  6
CONTINUOUS
 62
     7
 10
388.2721036662
 20
57.0964798629
 30
0.0
 11
388.2721036662
 21
54.8665309735
 31
0.0
  0
LINE
  5
19C
  8
0
  6
CONTINUOUS
 62
     7
 10
398.7721036662
 20
54.8665309735
 30
0.0
 11
398.7721036662
 21
57.0951714338
 31
0.0
  0
LINE
  5
19D
  8
0
  6
CONTINUOUS
 62
     7
 10
389.7721036662
 20
54.8665309735
 30
0.0
 11
389.7721036662
 21
52.8665309735
 31
0.0
  0
LINE
  5
19E
  8
0
  6
CONTINUOUS
 62
     7
 10
397.2721036662
 20
52.8665309735
 30
0.0
 11
397.2721036662
 21
54.8665309735
 31
0.0
  0
LINE
  5
19F
  8
0
  6
CONTINUOUS
 62
     7
 10
396.7721036662
 20
17.8665309735
 30
0.0
 11
396.7721036662
 21
52.8665309735
 31
0.0
  0
LINE
  5
1A0
  8
0
  6
CONTINUOUS
 62
     7
 10
390.2721036662
 20
52.8665309735
 30
0.0
 11
390.2721036662
 21
17.8665309735
 31
0.0
  0
LINE
  5
1A1
  8
0
  6
CONTINUOUS
 62
     7
 10
380.0221036662
 20
67.1665309735
 30
0.0
 11
377.4221036662
 21
67.1665309735
 31
0.0
  0
LINE
  5
1A2
  8
0
  6
CONTINUOUS
 62
     7
 10
377.4221036662
 20
60.1665309735
 30
0.0
 11
380.0221036662
 21
60.1665309735
 31
0.0
  0
CIRCLE
  5
1A3
  8
0
  6
CONTINUOUS
 62
     7
 10
393.5221036662
 20
97.8665309735
 30
0.0
 40
18.0
  0
CIRCLE
  5
1A4
  8
0
  6
CONTINUOUS
 62
     7
 10
393.5221036662
 20
97.8665309735
 30
0.0
 40
7.0
  0
LINE
  5
1A5
  8
0
  6
CONTINUOUS
 62
     7
 10
375.0221036662
 20
61.4665309735
 30
0.0
 11
375.0221036662
 21
63.4165309735
 31
0.0
  0
LINE
  5
1A6
  8
0
  6
CONTINUOUS
 62
     7
 10
375.0221036662
 20
63.4165309735
 30
0.0
 11
376.3221036662
 21
63.4165309735
 31
0.0
  0
LINE
  5
1A7
  8
0
  6
CONTINUOUS
 62
     7
 10
375.0221036662
 20
63.9165309735
 30
0.0
 11
375.0221036662
 21
65.8665309735
 31
0.0
  0
LINE
  5
1A8
  8
0
  6
CONTINUOUS
 62
     7
 10
376.3221036662
 20
63.9165309735
 30
0.0
 11
375.0221036662
 21
63.9165309735
 31
0.0
  0
LINE
  5
1A9
  8
0
  6
CONTINUOUS
 62
     7
 10
376.3221036662
 20
63.4165309735
 30
0.0
 11
376.3221036662
 21
63.9165309735
 31
0.0
  0
LINE
  5
1AA
  8
0
  6
CONTINUOUS
 62
     7
 10
377.4221036662
 20
63.6665309735
 30
0.0
 11
377.4221036662
 21
67.1665309735
 31
0.0
  0
LINE
  5
1AB
  8
0
  6
CONTINUOUS
 62
     7
 10
377.4221036662
 20
60.1665309735
 30
0.0
 11
377.4221036662
 21
63.6665309735
 31
0.0
  0
LINE
  5
1AC
  8
0
  6
CONTINUOUS
 62
     7
 10
418.5221036662
 20
67.8665309735
 30
0.0
 11
368.5221036662
 21
67.8665309735
 31
0.0
  0
ARC
  5
1AD
  8
0
  6
CONTINUOUS
 62
     7
 10
368.5221036662
 20
72.8665309735
 30
0.0
 40
5.000000000000057
 50
180.0
 51
270.0
  0
LINE
  5
1AE
  8
0
  6
CONTINUOUS
 62
     7
 10
363.5221036662
 20
72.8665309735
 30
0.0
 11
363.5221036662
 21
122.8665309735
 31
0.0
  0
ARC
  5
1AF
  8
0
  6
CONTINUOUS
 62
     7
 10
368.5221036662
 20
122.8665309735
 30
0.0
 40
5.000000000000057
 50
90.0
 51
180.0
  0
LINE
  5
1B0
  8
0
  6
CONTINUOUS
 62
     7
 10
368.5221036662
 20
127.8665309735
 30
0.0
 11
418.5221036662
 21
127.8665309735
 31
0.0
  0
CIRCLE
  5
1B1
  8
0
  6
CONTINUOUS
 62
     7
 10
368.5221036662
 20
122.8665309735
 30
0.0
 40
2.25
  0
CIRCLE
  5
1B2
  8
0
  6
CONTINUOUS
 62
     7
 10
368.5221036662
 20
72.8665309735
 30
0.0
 40
2.25
  0
CIRCLE
  5
1B3
  8
0
  6
CONTINUOUS
 62
     7
 10
418.5221036662
 20
72.8665309735
 30
0.0
 40
2.25
  0
CIRCLE
  5
1B4
  8
0
  6
CONTINUOUS
 62
     7
 10
418.5221036662
 20
122.8665309735
 30
0.0
 40
2.25
  0
ARC
  5
1B5
  8
0
  6
CONTINUOUS
 62
     7
 10
418.5221036662
 20
122.8665309735
 30
0.0
 40
5.000000000000014
 50
0.0
 51
90.0
  0
ARC
  5
1B6
  8
0
  6
CONTINUOUS
 62
     7
 10
418.5221036662
 20
72.8665309735
 30
0.0
 40
4.999999999999986
 50
270.0
 51
0.0
  0
LINE
  5
1B7
  8
0
  6
CONTINUOUS
 62
     7
 10
423.5221036662
 20
122.8665309735
 30
0.0
 11
423.5221036662
 21
72.8665309735
 31
0.0
  0
ARC
  5
1B8
  8
0
  6
CONTINUOUS
 62
     7
 10
393.5221036662
 20
116.8665309735
 30
0.0
 40
59.99999999999999
 50
256.9971218371
 51
283.0028781629
  0
LINE
  5
1B9
  8
0
  6
CONTINUOUS
 62
     7
 10
380.0221036662
 20
62.4537856515
 30
0.0
 11
380.0221036662
 21
58.4050051637
 31
0.0
  0
POLYLINE
  5
1BA
  8
0
  6
CONTINUOUS
 62
     7
 66
     1
 10
0.0
 20
0.0
 30
0.0
 70
   128
  0
VERTEX
  5
404
  8
0
  6
CONTINUOUS
 62
     7
 10
384.0221036662
 20
63.6233879103
 30
0.0
  0
VERTEX
  5
405
  8
0
  6
CONTINUOUS
 62
     7
 10
382.8081457312
 20
63.7388247445
 30
0.0
  0
VERTEX
  5
406
  8
0
  6
CONTINUOUS
 62
     7
 10
381.7046091235
 20
63.6809638034
 30
0.0
  0
VERTEX
  5
407
  8
0
  6
CONTINUOUS
 62
     7
 10
380.8412674283
 20
63.4537427236
 30
0.0
  0
VERTEX
  5
408
  8
0
  6
CONTINUOUS
 62
     7
 10
380.2627480013
 20
63.0653085691
 30
0.0
  0
VERTEX
  5
409
  8
0
  6
CONTINUOUS
 62
     7
 10
380.0819209442
 20
62.7751550475
 30
0.0
  0
VERTEX
  5
40A
  8
0
  6
CONTINUOUS
 62
     7
 10
380.0221036662
 20
62.4537856515
 30
0.0
  0
SEQEND
  5
4E1
  8
0
  6
CONTINUOUS
 62
     7
  0
ARC
  5
1BB
  8
0
  6
CONTINUOUS
 62
     7
 10
393.5221036662
 20
122.8770147751
 30
0.0
 40
60.01035157894878
 50
260.891414695
 51
279.108585305
  0
POLYLINE
  5
1BC
  8
0
  6
CONTINUOUS
 62
     7
 66
     1
 10
0.0
 20
0.0
 30
0.0
 70
   128
  0
VERTEX
  5
40B
  8
0
  6
CONTINUOUS
 62
     7
 10
407.0221036662
 20
62.4537856515
 30
0.0
  0
VERTEX
  5
40C
  8
0
  6
CONTINUOUS
 62
     7
 10
406.9629472378
 20
62.7734770506
 30
0.0
  0
VERTEX
  5
40D
  8
0
  6
CONTINUOUS
 62
     7
 10
406.7841082479
 20
63.0623431661
 30
0.0
  0
VERTEX
  5
40E
  8
0
  6
CONTINUOUS
 62
     7
 10
406.4798126389
 20
63.3116060667
 30
0.0
  0
VERTEX
  5
40F
  8
0
  6
CONTINUOUS
 62
     7
 10
406.0552545243
 20
63.5109487572
 30
0.0
  0
VERTEX
  5
410
  8
0
  6
CONTINUOUS
 62
     7
 10
405.5715159509
 20
63.640884038
 30
0.0
  0
VERTEX
  5
411
  8
0
  6
CONTINUOUS
 62
     7
 10
405.0086885817
 20
63.7186554008
 30
0.0
  0
VERTEX
  5
412
  8
0
  6
CONTINUOUS
 62
     7
 10
403.8363282703
 20
63.7188537459
 30
0.0
  0
VERTEX
  5
413
  8
0
  6
CONTINUOUS
 62
     7
 10
403.0221036663
 20
63.6233879103
 30
0.0
  0
SEQEND
  5
4E2
  8
0
  6
CONTINUOUS
 62
     7
  0
LINE
  5
1BD
  8
0
  6
CONTINUOUS
 62
     7
 10
407.0221036662
 20
62.4537856515
 30
0.0
 11
407.0221036662
 21
58.4050051637
 31
0.0
  0
LINE
  5
1BE
  8
0
  6
CONTINUOUS
 62
     7
 10
403.0221036663
 20
63.6233879103
 30
0.0
 11
403.0221036662
 21
67.8665309735
 31
0.0
  0
LINE
  5
1BF
  8
0
  6
CONTINUOUS
 62
     7
 10
407.0221036662
 20
67.8665309735
 30
0.0
 11
407.0221036662
 21
62.4537856515
 31
0.0
  0
LINE
  5
1C0
  8
0
  6
CONTINUOUS
 62
     7
 10
384.0221036662
 20
67.8665309735
 30
0.0
 11
384.0221036662
 21
63.6233879103
 31
0.0
  0
LINE
  5
1C1
  8
0
  6
CONTINUOUS
 62
     7
 10
380.0221036662
 20
62.4537856515
 30
0.0
 11
380.0221036662
 21
67.8665309735
 31
0.0
  0
LINE
  5
1C2
  8
0
  6
CONTINUOUS
 62
     7
 10
379.7221036662
 20
63.6665309735
 30
0.0
 11
379.7221036662
 21
66.6665309735
 31
0.0
  0
LINE
  5
1C3
  8
0
  6
CONTINUOUS
 62
     7
 10
379.7221036662
 20
60.6665309735
 30
0.0
 11
379.7221036662
 21
63.6665309735
 31
0.0
  0
LINE
  5
1C4
  8
0
  6
CONTINUOUS
 62
     7
 10
388.2721036662
 20
54.8665309735
 30
0.0
 11
398.7721036662
 21
54.8665309735
 31
0.0
  0
LINE
  5
1C5
  8
0
  6
CONTINUOUS
 62
     7
 10
393.5221036662
 20
52.8665309735
 30
0.0
 11
389.7721036662
 21
52.8665309735
 31
0.0
  0
LINE
  5
1C6
  8
0
  6
CONTINUOUS
 62
     7
 10
397.2721036662
 20
52.8665309735
 30
0.0
 11
393.5221036662
 21
52.8665309735
 31
0.0
  0
LINE
  5
1C7
  8
0
  6
CONTINUOUS
 62
     7
 10
393.5221036662
 20
17.8665309735
 30
0.0
 11
396.7721036662
 21
17.8665309735
 31
0.0
  0
LINE
  5
1C8
  8
0
  6
CONTINUOUS
 62
     7
 10
390.2721036662
 20
17.8665309735
 30
0.0
 11
393.5221036662
 21
17.8665309735
 31
0.0
  0
LINE
  5
1C9
  8
0
  6
CONTINUOUS
 62
     8
 10
376.3221036662
 20
63.4165309735
 30
0.0
 11
376.3221036662
 21
60.1665309735
 31
0.0
  0
LINE
  5
1CA
  8
0
  6
CONTINUOUS
 62
     8
 10
376.3221036662
 20
67.1665309735
 30
0.0
 11
376.3221036662
 21
63.9165309735
 31
0.0
  0
LINE
  5
1CB
  8
0
  6
CONTINUOUS
 62
     7
 10
287.4658533502
 20
214.8056864728
 30
0.0
 11
284.4658533502
 21
214.8056864728
 31
0.0
  0
LINE
  5
1CC
  8
0
  6
CONTINUOUS
 62
     7
 10
284.4658533502
 20
178.8056864728
 30
0.0
 11
287.4658533502
 21
178.8056864728
 31
0.0
  0
LINE
  5
1CD
  8
0
  6
CONTINUOUS
 62
     7
 10
308.4658533502
 20
203.8056864728
 30
0.0
 11
287.4658533502
 21
203.8056864728
 31
0.0
  0
LINE
  5
1CE
  8
0
  6
CONTINUOUS
 62
     7
 10
287.4658533502
 20
189.8056864728
 30
0.0
 11
308.4658533502
 21
189.8056864728
 31
0.0
  0
ARC
  5
1CF
  8
0
  6
CONTINUOUS
 62
     7
 10
361.39720168
 20
196.8056864728
 30
0.0
 40
200.0
 50
187.1807557815
 51
188.6269265587
  0
ARC
  5
1D0
  8
0
  6
CONTINUOUS
 62
     7
 10
361.39720168
 20
196.8056864728
 30
0.0
 40
200.0
 50
171.3730734413
 51
172.8192442185
  0
LINE
  5
1D1
  8
0
  6
CONTINUOUS
 62
     7
 10
287.4658533502
 20
214.8056864728
 30
0.0
 11
287.4658533502
 21
178.8056864728
 31
0.0
  0
LINE
  5
1D2
  8
0
  6
CONTINUOUS
 62
     7
 10
308.4658533502
 20
203.8056864728
 30
0.0
 11
308.4658533502
 21
189.8056864728
 31
0.0
  0
LINE
  5
1D3
  8
0
  6
CONTINUOUS
 62
     7
 10
273.7636037479
 20
226.8056864728
 30
0.0
 11
284.4658533502
 21
226.8056864728
 31
0.0
  0
LINE
  5
1D4
  8
0
  6
CONTINUOUS
 62
     7
 10
284.4658533502
 20
221.8056864728
 30
0.0
 11
273.7636037479
 21
221.8056864728
 31
0.0
  0
POLYLINE
  5
1D5
  8
0
  6
CONTINUOUS
 62
     7
 66
     1
 10
0.0
 20
0.0
 30
0.0
 70
   128
  0
VERTEX
  5
414
  8
0
  6
CONTINUOUS
 62
     7
 10
273.7636037479
 20
221.8056864728
 30
0.0
  0
VERTEX
  5
415
  8
0
  6
CONTINUOUS
 62
     7
 10
273.8594549523
 20
222.6251645775
 30
0.0
  0
VERTEX
  5
416
  8
0
  6
CONTINUOUS
 62
     7
 10
273.9375505153
 20
223.4469056953
 30
0.0
  0
VERTEX
  5
417
  8
0
  6
CONTINUOUS
 62
     7
 10
273.9912110946
 20
224.2022296534
 30
0.0
  0
VERTEX
  5
418
  8
0
  6
CONTINUOUS
 62
     7
 10
274.0217885181
 20
224.9123084879
 30
0.0
  0
VERTEX
  5
419
  8
0
  6
CONTINUOUS
 62
     7
 10
274.0266470659
 20
225.5113261092
 30
0.0
  0
VERTEX
  5
41A
  8
0
  6
CONTINUOUS
 62
     7
 10
274.0063023206
 20
226.0233732019
 30
0.0
  0
VERTEX
  5
41B
  8
0
  6
CONTINUOUS
 62
     7
 10
273.9627384512
 20
226.4041773934
 30
0.0
  0
VERTEX
  5
41C
  8
0
  6
CONTINUOUS
 62
     7
 10
273.8948096325
 20
226.6675288006
 30
0.0
  0
VERTEX
  5
41D
  8
0
  6
CONTINUOUS
 62
     7
 10
273.7636037479
 20
226.8056864728
 30
0.0
  0
SEQEND
  5
4E3
  8
0
  6
CONTINUOUS
 62
     7
  0
LINE
  5
1D6
  8
0
  6
CONTINUOUS
 62
     7
 10
284.4658533502
 20
226.8056864728
 30
0.0
 11
284.4658533502
 21
221.8056864728
 31
0.0
  0
POLYLINE
  5
1D7
  8
0
  6
CONTINUOUS
 62
     7
 66
     1
 10
0.0
 20
0.0
 30
0.0
 70
   128
  0
VERTEX
  5
41E
  8
0
  6
CONTINUOUS
 62
     7
 10
273.1149479025
 20
224.8624121282
 30
0.0
  0
VERTEX
  5
41F
  8
0
  6
CONTINUOUS
 62
     7
 10
272.8560647734
 20
223.6724841019
 30
0.0
  0
VERTEX
  5
420
  8
0
  6
CONTINUOUS
 62
     7
 10
272.6261763127
 20
222.2615075216
 30
0.0
  0
VERTEX
  5
421
  8
0
  6
CONTINUOUS
 62
     7
 10
272.4531647359
 20
220.8007296385
 30
0.0
  0
VERTEX
  5
422
  8
0
  6
CONTINUOUS
 62
     7
 10
272.3569220155
 20
219.4694417908
 30
0.0
  0
VERTEX
  5
423
  8
0
  6
CONTINUOUS
 62
     7
 10
272.3457055407
 20
218.413948562
 30
0.0
  0
VERTEX
  5
424
  8
0
  6
CONTINUOUS
 62
     7
 10
272.4182154649
 20
217.738004171
 30
0.0
  0
VERTEX
  5
425
  8
0
  6
CONTINUOUS
 62
     7
 10
272.5660830165
 20
217.5056903116
 30
0.0
  0
VERTEX
  5
426
  8
0
  6
CONTINUOUS
 62
     7
 10
272.7749355601
 20
217.7449285294
 30
0.0
  0
VERTEX
  5
427
  8
0
  6
CONTINUOUS
 62
     7
 10
273.0240112465
 20
218.4426015988
 30
0.0
  0
VERTEX
  5
428
  8
0
  6
CONTINUOUS
 62
     7
 10
273.2860563908
 20
219.5337100353
 30
0.0
  0
VERTEX
  5
429
  8
0
  6
CONTINUOUS
 62
     7
 10
273.5295685419
 20
220.895895066
 30
0.0
  0
VERTEX
  5
42A
  8
0
  6
CONTINUOUS
 62
     7
 10
273.6343043555
 20
221.6253091223
 30
0.0
  0
VERTEX
  5
42B
  8
0
  6
CONTINUOUS
 62
     7
 10
273.7240795884
 20
222.3618693753
 30
0.0
  0
VERTEX
  5
42C
  8
0
  6
CONTINUOUS
 62
     7
 10
273.8464690402
 20
223.7512097623
 30
0.0
  0
VERTEX
  5
42D
  8
0
  6
CONTINUOUS
 62
     7
 10
273.8846878642
 20
224.9056354385
 30
0.0
  0
VERTEX
  5
42E
  8
0
  6
CONTINUOUS
 62
     7
 10
273.8372874483
 20
225.7081594948
 30
0.0
  0
VERTEX
  5
42F
  8
0
  6
CONTINUOUS
 62
     7
 10
273.710819573
 20
226.0832792881
 30
0.0
  0
VERTEX
  5
430
  8
0
  6
CONTINUOUS
 62
     7
 10
273.518098764
 20
225.9917482962
 30
0.0
  0
VERTEX
  5
431
  8
0
  6
CONTINUOUS
 62
     7
 10
273.2781984806
 20
225.4325787354
 30
0.0
  0
VERTEX
  5
432
  8
0
  6
CONTINUOUS
 62
     7
 10
273.1149479025
 20
224.8624121282
 30
0.0
  0
SEQEND
  5
4E4
  8
0
  6
CONTINUOUS
 62
     7
  0
ARC
  5
1D8
  8
0
  6
CONTINUOUS
 62
     7
 10
279.8901073377
 20
222.5523125359
 30
0.0
 40
9.19645090372349
 50
215.918390596
 51
222.7845265413
  0
ARC
  5
1D9
  8
0
  6
CONTINUOUS
 62
     7
 10
280.9345699663
 20
219.0360903469
 30
0.0
 40
8.69756838811244
 50
168.7787188814
 51
192.4744612481
  0
ARC
  5
1DA
  8
0
  6
CONTINUOUS
 62
     7
 10
459.6645974472
 20
202.6060885264
 30
0.0
 40
188.1362001579178
 50
173.2687532445
 51
174.4723162801
  0
LINE
  5
1DB
  8
0
  6
CONTINUOUS
 62
     7
 10
272.8252437393
 20
226.8056864728
 30
0.0
 11
272.8252437393
 21
224.6579754272
 31
0.0
  0
LINE
  5
1DC
  8
0
  6
CONTINUOUS
 62
     7
 10
273.7636037479
 20
226.8056864728
 30
0.0
 11
272.8252437393
 21
226.8056864728
 31
0.0
  0
ARC
  5
1DD
  8
0
  6
CONTINUOUS
 62
     7
 10
469.9140562046
 20
196.8056864725
 30
0.0
 40
197.737199330325
 50
172.7366309363
 51
174.3405358617
  0
LINE
  5
1DE
  8
0
  6
CONTINUOUS
 62
     7
 10
273.7636037478
 20
171.8056864728
 30
0.0
 11
284.4658533502
 21
171.8056864728
 31
0.0
  0
ARC
  5
1DF
  8
0
  6
CONTINUOUS
 62
     7
 10
469.9140562046
 20
196.8056864725
 30
0.0
 40
197.7371993303251
 50
185.6594641381
 51
187.2633690635
  0
LINE
  5
1E0
  8
0
  6
CONTINUOUS
 62
     7
 10
273.1407094347
 20
177.3056864728
 30
0.0
 11
271.4658533502
 21
177.3056864728
 31
0.0
  0
LINE
  5
1E1
  8
0
  6
CONTINUOUS
 62
     7
 10
273.1407094348
 20
216.3056864728
 30
0.0
 11
271.4658533502
 21
216.3056864728
 31
0.0
  0
LINE
  5
1E2
  8
0
  6
CONTINUOUS
 62
     7
 10
271.4658533502
 20
177.3056864728
 30
0.0
 11
271.4658533502
 21
216.3056864728
 31
0.0
  0
LINE
  5
1E3
  8
0
  6
CONTINUOUS
 62
     7
 10
284.4658533502
 20
171.8056864728
 30
0.0
 11
284.4658533502
 21
221.8056864728
 31
0.0
  0
LINE
  5
1E4
  8
0
  6
CONTINUOUS
 62
     7
 10
272.442330425
 20
217.157377107
 30
0.0
 11
271.4658533502
 21
217.157377107
 31
0.0
  0
LINE
  5
1E5
  8
0
  6
CONTINUOUS
 62
     7
 10
271.4658533502
 20
216.3056864728
 30
0.0
 11
271.4658533502
 21
217.157377107
 31
0.0
  0
POLYLINE
  5
1E6
  8
0
  6
CONTINUOUS
 62
     7
 66
     1
 10
0.0
 20
0.0
 30
0.0
 70
   128
  0
VERTEX
  5
433
  8
0
  6
CONTINUOUS
 62
     7
 10
272.3398526382
 20
174.8462454927
 30
0.0
  0
VERTEX
  5
434
  8
0
  6
CONTINUOUS
 62
     7
 10
272.382193401
 20
173.6843041971
 30
0.0
  0
VERTEX
  5
435
  8
0
  6
CONTINUOUS
 62
     7
 10
272.5040543293
 20
172.320604982
 30
0.0
  0
VERTEX
  5
436
  8
0
  6
CONTINUOUS
 62
     7
 10
272.6926602048
 20
170.8979676586
 30
0.0
  0
VERTEX
  5
437
  8
0
  6
CONTINUOUS
 62
     7
 10
272.9298625892
 20
169.5624422234
 30
0.0
  0
VERTEX
  5
438
  8
0
  6
CONTINUOUS
 62
     7
 10
273.1906800557
 20
168.4671756584
 30
0.0
  0
VERTEX
  5
439
  8
0
  6
CONTINUOUS
 62
     7
 10
273.4446984885
 20
167.7502289537
 30
0.0
  0
VERTEX
  5
43A
  8
0
  6
CONTINUOUS
 62
     7
 10
273.5588986978
 20
167.5662166577
 30
0.0
  0
VERTEX
  5
43B
  8
0
  6
CONTINUOUS
 62
     7
 10
273.6603187281
 20
167.5057313959
 30
0.0
  0
VERTEX
  5
43C
  8
0
  6
CONTINUOUS
 62
     7
 10
273.8110923275
 20
167.7601190878
 30
0.0
  0
VERTEX
  5
43D
  8
0
  6
CONTINUOUS
 62
     7
 10
273.8807665993
 20
168.4699124503
 30
0.0
  0
VERTEX
  5
43E
  8
0
  6
CONTINUOUS
 62
     7
 10
273.8642798427
 20
169.5412091843
 30
0.0
  0
VERTEX
  5
43F
  8
0
  6
CONTINUOUS
 62
     7
 10
273.7655529171
 20
170.8534259658
 30
0.0
  0
VERTEX
  5
440
  8
0
  6
CONTINUOUS
 62
     7
 10
273.5951899548
 20
172.2720648627
 30
0.0
  0
VERTEX
  5
441
  8
0
  6
CONTINUOUS
 62
     7
 10
273.3699081959
 20
173.6513028052
 30
0.0
  0
VERTEX
  5
442
  8
0
  6
CONTINUOUS
 62
     7
 10
273.1129964934
 20
174.8377047143
 30
0.0
  0
VERTEX
  5
443
  8
0
  6
CONTINUOUS
 62
     7
 10
272.8537057682
 20
175.6853539151
 30
0.0
  0
VERTEX
  5
444
  8
0
  6
CONTINUOUS
 62
     7
 10
272.733334163
 20
175.9445782266
 30
0.0
  0
VERTEX
  5
445
  8
0
  6
CONTINUOUS
 62
     7
 10
272.6238016229
 20
176.0832331699
 30
0.0
  0
VERTEX
  5
446
  8
0
  6
CONTINUOUS
 62
     7
 10
272.4515857231
 20
175.9826112734
 30
0.0
  0
VERTEX
  5
447
  8
0
  6
CONTINUOUS
 62
     7
 10
272.3563004568
 20
175.406548318
 30
0.0
  0
VERTEX
  5
448
  8
0
  6
CONTINUOUS
 62
     7
 10
272.3398526382
 20
174.8462454927
 30
0.0
  0
SEQEND
  5
4E5
  8
0
  6
CONTINUOUS
 62
     7
  0
LINE
  5
1E7
  8
0
  6
CONTINUOUS
 62
     7
 10
272.8252437393
 20
168.9533975184
 30
0.0
 11
272.8252437392
 21
166.8056864728
 31
0.0
  0
ARC
  5
1E8
  8
0
  6
CONTINUOUS
 62
     7
 10
459.6645966992
 20
191.0052843416
 30
0.0
 40
188.1361994059606
 50
185.5276837183
 51
186.7312467588
  0
ARC
  5
1E9
  8
0
  6
CONTINUOUS
 62
     7
 10
282.6430377208
 20
174.5565979485
 30
0.0
 40
10.37567097062154
 50
169.4630319338
 51
189.2837879364
  0
ARC
  5
1EA
  8
0
  6
CONTINUOUS
 62
     7
 10
279.8901073377
 20
171.0590604097
 30
0.0
 40
9.196450903768778
 50
137.2154734586
 51
144.0816094038
  0
POLYLINE
  5
1EB
  8
0
  6
CONTINUOUS
 62
     7
 66
     1
 10
0.0
 20
0.0
 30
0.0
 70
   128
  0
VERTEX
  5
449
  8
0
  6
CONTINUOUS
 62
     7
 10
273.7636037478
 20
166.8056864728
 30
0.0
  0
VERTEX
  5
44A
  8
0
  6
CONTINUOUS
 62
     7
 10
273.8606279605
 20
166.8757506182
 30
0.0
  0
VERTEX
  5
44B
  8
0
  6
CONTINUOUS
 62
     7
 10
273.9375505152
 20
167.0827213593
 30
0.0
  0
VERTEX
  5
44C
  8
0
  6
CONTINUOUS
 62
     7
 10
273.9917411319
 20
167.4238035063
 30
0.0
  0
VERTEX
  5
44D
  8
0
  6
CONTINUOUS
 62
     7
 10
274.021788518
 20
167.8879192955
 30
0.0
  0
VERTEX
  5
44E
  8
0
  6
CONTINUOUS
 62
     7
 10
274.0264447632
 20
168.4581405839
 30
0.0
  0
VERTEX
  5
44F
  8
0
  6
CONTINUOUS
 62
     7
 10
274.0063023205
 20
169.12033386
 30
0.0
  0
VERTEX
  5
450
  8
0
  6
CONTINUOUS
 62
     7
 10
273.9618669747
 20
169.8535170565
 30
0.0
  0
VERTEX
  5
451
  8
0
  6
CONTINUOUS
 62
     7
 10
273.8948096324
 20
170.6384293549
 30
0.0
  0
VERTEX
  5
452
  8
0
  6
CONTINUOUS
 62
     7
 10
273.7636037478
 20
171.8056864728
 30
0.0
  0
SEQEND
  5
4E6
  8
0
  6
CONTINUOUS
 62
     7
  0
LINE
  5
1EC
  8
0
  6
CONTINUOUS
 62
     7
 10
272.8252437392
 20
166.8056864728
 30
0.0
 11
273.7636037478
 21
166.8056864728
 31
0.0
  0
LINE
  5
1ED
  8
0
  6
CONTINUOUS
 62
     7
 10
272.4423304249
 20
176.4539958386
 30
0.0
 11
271.4658533502
 21
176.4539958386
 31
0.0
  0
LINE
  5
1EE
  8
0
  6
CONTINUOUS
 62
     7
 10
271.4658533502
 20
176.4539958386
 30
0.0
 11
271.4658533502
 21
177.3056864728
 31
0.0
  0
LINE
  5
1EF
  8
0
  6
CONTINUOUS
 62
     7
 10
284.4658533502
 20
166.8056864728
 30
0.0
 11
273.7636037478
 21
166.8056864728
 31
0.0
  0
LINE
  5
1F0
  8
0
  6
CONTINUOUS
 62
     7
 10
284.4658533502
 20
171.8056864728
 30
0.0
 11
284.4658533502
 21
166.8056864728
 31
0.0
  0
LINE
  5
1F1
  8
0
  6
CONTINUOUS
 62
     7
 10
272.4032734794
 20
172.8827471872
 30
0.0
 11
271.4658533502
 21
172.8827471872
 31
0.0
  0
LINE
  5
1F2
  8
0
  6
CONTINUOUS
 62
     7
 10
271.4658533502
 20
172.8827471872
 30
0.0
 11
271.4658533502
 21
176.4539958386
 31
0.0
  0
LINE
  5
1F3
  8
0
  6
CONTINUOUS
 62
     7
 10
272.4032734795
 20
220.7286257585
 30
0.0
 11
271.4658533502
 21
220.7286257585
 31
0.0
  0
LINE
  5
1F4
  8
0
  6
CONTINUOUS
 62
     7
 10
271.4658533502
 20
217.157377107
 30
0.0
 11
271.4658533502
 21
220.7286257585
 31
0.0
  0
LINE
  5
1F5
  8
0
  6
CONTINUOUS
 62
     7
 10
272.8252437393
 20
224.6579754272
 30
0.0
 11
271.4658533502
 21
224.6579754272
 31
0.0
  0
LINE
  5
1F6
  8
0
  6
CONTINUOUS
 62
     7
 10
271.4658533502
 20
220.7286257585
 30
0.0
 11
271.4658533502
 21
224.6579754272
 31
0.0
  0
LINE
  5
1F7
  8
0
  6
CONTINUOUS
 62
     7
 10
272.8252437393
 20
168.9533975184
 30
0.0
 11
271.4658533502
 21
168.9533975184
 31
0.0
  0
LINE
  5
1F8
  8
0
  6
CONTINUOUS
 62
     7
 10
271.4658533502
 20
168.9533975184
 30
0.0
 11
271.4658533502
 21
172.8827471872
 31
0.0
  0
LINE
  5
1F9
  8
0
  6
CONTINUOUS
 62
     7
 10
272.8252437393
 20
226.8056864728
 30
0.0
 11
271.4658533502
 21
226.8056864728
 31
0.0
  0
LINE
  5
1FA
  8
0
  6
CONTINUOUS
 62
     7
 10
271.4658533502
 20
224.6579754272
 30
0.0
 11
271.4658533502
 21
226.8056864728
 31
0.0
  0
LINE
  5
1FB
  8
0
  6
CONTINUOUS
 62
     7
 10
272.8252437392
 20
166.8056864728
 30
0.0
 11
271.4658533502
 21
166.8056864728
 31
0.0
  0
LINE
  5
1FC
  8
0
  6
CONTINUOUS
 62
     7
 10
271.4658533502
 20
166.8056864728
 30
0.0
 11
271.4658533502
 21
168.9533975184
 31
0.0
  0
LINE
  5
1FD
  8
0
  6
CONTINUOUS
 62
     7
 10
271.4658533502
 20
217.157377107
 30
0.0
 11
190.6658533502
 21
217.157377107
 31
0.0
  0
LINE
  5
1FE
  8
0
  6
CONTINUOUS
 62
     7
 10
271.4658533502
 20
216.3056864728
 30
0.0
 11
190.6658533502
 21
216.3056864728
 31
0.0
  0
LINE
  5
1FF
  8
0
  6
CONTINUOUS
 62
     7
 10
190.6658533502
 20
216.3056864728
 30
0.0
 11
190.6658533502
 21
217.157377107
 31
0.0
  0
LINE
  5
200
  8
0
  6
CONTINUOUS
 62
     7
 10
271.4658533502
 20
177.3056864728
 30
0.0
 11
190.6658533502
 21
177.3056864728
 31
0.0
  0
LINE
  5
201
  8
0
  6
CONTINUOUS
 62
     7
 10
190.6658533502
 20
177.3056864728
 30
0.0
 11
190.6658533502
 21
216.3056864728
 31
0.0
  0
LINE
  5
202
  8
0
  6
CONTINUOUS
 62
     7
 10
271.4658533502
 20
176.4539958386
 30
0.0
 11
190.6658533502
 21
176.4539958386
 31
0.0
  0
LINE
  5
203
  8
0
  6
CONTINUOUS
 62
     7
 10
190.6658533502
 20
176.4539958386
 30
0.0
 11
190.6658533502
 21
177.3056864728
 31
0.0
  0
LINE
  5
204
  8
0
  6
CONTINUOUS
 62
     7
 10
271.4658533502
 20
220.7286257585
 30
0.0
 11
190.6658533502
 21
220.7286257585
 31
0.0
  0
LINE
  5
205
  8
0
  6
CONTINUOUS
 62
     7
 10
190.6658533502
 20
217.157377107
 30
0.0
 11
190.6658533502
 21
220.7286257585
 31
0.0
  0
LINE
  5
206
  8
0
  6
CONTINUOUS
 62
     7
 10
271.4658533502
 20
172.8827471872
 30
0.0
 11
190.6658533502
 21
172.8827471872
 31
0.0
  0
LINE
  5
207
  8
0
  6
CONTINUOUS
 62
     7
 10
190.6658533502
 20
172.8827471872
 30
0.0
 11
190.6658533502
 21
176.4539958386
 31
0.0
  0
LINE
  5
208
  8
0
  6
CONTINUOUS
 62
     7
 10
271.4658533502
 20
224.6579754272
 30
0.0
 11
190.6658533502
 21
224.6579754272
 31
0.0
  0
LINE
  5
209
  8
0
  6
CONTINUOUS
 62
     7
 10
190.6658533502
 20
220.7286257585
 30
0.0
 11
190.6658533502
 21
224.6579754272
 31
0.0
  0
LINE
  5
20A
  8
0
  6
CONTINUOUS
 62
     7
 10
271.4658533502
 20
168.9533975184
 30
0.0
 11
190.6658533502
 21
168.9533975184
 31
0.0
  0
LINE
  5
20B
  8
0
  6
CONTINUOUS
 62
     7
 10
190.6658533502
 20
168.9533975184
 30
0.0
 11
190.6658533502
 21
172.8827471872
 31
0.0
  0
LINE
  5
20C
  8
0
  6
CONTINUOUS
 62
     7
 10
271.4658533502
 20
226.8056864728
 30
0.0
 11
190.6658533502
 21
226.8056864728
 31
0.0
  0
LINE
  5
20D
  8
0
  6
CONTINUOUS
 62
     7
 10
190.6658533502
 20
224.6579754272
 30
0.0
 11
190.6658533502
 21
226.8056864728
 31
0.0
  0
LINE
  5
20E
  8
0
  6
CONTINUOUS
 62
     7
 10
271.4658533502
 20
166.8056864728
 30
0.0
 11
190.6658533502
 21
166.8056864728
 31
0.0
  0
LINE
  5
20F
  8
0
  6
CONTINUOUS
 62
     7
 10
190.6658533502
 20
166.8056864728
 30
0.0
 11
190.6658533502
 21
168.9533975184
 31
0.0
  0
ARC
  5
210
  8
0
  6
CONTINUOUS
 62
     7
 10
171.3732528107
 20
171.0590604096
 30
0.0
 40
9.196450903832993
 50
137.2154734587
 51
144.0816094039
  0
ARC
  5
211
  8
0
  6
CONTINUOUS
 62
     7
 10
172.4177154392
 20
174.5752825987
 30
0.0
 40
8.697568388131
 50
167.5255387518
 51
191.2212811184
  0
ARC
  5
212
  8
0
  6
CONTINUOUS
 62
     7
 10
351.1477429219
 20
191.0052844189
 30
0.0
 40
188.1362001597764
 50
185.5276837197
 51
186.7312467553
  0
LINE
  5
213
  8
0
  6
CONTINUOUS
 62
     7
 10
164.3083892122
 20
166.8056864728
 30
0.0
 11
164.3083892122
 21
168.9533975184
 31
0.0
  0
LINE
  5
214
  8
0
  6
CONTINUOUS
 62
     7
 10
163.6600023472
 20
166.8056864728
 30
0.0
 11
164.3083892122
 21
166.8056864728
 31
0.0
  0
LINE
  5
215
  8
0
  6
CONTINUOUS
 62
     7
 10
164.3083892122
 20
226.8056864728
 30
0.0
 11
163.6600023472
 21
226.8056864728
 31
0.0
  0
LINE
  5
216
  8
0
  6
CONTINUOUS
 62
     7
 10
164.3083892122
 20
224.6579754272
 30
0.0
 11
164.3083892122
 21
226.8056864728
 31
0.0
  0
ARC
  5
217
  8
0
  6
CONTINUOUS
 62
     7
 10
351.1477429223
 20
202.6060885267
 30
0.0
 40
188.1362001601817
 50
173.2687532447
 51
174.4723162803
  0
ARC
  5
218
  8
0
  6
CONTINUOUS
 62
     7
 10
174.1261831938
 20
219.0547749972
 30
0.0
 40
10.37567097063076
 50
170.7162120636
 51
190.5369680661
  0
ARC
  5
219
  8
0
  6
CONTINUOUS
 62
     7
 10
171.3732528107
 20
222.552312536
 30
0.0
 40
9.196450903819633
 50
215.9183905961
 51
222.7845265413
  0
ARC
  5
21A
  8
0
  6
CONTINUOUS
 62
     7
 10
361.39720168
 20
196.8056864728
 30
0.0
 40
197.7371993328519
 50
174.3405358619
 51
185.6594641381
  0
LINE
  5
21B
  8
0
  6
CONTINUOUS
 62
     7
 10
162.9658533502
 20
221.8056864728
 30
0.0
 11
162.9658533502
 21
171.8056864728
 31
0.0
  0
LINE
  5
21C
  8
0
  6
CONTINUOUS
 62
     7
 10
163.9254758978
 20
217.157377107
 30
0.0
 11
176.8658533502
 21
217.157377107
 31
0.0
  0
LINE
  5
21D
  8
0
  6
CONTINUOUS
 62
     7
 10
164.6238549077
 20
216.3056864728
 30
0.0
 11
176.8658533502
 21
216.3056864728
 31
0.0
  0
LINE
  5
21E
  8
0
  6
CONTINUOUS
 62
     7
 10
176.8658533502
 20
216.3056864728
 30
0.0
 11
176.8658533502
 21
217.157377107
 31
0.0
  0
LINE
  5
21F
  8
0
  6
CONTINUOUS
 62
     7
 10
164.6238549077
 20
177.3056864728
 30
0.0
 11
176.8658533502
 21
177.3056864728
 31
0.0
  0
LINE
  5
220
  8
0
  6
CONTINUOUS
 62
     7
 10
176.8658533502
 20
177.3056864728
 30
0.0
 11
176.8658533502
 21
216.3056864728
 31
0.0
  0
LINE
  5
221
  8
0
  6
CONTINUOUS
 62
     7
 10
163.9254758978
 20
176.4539958386
 30
0.0
 11
176.8658533502
 21
176.4539958386
 31
0.0
  0
LINE
  5
222
  8
0
  6
CONTINUOUS
 62
     7
 10
176.8658533502
 20
176.4539958386
 30
0.0
 11
176.8658533502
 21
177.3056864728
 31
0.0
  0
LINE
  5
223
  8
0
  6
CONTINUOUS
 62
     7
 10
163.8864189523
 20
220.7286257585
 30
0.0
 11
176.8658533502
 21
220.7286257585
 31
0.0
  0
LINE
  5
224
  8
0
  6
CONTINUOUS
 62
     7
 10
176.8658533502
 20
217.157377107
 30
0.0
 11
176.8658533502
 21
220.7286257585
 31
0.0
  0
LINE
  5
225
  8
0
  6
CONTINUOUS
 62
     7
 10
163.8864189523
 20
172.8827471872
 30
0.0
 11
176.8658533502
 21
172.8827471872
 31
0.0
  0
LINE
  5
226
  8
0
  6
CONTINUOUS
 62
     7
 10
176.8658533502
 20
172.8827471872
 30
0.0
 11
176.8658533502
 21
176.4539958386
 31
0.0
  0
LINE
  5
227
  8
0
  6
CONTINUOUS
 62
     7
 10
164.3083892122
 20
224.6579754272
 30
0.0
 11
176.8658533502
 21
224.6579754272
 31
0.0
  0
LINE
  5
228
  8
0
  6
CONTINUOUS
 62
     7
 10
176.8658533502
 20
220.7286257585
 30
0.0
 11
176.8658533502
 21
224.6579754272
 31
0.0
  0
LINE
  5
229
  8
0
  6
CONTINUOUS
 62
     7
 10
164.3083892122
 20
168.9533975184
 30
0.0
 11
176.8658533502
 21
168.9533975184
 31
0.0
  0
LINE
  5
22A
  8
0
  6
CONTINUOUS
 62
     7
 10
176.8658533502
 20
168.9533975184
 30
0.0
 11
176.8658533502
 21
172.8827471872
 31
0.0
  0
LINE
  5
22B
  8
0
  6
CONTINUOUS
 62
     7
 10
164.3083892122
 20
226.8056864728
 30
0.0
 11
176.8658533502
 21
226.8056864728
 31
0.0
  0
LINE
  5
22C
  8
0
  6
CONTINUOUS
 62
     7
 10
176.8658533502
 20
224.6579754272
 30
0.0
 11
176.8658533502
 21
226.8056864728
 31
0.0
  0
LINE
  5
22D
  8
0
  6
CONTINUOUS
 62
     7
 10
164.3083892122
 20
166.8056864728
 30
0.0
 11
176.8658533502
 21
166.8056864728
 31
0.0
  0
LINE
  5
22E
  8
0
  6
CONTINUOUS
 62
     7
 10
176.8658533502
 20
166.8056864728
 30
0.0
 11
176.8658533502
 21
168.9533975184
 31
0.0
  0
LINE
  5
22F
  8
0
  6
CONTINUOUS
 62
     7
 10
190.6658533502
 20
217.157377107
 30
0.0
 11
187.6658533502
 21
217.157377107
 31
0.0
  0
LINE
  5
230
  8
0
  6
CONTINUOUS
 62
     7
 10
190.6658533502
 20
216.3056864728
 30
0.0
 11
187.6658533502
 21
216.3056864728
 31
0.0
  0
LINE
  5
231
  8
0
  6
CONTINUOUS
 62
     7
 10
187.6658533502
 20
217.157377107
 30
0.0
 11
187.6658533502
 21
216.3056864728
 31
0.0
  0
LINE
  5
232
  8
0
  6
CONTINUOUS
 62
     7
 10
190.6658533502
 20
177.3056864728
 30
0.0
 11
187.6658533502
 21
177.3056864728
 31
0.0
  0
LINE
  5
233
  8
0
  6
CONTINUOUS
 62
     7
 10
187.6658533502
 20
216.3056864728
 30
0.0
 11
187.6658533502
 21
177.3056864728
 31
0.0
  0
LINE
  5
234
  8
0
  6
CONTINUOUS
 62
     7
 10
190.6658533502
 20
176.4539958386
 30
0.0
 11
187.6658533502
 21
176.4539958386
 31
0.0
  0
LINE
  5
235
  8
0
  6
CONTINUOUS
 62
     7
 10
187.6658533502
 20
177.3056864728
 30
0.0
 11
187.6658533502
 21
176.4539958386
 31
0.0
  0
LINE
  5
236
  8
0
  6
CONTINUOUS
 62
     7
 10
190.6658533502
 20
220.7286257585
 30
0.0
 11
187.6658533502
 21
220.7286257585
 31
0.0
  0
LINE
  5
237
  8
0
  6
CONTINUOUS
 62
     7
 10
187.6658533502
 20
220.7286257585
 30
0.0
 11
187.6658533502
 21
217.157377107
 31
0.0
  0
LINE
  5
238
  8
0
  6
CONTINUOUS
 62
     7
 10
190.6658533502
 20
172.8827471872
 30
0.0
 11
187.6658533502
 21
172.8827471872
 31
0.0
  0
LINE
  5
239
  8
0
  6
CONTINUOUS
 62
     7
 10
187.6658533502
 20
176.4539958386
 30
0.0
 11
187.6658533502
 21
172.8827471872
 31
0.0
  0
LINE
  5
23A
  8
0
  6
CONTINUOUS
 62
     7
 10
190.6658533502
 20
224.6579754272
 30
0.0
 11
187.6658533502
 21
224.6579754272
 31
0.0
  0
LINE
  5
23B
  8
0
  6
CONTINUOUS
 62
     7
 10
187.6658533502
 20
224.6579754272
 30
0.0
 11
187.6658533502
 21
220.7286257585
 31
0.0
  0
LINE
  5
23C
  8
0
  6
CONTINUOUS
 62
     7
 10
190.6658533502
 20
168.9533975184
 30
0.0
 11
187.6658533502
 21
168.9533975184
 31
0.0
  0
LINE
  5
23D
  8
0
  6
CONTINUOUS
 62
     7
 10
187.6658533502
 20
172.8827471872
 30
0.0
 11
187.6658533502
 21
168.9533975184
 31
0.0
  0
LINE
  5
23E
  8
0
  6
CONTINUOUS
 62
     7
 10
190.6658533502
 20
226.8056864728
 30
0.0
 11
187.6658533502
 21
226.8056864728
 31
0.0
  0
LINE
  5
23F
  8
0
  6
CONTINUOUS
 62
     7
 10
187.6658533502
 20
226.8056864728
 30
0.0
 11
187.6658533502
 21
224.6579754272
 31
0.0
  0
LINE
  5
240
  8
0
  6
CONTINUOUS
 62
     7
 10
190.6658533502
 20
166.8056864728
 30
0.0
 11
187.6658533502
 21
166.8056864728
 31
0.0
  0
LINE
  5
241
  8
0
  6
CONTINUOUS
 62
     7
 10
187.6658533502
 20
168.9533975184
 30
0.0
 11
187.6658533502
 21
166.8056864728
 31
0.0
  0
LINE
  5
242
  8
0
  6
CONTINUOUS
 62
     7
 10
187.6658533502
 20
216.3056864728
 30
0.0
 11
176.8658533502
 21
216.3056864728
 31
0.0
  0
LINE
  5
243
  8
0
  6
CONTINUOUS
 62
     7
 10
187.6658533502
 20
177.3056864728
 30
0.0
 11
176.8658533502
 21
177.3056864728
 31
0.0
  0
LINE
  5
244
  8
0
  6
CONTINUOUS
 62
     7
 10
187.6658533502
 20
217.157377107
 30
0.0
 11
176.8658533502
 21
217.157377107
 31
0.0
  0
LINE
  5
245
  8
0
  6
CONTINUOUS
 62
     7
 10
187.6658533502
 20
176.4539958386
 30
0.0
 11
176.8658533502
 21
176.4539958386
 31
0.0
  0
LINE
  5
246
  8
0
  6
CONTINUOUS
 62
     7
 10
187.6658533502
 20
220.7286257585
 30
0.0
 11
176.8658533502
 21
220.7286257585
 31
0.0
  0
LINE
  5
247
  8
0
  6
CONTINUOUS
 62
     7
 10
187.6658533502
 20
172.8827471872
 30
0.0
 11
176.8658533502
 21
172.8827471872
 31
0.0
  0
LINE
  5
248
  8
0
  6
CONTINUOUS
 62
     7
 10
187.6658533502
 20
224.6579754272
 30
0.0
 11
176.8658533502
 21
224.6579754272
 31
0.0
  0
LINE
  5
249
  8
0
  6
CONTINUOUS
 62
     7
 10
187.6658533502
 20
168.9533975184
 30
0.0
 11
176.8658533502
 21
168.9533975184
 31
0.0
  0
LINE
  5
24A
  8
0
  6
CONTINUOUS
 62
     7
 10
187.6658533502
 20
226.8056864728
 30
0.0
 11
176.8658533502
 21
226.8056864728
 31
0.0
  0
LINE
  5
24B
  8
0
  6
CONTINUOUS
 62
     7
 10
187.6658533502
 20
166.8056864728
 30
0.0
 11
176.8658533502
 21
166.8056864728
 31
0.0
  0
LINE
  5
24C
  8
0
  6
CONTINUOUS
 62
     7
 10
287.4658533502
 20
310.4460428217
 30
0.0
 11
284.4658533502
 21
310.4460428217
 31
0.0
  0
LINE
  5
24D
  8
0
  6
CONTINUOUS
 62
     7
 10
284.4658533502
 20
274.4460428217
 30
0.0
 11
287.4658533502
 21
274.4460428217
 31
0.0
  0
LINE
  5
24E
  8
0
  6
CONTINUOUS
 62
     7
 10
308.4658533502
 20
299.4460428217
 30
0.0
 11
287.4658533502
 21
299.4460428217
 31
0.0
  0
LINE
  5
24F
  8
0
  6
CONTINUOUS
 62
     7
 10
287.4658533502
 20
285.4460428217
 30
0.0
 11
308.4658533502
 21
285.4460428217
 31
0.0
  0
LINE
  5
250
  8
0
  6
CONTINUOUS
 62
     7
 10
192.4158533502
 20
333.4460428217
 30
0.0
 11
188.6658533502
 21
333.4460428217
 31
0.0
  0
LINE
  5
251
  8
0
  6
CONTINUOUS
 62
     7
 10
204.8658533502
 20
333.4460428217
 30
0.0
 11
202.899572442
 21
333.4460428217
 31
0.0
  0
LINE
  5
252
  8
0
  6
CONTINUOUS
 62
     7
 10
217.1786811754
 20
327.439785346
 30
0.0
 11
204.891133439
 21
333.4337110711
 31
0.0
  0
LINE
  5
253
  8
0
  6
CONTINUOUS
 62
     7
 10
202.9158533502
 20
333.4446223465
 30
0.0
 11
202.9158533502
 21
335.4460428217
 31
0.0
  0
LINE
  5
254
  8
0
  6
CONTINUOUS
 62
     7
 10
192.4158533502
 20
335.4460428217
 30
0.0
 11
192.4158533502
 21
333.4460428217
 31
0.0
  0
LINE
  5
255
  8
0
  6
CONTINUOUS
 62
     7
 10
201.4158533502
 20
335.4460428217
 30
0.0
 11
201.4158533502
 21
337.4460428217
 31
0.0
  0
LINE
  5
256
  8
0
  6
CONTINUOUS
 62
     7
 10
193.9158533502
 20
337.4460428217
 30
0.0
 11
193.9158533502
 21
335.4460428217
 31
0.0
  0
LINE
  5
257
  8
0
  6
CONTINUOUS
 62
     7
 10
194.4158533502
 20
372.4460428217
 30
0.0
 11
194.4158533502
 21
337.4460428217
 31
0.0
  0
LINE
  5
258
  8
0
  6
CONTINUOUS
 62
     7
 10
200.9158533502
 20
337.4460428217
 30
0.0
 11
200.9158533502
 21
372.4460428217
 31
0.0
  0
ARC
  5
259
  8
0
  6
CONTINUOUS
 62
     7
 10
361.39720168
 20
292.4460428217
 30
0.0
 40
200.0
 50
187.1807557815
 51
188.6269265587
  0
ARC
  5
25A
  8
0
  6
CONTINUOUS
 62
     7
 10
361.39720168
 20
292.4460428217
 30
0.0
 40
200.0
 50
171.3730734413
 51
172.8192442185
  0
LINE
  5
25B
  8
0
  6
CONTINUOUS
 62
     7
 10
165.3658533502
 20
333.4460428217
 30
0.0
 11
164.3658533502
 21
333.4460428217
 31
0.0
  0
LINE
  5
25C
  8
0
  6
CONTINUOUS
 62
     7
 10
176.3658533502
 20
333.4460428217
 30
0.0
 11
175.350294368
 21
333.4460428217
 31
0.0
  0
LINE
  5
25D
  8
0
  6
CONTINUOUS
 62
     7
 10
175.3658533502
 20
333.4447499368
 30
0.0
 11
175.3658533502
 21
335.4460428217
 31
0.0
  0
LINE
  5
25E
  8
0
  6
CONTINUOUS
 62
     7
 10
165.3658533502
 20
335.4460428217
 30
0.0
 11
165.3658533502
 21
333.4460428217
 31
0.0
  0
LINE
  5
25F
  8
0
  6
CONTINUOUS
 62
     7
 10
173.3658533502
 20
335.4460428217
 30
0.0
 11
173.3658533502
 21
372.4460428217
 31
0.0
  0
LINE
  5
260
  8
0
  6
CONTINUOUS
 62
     7
 10
167.3658533502
 20
372.4460428217
 30
0.0
 11
167.3658533502
 21
335.4460428217
 31
0.0
  0
LINE
  5
261
  8
0
  6
CONTINUOUS
 62
     7
 10
287.4658533502
 20
292.4460428217
 30
0.0
 11
287.4658533502
 21
274.4460428217
 31
0.0
  0
LINE
  5
262
  8
0
  6
CONTINUOUS
 62
     7
 10
287.4658533502
 20
310.4460428217
 30
0.0
 11
287.4658533502
 21
292.4460428217
 31
0.0
  0
LINE
  5
263
  8
0
  6
CONTINUOUS
 62
     7
 10
308.4658533502
 20
292.4460428217
 30
0.0
 11
308.4658533502
 21
285.4460428217
 31
0.0
  0
LINE
  5
264
  8
0
  6
CONTINUOUS
 62
     7
 10
308.4658533502
 20
299.4460428217
 30
0.0
 11
308.4658533502
 21
292.4460428217
 31
0.0
  0
LINE
  5
265
  8
0
  6
CONTINUOUS
 62
     7
 10
273.7636037479
 20
322.4460428217
 30
0.0
 11
284.4658533502
 21
322.4460428217
 31
0.0
  0
LINE
  5
266
  8
0
  6
CONTINUOUS
 62
     7
 10
284.4658533502
 20
317.4460428217
 30
0.0
 11
273.7636037479
 21
317.4460428217
 31
0.0
  0
POLYLINE
  5
267
  8
0
  6
CONTINUOUS
 62
     7
 66
     1
 10
0.0
 20
0.0
 30
0.0
 70
   128
  0
VERTEX
  5
453
  8
0
  6
CONTINUOUS
 62
     7
 10
273.7636037479
 20
317.4460428217
 30
0.0
  0
VERTEX
  5
454
  8
0
  6
CONTINUOUS
 62
     7
 10
273.8594549524
 20
318.2655209265
 30
0.0
  0
VERTEX
  5
455
  8
0
  6
CONTINUOUS
 62
     7
 10
273.9375505154
 20
319.0872620442
 30
0.0
  0
VERTEX
  5
456
  8
0
  6
CONTINUOUS
 62
     7
 10
273.9912110947
 20
319.8425860023
 30
0.0
  0
VERTEX
  5
457
  8
0
  6
CONTINUOUS
 62
     7
 10
274.0217885182
 20
320.5526648368
 30
0.0
  0
VERTEX
  5
458
  8
0
  6
CONTINUOUS
 62
     7
 10
274.026647066
 20
321.1516824581
 30
0.0
  0
VERTEX
  5
459
  8
0
  6
CONTINUOUS
 62
     7
 10
274.0063023207
 20
321.6637295508
 30
0.0
  0
VERTEX
  5
45A
  8
0
  6
CONTINUOUS
 62
     7
 10
273.9627384512
 20
322.0445337424
 30
0.0
  0
VERTEX
  5
45B
  8
0
  6
CONTINUOUS
 62
     7
 10
273.8948096326
 20
322.3078851496
 30
0.0
  0
VERTEX
  5
45C
  8
0
  6
CONTINUOUS
 62
     7
 10
273.7636037479
 20
322.4460428217
 30
0.0
  0
SEQEND
  5
4E7
  8
0
  6
CONTINUOUS
 62
     7
  0
LINE
  5
268
  8
0
  6
CONTINUOUS
 62
     7
 10
284.4658533502
 20
322.4460428217
 30
0.0
 11
284.4658533502
 21
317.4460428217
 31
0.0
  0
POLYLINE
  5
269
  8
0
  6
CONTINUOUS
 62
     7
 66
     1
 10
0.0
 20
0.0
 30
0.0
 70
   128
  0
VERTEX
  5
45D
  8
0
  6
CONTINUOUS
 62
     7
 10
273.8848387827
 20
320.4866019808
 30
0.0
  0
VERTEX
  5
45E
  8
0
  6
CONTINUOUS
 62
     7
 10
273.8421874144
 20
321.3138587262
 30
0.0
  0
VERTEX
  5
45F
  8
0
  6
CONTINUOUS
 62
     7
 10
273.7195412925
 20
321.7150367026
 30
0.0
  0
VERTEX
  5
460
  8
0
  6
CONTINUOUS
 62
     7
 10
273.5299952421
 20
321.6492900295
 30
0.0
  0
VERTEX
  5
461
  8
0
  6
CONTINUOUS
 62
     7
 10
273.2920589887
 20
321.1148236678
 30
0.0
  0
VERTEX
  5
462
  8
0
  6
CONTINUOUS
 62
     7
 10
273.0310553016
 20
320.1562783216
 30
0.0
  0
VERTEX
  5
463
  8
0
  6
CONTINUOUS
 62
     7
 10
272.7775384568
 20
318.8755424617
 30
0.0
  0
VERTEX
  5
464
  8
0
  6
CONTINUOUS
 62
     7
 10
272.6637983888
 20
318.1624035056
 30
0.0
  0
VERTEX
  5
465
  8
0
  6
CONTINUOUS
 62
     7
 10
272.5628942676
 20
317.4265763797
 30
0.0
  0
VERTEX
  5
466
  8
0
  6
CONTINUOUS
 62
     7
 10
272.4130828387
 20
315.9892677699
 30
0.0
  0
VERTEX
  5
467
  8
0
  6
CONTINUOUS
 62
     7
 10
272.3439024182
 20
314.7330256641
 30
0.0
  0
VERTEX
  5
468
  8
0
  6
CONTINUOUS
 62
     7
 10
272.3602415504
 20
313.7907628448
 30
0.0
  0
VERTEX
  5
469
  8
0
  6
CONTINUOUS
 62
     7
 10
272.458287485
 20
313.2527863581
 30
0.0
  0
VERTEX
  5
46A
  8
0
  6
CONTINUOUS
 62
     7
 10
272.6277080278
 20
313.1714478904
 30
0.0
  0
VERTEX
  5
46B
  8
0
  6
CONTINUOUS
 62
     7
 10
272.8521409141
 20
313.5623939845
 30
0.0
  0
VERTEX
  5
46C
  8
0
  6
CONTINUOUS
 62
     7
 10
273.1086631635
 20
314.396968309
 30
0.0
  0
VERTEX
  5
46D
  8
0
  6
CONTINUOUS
 62
     7
 10
273.3682493572
 20
315.5915944481
 30
0.0
  0
VERTEX
  5
46E
  8
0
  6
CONTINUOUS
 62
     7
 10
273.4890167151
 20
316.2814843948
 30
0.0
  0
VERTEX
  5
46F
  8
0
  6
CONTINUOUS
 62
     7
 10
273.5990363114
 20
317.0069769648
 30
0.0
  0
VERTEX
  5
470
  8
0
  6
CONTINUOUS
 62
     7
 10
273.7722917545
 20
318.4674891624
 30
0.0
  0
VERTEX
  5
471
  8
0
  6
CONTINUOUS
 62
     7
 10
273.8682696958
 20
319.7964755733
 30
0.0
  0
VERTEX
  5
472
  8
0
  6
CONTINUOUS
 62
     7
 10
273.8848387827
 20
320.4866019808
 30
0.0
  0
SEQEND
  5
4E8
  8
0
  6
CONTINUOUS
 62
     7
  0
LINE
  5
26A
  8
0
  6
CONTINUOUS
 62
     7
 10
272.8252437393
 20
311.9460428217
 30
0.0
 11
272.8252437394
 21
308.4460428217
 31
0.0
  0
ARC
  5
26B
  8
0
  6
CONTINUOUS
 62
     7
 10
284.9920700697
 20
318.0546837677
 30
0.0
 40
13.61422627843945
 50
202.3799170502
 51
206.660014064
  0
ARC
  5
26C
  8
0
  6
CONTINUOUS
 62
     7
 10
283.8218137699
 20
314.6962587322
 30
0.0
 40
11.56348573258222
 50
169.7651248276
 51
189.0813459792
  0
ARC
  5
26D
  8
0
  6
CONTINUOUS
 62
     7
 10
465.6643077303
 20
295.9470261
 30
0.0
 40
194.3387089280385
 50
172.163031019
 51
173.854735696
  0
LINE
  5
26E
  8
0
  6
CONTINUOUS
 62
     7
 10
273.7636037479
 20
322.4460428217
 30
0.0
 11
273.1407094349
 21
322.4460428217
 31
0.0
  0
ARC
  5
26F
  8
0
  6
CONTINUOUS
 62
     7
 10
469.9140562046
 20
292.4460428215
 30
0.0
 40
197.7371993302386
 50
172.7366309363
 51
175.3588106325
  0
LINE
  5
270
  8
0
  6
CONTINUOUS
 62
     7
 10
272.8252437393
 20
276.4460428219
 30
0.0
 11
271.4658533502
 21
276.4460428217
 31
0.0
  0
LINE
  5
271
  8
0
  6
CONTINUOUS
 62
     7
 10
272.8252437394
 20
308.4460428217
 30
0.0
 11
271.4658533502
 21
308.4460428217
 31
0.0
  0
LINE
  5
272
  8
0
  6
CONTINUOUS
 62
     7
 10
273.7636037479
 20
267.4460428217
 30
0.0
 11
284.4658533502
 21
267.4460428217
 31
0.0
  0
ARC
  5
273
  8
0
  6
CONTINUOUS
 62
     7
 10
469.9140562046
 20
292.4460428215
 30
0.0
 40
197.7371993302488
 50
184.6411893673
 51
187.2633690635
  0
LINE
  5
274
  8
0
  6
CONTINUOUS
 62
     7
 10
271.4658533502
 20
276.4460428217
 30
0.0
 11
271.4658533502
 21
308.4460428217
 31
0.0
  0
LINE
  5
275
  8
0
  6
CONTINUOUS
 62
     7
 10
284.4658533502
 20
267.4460428217
 30
0.0
 11
284.4658533502
 21
317.4460428217
 31
0.0
  0
LINE
  5
276
  8
0
  6
CONTINUOUS
 62
     7
 10
272.8252437393
 20
311.9460428217
 30
0.0
 11
271.4658533502
 21
311.9460428217
 31
0.0
  0
LINE
  5
277
  8
0
  6
CONTINUOUS
 62
     7
 10
271.4658533502
 20
308.4460428217
 30
0.0
 11
271.4658533502
 21
311.9460428217
 31
0.0
  0
POLYLINE
  5
278
  8
0
  6
CONTINUOUS
 62
     7
 66
     1
 10
0.0
 20
0.0
 30
0.0
 70
   128
  0
VERTEX
  5
473
  8
0
  6
CONTINUOUS
 62
     7
 10
273.1149479025
 20
270.4703490674
 30
0.0
  0
VERTEX
  5
474
  8
0
  6
CONTINUOUS
 62
     7
 10
272.8560647734
 20
271.3196802095
 30
0.0
  0
VERTEX
  5
475
  8
0
  6
CONTINUOUS
 62
     7
 10
272.6261763127
 20
271.7218149358
 30
0.0
  0
VERTEX
  5
476
  8
0
  6
CONTINUOUS
 62
     7
 10
272.4531647359
 20
271.6269591999
 30
0.0
  0
VERTEX
  5
477
  8
0
  6
CONTINUOUS
 62
     7
 10
272.3569220155
 20
271.0560235399
 30
0.0
  0
VERTEX
  5
478
  8
0
  6
CONTINUOUS
 62
     7
 10
272.3457055407
 20
270.0891686123
 30
0.0
  0
VERTEX
  5
479
  8
0
  6
CONTINUOUS
 62
     7
 10
272.4182154649
 20
268.8403027297
 30
0.0
  0
VERTEX
  5
47A
  8
0
  6
CONTINUOUS
 62
     7
 10
272.5660830165
 20
267.44029711
 30
0.0
  0
VERTEX
  5
47B
  8
0
  6
CONTINUOUS
 62
     7
 10
272.7749355601
 20
266.031742668
 30
0.0
  0
VERTEX
  5
47C
  8
0
  6
CONTINUOUS
 62
     7
 10
273.0240112465
 20
264.7665540403
 30
0.0
  0
VERTEX
  5
47D
  8
0
  6
CONTINUOUS
 62
     7
 10
273.2860563908
 20
263.7952726198
 30
0.0
  0
VERTEX
  5
47E
  8
0
  6
CONTINUOUS
 62
     7
 10
273.5295685419
 20
263.2433913258
 30
0.0
  0
VERTEX
  5
47F
  8
0
  6
CONTINUOUS
 62
     7
 10
273.6343043555
 20
263.1502869488
 30
0.0
  0
VERTEX
  5
480
  8
0
  6
CONTINUOUS
 62
     7
 10
273.7240795884
 20
263.1821642378
 30
0.0
  0
VERTEX
  5
481
  8
0
  6
CONTINUOUS
 62
     7
 10
273.8464690402
 20
263.6113408607
 30
0.0
  0
VERTEX
  5
482
  8
0
  6
CONTINUOUS
 62
     7
 10
273.8846878642
 20
264.4660568469
 30
0.0
  0
VERTEX
  5
483
  8
0
  6
CONTINUOUS
 62
     7
 10
273.8372874483
 20
265.6403007825
 30
0.0
  0
VERTEX
  5
484
  8
0
  6
CONTINUOUS
 62
     7
 10
273.710819573
 20
267.0076369516
 30
0.0
  0
VERTEX
  5
485
  8
0
  6
CONTINUOUS
 62
     7
 10
273.518098764
 20
268.429346646
 30
0.0
  0
VERTEX
  5
486
  8
0
  6
CONTINUOUS
 62
     7
 10
273.2781984806
 20
269.7559459617
 30
0.0
  0
VERTEX
  5
487
  8
0
  6
CONTINUOUS
 62
     7
 10
273.1149479025
 20
270.4703490674
 30
0.0
  0
SEQEND
  5
4E9
  8
0
  6
CONTINUOUS
 62
     7
  0
ARC
  5
279
  8
0
  6
CONTINUOUS
 62
     7
 10
465.6643077305
 20
288.945059543
 30
0.0
 40
194.3387089283129
 50
186.1452643039
 51
187.8369689809
  0
ARC
  5
27A
  8
0
  6
CONTINUOUS
 62
     7
 10
285.6870781274
 20
270.2146041195
 30
0.0
 40
13.40605894081658
 50
172.2562785967
 51
188.8972505962
  0
ARC
  5
27B
  8
0
  6
CONTINUOUS
 62
     7
 10
284.9920700207
 20
266.8374018971
 30
0.0
 40
13.614226225093
 50
153.3399859239
 51
157.6200829546
  0
LINE
  5
27C
  8
0
  6
CONTINUOUS
 62
     7
 10
272.8252437393
 20
276.4460428219
 30
0.0
 11
272.8252437393
 21
272.9460428217
 31
0.0
  0
POLYLINE
  5
27D
  8
0
  6
CONTINUOUS
 62
     7
 66
     1
 10
0.0
 20
0.0
 30
0.0
 70
   128
  0
VERTEX
  5
488
  8
0
  6
CONTINUOUS
 62
     7
 10
273.7636037479
 20
262.4460428217
 30
0.0
  0
VERTEX
  5
489
  8
0
  6
CONTINUOUS
 62
     7
 10
273.8606279605
 20
262.5161069671
 30
0.0
  0
VERTEX
  5
48A
  8
0
  6
CONTINUOUS
 62
     7
 10
273.9375505153
 20
262.7230777082
 30
0.0
  0
VERTEX
  5
48B
  8
0
  6
CONTINUOUS
 62
     7
 10
273.991741132
 20
263.0641598552
 30
0.0
  0
VERTEX
  5
48C
  8
0
  6
CONTINUOUS
 62
     7
 10
274.0217885181
 20
263.5282756445
 30
0.0
  0
VERTEX
  5
48D
  8
0
  6
CONTINUOUS
 62
     7
 10
274.0264447633
 20
264.0984969329
 30
0.0
  0
VERTEX
  5
48E
  8
0
  6
CONTINUOUS
 62
     7
 10
274.0063023206
 20
264.7606902089
 30
0.0
  0
VERTEX
  5
48F
  8
0
  6
CONTINUOUS
 62
     7
 10
273.9618669747
 20
265.4938734054
 30
0.0
  0
VERTEX
  5
490
  8
0
  6
CONTINUOUS
 62
     7
 10
273.8948096325
 20
266.2787857038
 30
0.0
  0
VERTEX
  5
491
  8
0
  6
CONTINUOUS
 62
     7
 10
273.7636037479
 20
267.4460428217
 30
0.0
  0
SEQEND
  5
4EA
  8
0
  6
CONTINUOUS
 62
     7
  0
LINE
  5
27E
  8
0
  6
CONTINUOUS
 62
     7
 10
273.1407094348
 20
262.4460428217
 30
0.0
 11
273.7636037479
 21
262.4460428217
 31
0.0
  0
LINE
  5
27F
  8
0
  6
CONTINUOUS
 62
     7
 10
272.8252437393
 20
272.9460428217
 30
0.0
 11
271.4658533502
 21
272.9460428217
 31
0.0
  0
LINE
  5
280
  8
0
  6
CONTINUOUS
 62
     7
 10
271.4658533502
 20
272.9460428217
 30
0.0
 11
271.4658533502
 21
276.4460428217
 31
0.0
  0
LINE
  5
281
  8
0
  6
CONTINUOUS
 62
     7
 10
284.4658533502
 20
262.4460428217
 30
0.0
 11
273.7636037479
 21
262.4460428217
 31
0.0
  0
LINE
  5
282
  8
0
  6
CONTINUOUS
 62
     7
 10
284.4658533502
 20
267.4460428217
 30
0.0
 11
284.4658533502
 21
262.4460428217
 31
0.0
  0
LINE
  5
283
  8
0
  6
CONTINUOUS
 62
     7
 10
272.4032734795
 20
312.871117662
 30
0.0
 11
271.4658533502
 21
312.871117662
 31
0.0
  0
LINE
  5
284
  8
0
  6
CONTINUOUS
 62
     7
 10
271.4658533502
 20
311.9460428217
 30
0.0
 11
271.4658533502
 21
312.871117662
 31
0.0
  0
LINE
  5
285
  8
0
  6
CONTINUOUS
 62
     7
 10
272.4032734795
 20
272.0209679815
 30
0.0
 11
271.4658533502
 21
272.0209679815
 31
0.0
  0
LINE
  5
286
  8
0
  6
CONTINUOUS
 62
     7
 10
271.4658533502
 20
272.0209679815
 30
0.0
 11
271.4658533502
 21
272.9460428217
 31
0.0
  0
LINE
  5
287
  8
0
  6
CONTINUOUS
 62
     7
 10
272.442330425
 20
316.7509025194
 30
0.0
 11
271.4658533502
 21
316.7509025194
 31
0.0
  0
LINE
  5
288
  8
0
  6
CONTINUOUS
 62
     7
 10
271.4658533502
 20
312.871117662
 30
0.0
 11
271.4658533502
 21
316.7509025194
 31
0.0
  0
LINE
  5
289
  8
0
  6
CONTINUOUS
 62
     7
 10
272.442330425
 20
268.1411831241
 30
0.0
 11
271.4658533502
 21
268.1411831241
 31
0.0
  0
LINE
  5
28A
  8
0
  6
CONTINUOUS
 62
     7
 10
271.4658533502
 20
268.1411831241
 30
0.0
 11
271.4658533502
 21
272.0209679815
 31
0.0
  0
LINE
  5
28B
  8
0
  6
CONTINUOUS
 62
     7
 10
273.1407094349
 20
322.4460428217
 30
0.0
 11
271.4658533502
 21
322.4460428217
 31
0.0
  0
LINE
  5
28C
  8
0
  6
CONTINUOUS
 62
     7
 10
271.4658533502
 20
316.7509025194
 30
0.0
 11
271.4658533502
 21
322.4460428217
 31
0.0
  0
LINE
  5
28D
  8
0
  6
CONTINUOUS
 62
     7
 10
273.1407094348
 20
262.4460428217
 30
0.0
 11
271.4658533502
 21
262.4460428217
 31
0.0
  0
LINE
  5
28E
  8
0
  6
CONTINUOUS
 62
     7
 10
271.4658533502
 20
262.4460428217
 30
0.0
 11
271.4658533502
 21
268.1411831241
 31
0.0
  0
LINE
  5
28F
  8
0
  6
CONTINUOUS
 62
     7
 10
271.4658533502
 20
311.9460428217
 30
0.0
 11
190.6658533502
 21
311.9460428217
 31
0.0
  0
LINE
  5
290
  8
0
  6
CONTINUOUS
 62
     7
 10
271.4658533502
 20
308.4460428217
 30
0.0
 11
190.6658533502
 21
308.4460428217
 31
0.0
  0
LINE
  5
291
  8
0
  6
CONTINUOUS
 62
     7
 10
190.6658533502
 20
308.4460428217
 30
0.0
 11
190.6658533502
 21
311.9460428217
 31
0.0
  0
LINE
  5
292
  8
0
  6
CONTINUOUS
 62
     7
 10
271.4658533502
 20
276.4460428217
 30
0.0
 11
190.6658533502
 21
276.4460428217
 31
0.0
  0
LINE
  5
293
  8
0
  6
CONTINUOUS
 62
     7
 10
190.6658533502
 20
276.4460428217
 30
0.0
 11
190.6658533502
 21
308.4460428217
 31
0.0
  0
LINE
  5
294
  8
0
  6
CONTINUOUS
 62
     7
 10
271.4658533502
 20
272.9460428217
 30
0.0
 11
190.6658533502
 21
272.9460428217
 31
0.0
  0
LINE
  5
295
  8
0
  6
CONTINUOUS
 62
     7
 10
190.6658533502
 20
272.9460428217
 30
0.0
 11
190.6658533502
 21
276.4460428217
 31
0.0
  0
LINE
  5
296
  8
0
  6
CONTINUOUS
 62
     7
 10
271.4658533502
 20
312.871117662
 30
0.0
 11
190.6658533502
 21
312.871117662
 31
0.0
  0
LINE
  5
297
  8
0
  6
CONTINUOUS
 62
     7
 10
190.6658533502
 20
311.9460428217
 30
0.0
 11
190.6658533502
 21
312.871117662
 31
0.0
  0
LINE
  5
298
  8
0
  6
CONTINUOUS
 62
     7
 10
271.4658533502
 20
272.0209679815
 30
0.0
 11
190.6658533502
 21
272.0209679815
 31
0.0
  0
LINE
  5
299
  8
0
  6
CONTINUOUS
 62
     7
 10
190.6658533502
 20
272.0209679815
 30
0.0
 11
190.6658533502
 21
272.9460428217
 31
0.0
  0
LINE
  5
29A
  8
0
  6
CONTINUOUS
 62
     7
 10
271.4658533502
 20
316.7509025194
 30
0.0
 11
190.6658533502
 21
316.7509025194
 31
0.0
  0
LINE
  5
29B
  8
0
  6
CONTINUOUS
 62
     7
 10
190.6658533502
 20
312.871117662
 30
0.0
 11
190.6658533502
 21
316.7509025194
 31
0.0
  0
LINE
  5
29C
  8
0
  6
CONTINUOUS
 62
     7
 10
271.4658533502
 20
268.1411831241
 30
0.0
 11
190.6658533502
 21
268.1411831241
 31
0.0
  0
LINE
  5
29D
  8
0
  6
CONTINUOUS
 62
     7
 10
190.6658533502
 20
268.1411831241
 30
0.0
 11
190.6658533502
 21
272.0209679815
 31
0.0
  0
LINE
  5
29E
  8
0
  6
CONTINUOUS
 62
     7
 10
271.4658533502
 20
322.4460428217
 30
0.0
 11
190.6658533502
 21
322.4460428217
 31
0.0
  0
LINE
  5
29F
  8
0
  6
CONTINUOUS
 62
     7
 10
190.6658533502
 20
316.7509025194
 30
0.0
 11
190.6658533502
 21
322.4460428217
 31
0.0
  0
LINE
  5
2A0
  8
0
  6
CONTINUOUS
 62
     7
 10
271.4658533502
 20
262.4460428217
 30
0.0
 11
190.6658533502
 21
262.4460428217
 31
0.0
  0
LINE
  5
2A1
  8
0
  6
CONTINUOUS
 62
     7
 10
190.6658533502
 20
262.4460428217
 30
0.0
 11
190.6658533502
 21
268.1411831241
 31
0.0
  0
LINE
  5
2A2
  8
0
  6
CONTINUOUS
 62
     7
 10
204.8658533502
 20
331.9075686315
 30
0.0
 11
188.6658533502
 21
331.9075686315
 31
0.0
  0
LINE
  5
2A3
  8
0
  6
CONTINUOUS
 62
     7
 10
188.6658533502
 20
331.9075686315
 30
0.0
 11
188.6658533502
 21
333.4460428217
 31
0.0
  0
LINE
  5
2A4
  8
0
  6
CONTINUOUS
 62
     7
 10
204.8658533502
 20
333.4460428217
 30
0.0
 11
204.8658533502
 21
331.9075686315
 31
0.0
  0
ARC
  5
2A5
  8
0
  6
CONTINUOUS
 62
     7
 10
197.6658284148
 20
393.3011138228
 30
0.0
 40
60.0848713298127
 50
264.9873324856
 51
274.9971306705
  0
LINE
  5
2A6
  8
0
  6
CONTINUOUS
 62
     7
 10
217.1658533502
 20
327.4134883044
 30
0.0
 11
217.1658533502
 21
326.6891858849
 31
0.0
  0
POLYLINE
  5
2A7
  8
0
  6
CONTINUOUS
 62
     7
 66
     1
 10
0.0
 20
0.0
 30
0.0
 70
   128
  0
VERTEX
  5
492
  8
0
  6
CONTINUOUS
 62
     7
 10
213.1658533502
 20
327.8587881437
 30
0.0
  0
VERTEX
  5
493
  8
0
  6
CONTINUOUS
 62
     7
 10
213.8492274398
 20
327.5390967446
 30
0.0
  0
VERTEX
  5
494
  8
0
  6
CONTINUOUS
 62
     7
 10
214.5250154183
 20
327.2502306291
 30
0.0
  0
VERTEX
  5
495
  8
0
  6
CONTINUOUS
 62
     7
 10
215.1757184673
 20
327.0009677285
 30
0.0
  0
VERTEX
  5
496
  8
0
  6
CONTINUOUS
 62
     7
 10
215.7735335208
 20
326.801625038
 30
0.0
  0
VERTEX
  5
497
  8
0
  6
CONTINUOUS
 62
     7
 10
216.2474008525
 20
326.6716897572
 30
0.0
  0
VERTEX
  5
498
  8
0
  6
CONTINUOUS
 62
     7
 10
216.6376656109
 20
326.5939183944
 30
0.0
  0
VERTEX
  5
499
  8
0
  6
CONTINUOUS
 62
     7
 10
217.0821064439
 20
326.5937200493
 30
0.0
  0
VERTEX
  5
49A
  8
0
  6
CONTINUOUS
 62
     7
 10
217.1658533502
 20
326.6891858849
 30
0.0
  0
SEQEND
  5
4EB
  8
0
  6
CONTINUOUS
 62
     7
  0
LINE
  5
2A8
  8
0
  6
CONTINUOUS
 62
     7
 10
213.1658533502
 20
327.8587881437
 30
0.0
 11
204.8658533502
 21
331.9075686315
 31
0.0
  0
LINE
  5
2A9
  8
0
  6
CONTINUOUS
 62
     7
 10
188.6658533502
 20
331.9075686315
 30
0.0
 11
188.6658533502
 21
322.4460428217
 31
0.0
  0
LINE
  5
2AA
  8
0
  6
CONTINUOUS
 62
     7
 10
213.1658533502
 20
322.4460428217
 30
0.0
 11
213.1658533502
 21
327.8587881437
 31
0.0
  0
LINE
  5
2AB
  8
0
  6
CONTINUOUS
 62
     7
 10
217.1658533502
 20
326.6891858849
 30
0.0
 11
217.1658533502
 21
322.4460428217
 31
0.0
  0
LINE
  5
2AC
  8
0
  6
CONTINUOUS
 62
     7
 10
202.9158533502
 20
335.4460428217
 30
0.0
 11
192.4158533502
 21
335.4460428217
 31
0.0
  0
LINE
  5
2AD
  8
0
  6
CONTINUOUS
 62
     7
 10
193.9158533502
 20
337.4460428217
 30
0.0
 11
201.4158533502
 21
337.4460428217
 31
0.0
  0
LINE
  5
2AE
  8
0
  6
CONTINUOUS
 62
     7
 10
200.9158533502
 20
372.4460428217
 30
0.0
 11
194.4158533502
 21
372.4460428217
 31
0.0
  0
LINE
  5
2AF
  8
0
  6
CONTINUOUS
 62
     7
 10
164.6238549077
 20
322.4460428217
 30
0.0
 11
163.6600023472
 21
322.4460428217
 31
0.0
  0
ARC
  5
2B0
  8
0
  6
CONTINUOUS
 62
     7
 10
357.1474532057
 20
295.9470261002
 30
0.0
 40
194.3387089306395
 50
172.1630310192
 51
173.8547356961
  0
ARC
  5
2B1
  8
0
  6
CONTINUOUS
 62
     7
 10
177.1702236005
 20
314.6774815239
 30
0.0
 40
13.40605894114693
 50
171.1027494039
 51
187.7437214029
  0
ARC
  5
2B2
  8
0
  6
CONTINUOUS
 62
     7
 10
176.4752154936
 20
318.0546837462
 30
0.0
 40
13.614226225013
 50
202.3799170447
 51
206.6600140755
  0
LINE
  5
2B3
  8
0
  6
CONTINUOUS
 62
     7
 10
164.3083892122
 20
308.4460428217
 30
0.0
 11
164.3083892122
 21
311.9460428217
 31
0.0
  0
ARC
  5
2B4
  8
0
  6
CONTINUOUS
 62
     7
 10
361.39720168
 20
292.4460428217
 30
0.0
 40
197.7371993328519
 50
175.3588106327
 51
184.6411893673
  0
LINE
  5
2B5
  8
0
  6
CONTINUOUS
 62
     7
 10
164.3083892122
 20
272.9460428217
 30
0.0
 11
164.3083892122
 21
276.4460428217
 31
0.0
  0
ARC
  5
2B6
  8
0
  6
CONTINUOUS
 62
     7
 10
176.4752154936
 20
266.8374018973
 30
0.0
 40
13.61422622505652
 50
153.3399859245
 51
157.6200829552
  0
ARC
  5
2B7
  8
0
  6
CONTINUOUS
 62
     7
 10
175.3049592429
 20
270.1958269113
 30
0.0
 40
11.56348573285846
 50
170.9186540211
 51
190.2348751722
  0
ARC
  5
2B8
  8
0
  6
CONTINUOUS
 62
     7
 10
357.1474532053
 20
288.9450595432
 30
0.0
 40
194.3387089302286
 50
186.1452643039
 51
187.8369689808
  0
LINE
  5
2B9
  8
0
  6
CONTINUOUS
 62
     7
 10
163.6600023472
 20
262.4460428217
 30
0.0
 11
164.6238549077
 21
262.4460428217
 31
0.0
  0
LINE
  5
2BA
  8
0
  6
CONTINUOUS
 62
     7
 10
162.9658533502
 20
292.4460428217
 30
0.0
 11
162.9658533502
 21
267.4460428217
 31
0.0
  0
LINE
  5
2BB
  8
0
  6
CONTINUOUS
 62
     7
 10
162.9658533502
 20
317.4460428217
 30
0.0
 11
162.9658533502
 21
292.4460428217
 31
0.0
  0
LINE
  5
2BC
  8
0
  6
CONTINUOUS
 62
     7
 10
164.3083892122
 20
311.9460428217
 30
0.0
 11
176.8658533502
 21
311.9460428217
 31
0.0
  0
LINE
  5
2BD
  8
0
  6
CONTINUOUS
 62
     7
 10
164.3083892122
 20
308.4460428217
 30
0.0
 11
176.8658533502
 21
308.4460428217
 31
0.0
  0
LINE
  5
2BE
  8
0
  6
CONTINUOUS
 62
     7
 10
176.8658533502
 20
308.4460428217
 30
0.0
 11
176.8658533502
 21
311.9460428217
 31
0.0
  0
LINE
  5
2BF
  8
0
  6
CONTINUOUS
 62
     7
 10
164.3083892122
 20
276.4460428217
 30
0.0
 11
176.8658533502
 21
276.4460428217
 31
0.0
  0
LINE
  5
2C0
  8
0
  6
CONTINUOUS
 62
     7
 10
176.8658533502
 20
276.4460428217
 30
0.0
 11
176.8658533502
 21
308.4460428217
 31
0.0
  0
LINE
  5
2C1
  8
0
  6
CONTINUOUS
 62
     7
 10
164.3083892122
 20
272.9460428217
 30
0.0
 11
176.8658533502
 21
272.9460428217
 31
0.0
  0
LINE
  5
2C2
  8
0
  6
CONTINUOUS
 62
     7
 10
176.8658533502
 20
272.9460428217
 30
0.0
 11
176.8658533502
 21
276.4460428217
 31
0.0
  0
LINE
  5
2C3
  8
0
  6
CONTINUOUS
 62
     7
 10
163.8864189523
 20
312.871117662
 30
0.0
 11
176.8658533502
 21
312.871117662
 31
0.0
  0
LINE
  5
2C4
  8
0
  6
CONTINUOUS
 62
     7
 10
176.8658533502
 20
311.9460428217
 30
0.0
 11
176.8658533502
 21
312.871117662
 31
0.0
  0
LINE
  5
2C5
  8
0
  6
CONTINUOUS
 62
     7
 10
163.8864189523
 20
272.0209679815
 30
0.0
 11
176.8658533502
 21
272.0209679815
 31
0.0
  0
LINE
  5
2C6
  8
0
  6
CONTINUOUS
 62
     7
 10
176.8658533502
 20
272.0209679815
 30
0.0
 11
176.8658533502
 21
272.9460428217
 31
0.0
  0
LINE
  5
2C7
  8
0
  6
CONTINUOUS
 62
     7
 10
163.9254758978
 20
268.1411831241
 30
0.0
 11
176.8658533502
 21
268.1411831241
 31
0.0
  0
LINE
  5
2C8
  8
0
  6
CONTINUOUS
 62
     7
 10
176.8658533502
 20
268.1411831241
 30
0.0
 11
176.8658533502
 21
272.0209679815
 31
0.0
  0
LINE
  5
2C9
  8
0
  6
CONTINUOUS
 62
     7
 10
163.9254758978
 20
316.7509025194
 30
0.0
 11
176.8658533502
 21
316.7509025194
 31
0.0
  0
LINE
  5
2CA
  8
0
  6
CONTINUOUS
 62
     7
 10
176.8658533502
 20
312.871117662
 30
0.0
 11
176.8658533502
 21
316.7509025194
 31
0.0
  0
LINE
  5
2CB
  8
0
  6
CONTINUOUS
 62
     7
 10
164.6238549077
 20
322.4460428217
 30
0.0
 11
176.8658533502
 21
322.4460428217
 31
0.0
  0
LINE
  5
2CC
  8
0
  6
CONTINUOUS
 62
     7
 10
176.8658533502
 20
316.7509025194
 30
0.0
 11
176.8658533502
 21
322.4460428217
 31
0.0
  0
LINE
  5
2CD
  8
0
  6
CONTINUOUS
 62
     7
 10
164.6238549077
 20
262.4460428217
 30
0.0
 11
176.8658533502
 21
262.4460428217
 31
0.0
  0
LINE
  5
2CE
  8
0
  6
CONTINUOUS
 62
     7
 10
176.8658533502
 20
262.4460428217
 30
0.0
 11
176.8658533502
 21
268.1411831241
 31
0.0
  0
LINE
  5
2CF
  8
0
  6
CONTINUOUS
 62
     7
 10
176.3658533502
 20
332.0207814042
 30
0.0
 11
164.3658533502
 21
332.0207814042
 31
0.0
  0
ARC
  5
2D0
  8
0
  6
CONTINUOUS
 62
     7
 10
170.3658313919
 20
393.3145975226
 30
0.0
 40
60.07698080285529
 50
265.2259685827
 51
274.7591832525
  0
LINE
  5
2D1
  8
0
  6
CONTINUOUS
 62
     7
 10
176.3658533502
 20
332.0207814042
 30
0.0
 11
176.3658533502
 21
333.4460428217
 31
0.0
  0
LINE
  5
2D2
  8
0
  6
CONTINUOUS
 62
     7
 10
164.3658533502
 20
332.0207814042
 30
0.0
 11
164.3658533502
 21
333.4460428217
 31
0.0
  0
LINE
  5
2D3
  8
0
  6
CONTINUOUS
 62
     7
 10
176.3658533502
 20
332.0207814042
 30
0.0
 11
176.3658533502
 21
322.4460428217
 31
0.0
  0
LINE
  5
2D4
  8
0
  6
CONTINUOUS
 62
     7
 10
164.3658533502
 20
332.0207814042
 30
0.0
 11
164.3658533502
 21
322.4460428217
 31
0.0
  0
LINE
  5
2D5
  8
0
  6
CONTINUOUS
 62
     7
 10
175.3658533502
 20
335.4460428217
 30
0.0
 11
165.3658533502
 21
335.4460428217
 31
0.0
  0
LINE
  5
2D6
  8
0
  6
CONTINUOUS
 62
     7
 10
167.3658533502
 20
372.4460428217
 30
0.0
 11
173.3658533502
 21
372.4460428217
 31
0.0
  0
LINE
  5
2D7
  8
0
  6
CONTINUOUS
 62
     7
 10
190.6658533502
 20
311.9460428217
 30
0.0
 11
187.6658533502
 21
311.9460428217
 31
0.0
  0
LINE
  5
2D8
  8
0
  6
CONTINUOUS
 62
     7
 10
190.6658533502
 20
308.4460428217
 30
0.0
 11
187.6658533502
 21
308.4460428217
 31
0.0
  0
LINE
  5
2D9
  8
0
  6
CONTINUOUS
 62
     7
 10
187.6658533502
 20
311.9460428217
 30
0.0
 11
187.6658533502
 21
308.4460428217
 31
0.0
  0
LINE
  5
2DA
  8
0
  6
CONTINUOUS
 62
     7
 10
190.6658533502
 20
276.4460428217
 30
0.0
 11
187.6658533502
 21
276.4460428217
 31
0.0
  0
LINE
  5
2DB
  8
0
  6
CONTINUOUS
 62
     7
 10
187.6658533502
 20
308.4460428217
 30
0.0
 11
187.6658533502
 21
276.4460428217
 31
0.0
  0
LINE
  5
2DC
  8
0
  6
CONTINUOUS
 62
     7
 10
190.6658533502
 20
272.9460428217
 30
0.0
 11
187.6658533502
 21
272.9460428217
 31
0.0
  0
LINE
  5
2DD
  8
0
  6
CONTINUOUS
 62
     7
 10
187.6658533502
 20
276.4460428217
 30
0.0
 11
187.6658533502
 21
272.9460428217
 31
0.0
  0
LINE
  5
2DE
  8
0
  6
CONTINUOUS
 62
     7
 10
190.6658533502
 20
312.871117662
 30
0.0
 11
187.6658533502
 21
312.871117662
 31
0.0
  0
LINE
  5
2DF
  8
0
  6
CONTINUOUS
 62
     7
 10
187.6658533502
 20
312.871117662
 30
0.0
 11
187.6658533502
 21
311.9460428217
 31
0.0
  0
LINE
  5
2E0
  8
0
  6
CONTINUOUS
 62
     7
 10
190.6658533502
 20
272.0209679815
 30
0.0
 11
187.6658533502
 21
272.0209679815
 31
0.0
  0
LINE
  5
2E1
  8
0
  6
CONTINUOUS
 62
     7
 10
187.6658533502
 20
272.9460428217
 30
0.0
 11
187.6658533502
 21
272.0209679815
 31
0.0
  0
LINE
  5
2E2
  8
0
  6
CONTINUOUS
 62
     7
 10
190.6658533502
 20
316.7509025194
 30
0.0
 11
187.6658533502
 21
316.7509025194
 31
0.0
  0
LINE
  5
2E3
  8
0
  6
CONTINUOUS
 62
     7
 10
187.6658533502
 20
316.7509025194
 30
0.0
 11
187.6658533502
 21
312.871117662
 31
0.0
  0
LINE
  5
2E4
  8
0
  6
CONTINUOUS
 62
     7
 10
190.6658533502
 20
268.1411831241
 30
0.0
 11
187.6658533502
 21
268.1411831241
 31
0.0
  0
LINE
  5
2E5
  8
0
  6
CONTINUOUS
 62
     7
 10
187.6658533502
 20
272.0209679815
 30
0.0
 11
187.6658533502
 21
268.1411831241
 31
0.0
  0
LINE
  5
2E6
  8
0
  6
CONTINUOUS
 62
     7
 10
190.6658533502
 20
322.4460428217
 30
0.0
 11
187.6658533502
 21
322.4460428217
 31
0.0
  0
LINE
  5
2E7
  8
0
  6
CONTINUOUS
 62
     7
 10
187.6658533502
 20
322.4460428217
 30
0.0
 11
187.6658533502
 21
316.7509025194
 31
0.0
  0
LINE
  5
2E8
  8
0
  6
CONTINUOUS
 62
     7
 10
190.6658533502
 20
262.4460428217
 30
0.0
 11
187.6658533502
 21
262.4460428217
 31
0.0
  0
LINE
  5
2E9
  8
0
  6
CONTINUOUS
 62
     7
 10
187.6658533502
 20
268.1411831241
 30
0.0
 11
187.6658533502
 21
262.4460428217
 31
0.0
  0
LINE
  5
2EA
  8
0
  6
CONTINUOUS
 62
     7
 10
187.6658533502
 20
311.9460428217
 30
0.0
 11
176.8658533502
 21
311.9460428217
 31
0.0
  0
LINE
  5
2EB
  8
0
  6
CONTINUOUS
 62
     7
 10
187.6658533502
 20
308.4460428217
 30
0.0
 11
176.8658533502
 21
308.4460428217
 31
0.0
  0
LINE
  5
2EC
  8
0
  6
CONTINUOUS
 62
     7
 10
187.6658533502
 20
276.4460428217
 30
0.0
 11
176.8658533502
 21
276.4460428217
 31
0.0
  0
LINE
  5
2ED
  8
0
  6
CONTINUOUS
 62
     7
 10
187.6658533502
 20
272.9460428217
 30
0.0
 11
176.8658533502
 21
272.9460428217
 31
0.0
  0
LINE
  5
2EE
  8
0
  6
CONTINUOUS
 62
     7
 10
187.6658533502
 20
312.871117662
 30
0.0
 11
176.8658533502
 21
312.871117662
 31
0.0
  0
LINE
  5
2EF
  8
0
  6
CONTINUOUS
 62
     7
 10
187.6658533502
 20
272.0209679815
 30
0.0
 11
176.8658533502
 21
272.0209679815
 31
0.0
  0
LINE
  5
2F0
  8
0
  6
CONTINUOUS
 62
     7
 10
187.6658533502
 20
316.7509025194
 30
0.0
 11
176.8658533502
 21
316.7509025194
 31
0.0
  0
LINE
  5
2F1
  8
0
  6
CONTINUOUS
 62
     7
 10
187.6658533502
 20
268.1411831241
 30
0.0
 11
176.8658533502
 21
268.1411831241
 31
0.0
  0
LINE
  5
2F2
  8
0
  6
CONTINUOUS
 62
     7
 10
187.6658533502
 20
322.4460428217
 30
0.0
 11
176.8658533502
 21
322.4460428217
 31
0.0
  0
LINE
  5
2F3
  8
0
  6
CONTINUOUS
 62
     7
 10
187.6658533502
 20
262.4460428217
 30
0.0
 11
176.8658533502
 21
262.4460428217
 31
0.0
  0
LINE
  5
2F4
  8
0
  6
CONTINUOUS
 62
     7
 10
287.4658533502
 20
461.1694609914
 30
0.0
 11
284.4658533502
 21
461.1694609914
 31
0.0
  0
LINE
  5
2F5
  8
0
  6
CONTINUOUS
 62
     7
 10
284.4658533502
 20
425.1694609914
 30
0.0
 11
287.4658533502
 21
425.1694609914
 31
0.0
  0
LINE
  5
2F6
  8
0
  6
CONTINUOUS
 62
     7
 10
308.4658533502
 20
450.1694609914
 30
0.0
 11
287.4658533502
 21
450.1694609914
 31
0.0
  0
LINE
  5
2F7
  8
0
  6
CONTINUOUS
 62
     7
 10
287.4658533502
 20
436.1694609914
 30
0.0
 11
308.4658533502
 21
436.1694609914
 31
0.0
  0
LINE
  5
2F8
  8
0
  6
CONTINUOUS
 62
     7
 10
197.3658533502
 20
459.2694609914
 30
0.0
 11
197.3658533502
 21
460.3694609914
 31
0.0
  0
LINE
  5
2F9
  8
0
  6
CONTINUOUS
 62
     7
 10
190.3658533502
 20
460.3694609914
 30
0.0
 11
190.3658533502
 21
459.2694609914
 31
0.0
  0
LINE
  5
2FA
  8
0
  6
CONTINUOUS
 62
     7
 10
197.3658533502
 20
456.6694609914
 30
0.0
 11
197.3658533502
 21
459.2694609914
 31
0.0
  0
LINE
  5
2FB
  8
0
  6
CONTINUOUS
 62
     7
 10
190.3658533502
 20
459.2694609914
 30
0.0
 11
190.3658533502
 21
456.6694609914
 31
0.0
  0
LINE
  5
2FC
  8
0
  6
CONTINUOUS
 62
     7
 10
205.8658533502
 20
456.6694609914
 30
0.0
 11
205.8658533502
 21
456.9694609914
 31
0.0
  0
LINE
  5
2FD
  8
0
  6
CONTINUOUS
 62
     7
 10
199.8658533502
 20
456.9694609914
 30
0.0
 11
199.8658533502
 21
456.6694609914
 31
0.0
  0
ARC
  5
2FE
  8
0
  6
CONTINUOUS
 62
     7
 10
361.39720168
 20
443.1694609914
 30
0.0
 40
200.0
 50
187.1807557815
 51
188.6269265587
  0
ARC
  5
2FF
  8
0
  6
CONTINUOUS
 62
     7
 10
361.39720168
 20
443.1694609914
 30
0.0
 40
200.0
 50
171.3730734413
 51
172.8192442185
  0
LINE
  5
300
  8
0
  6
CONTINUOUS
 62
     7
 10
287.4658533502
 20
461.1694609914
 30
0.0
 11
287.4658533502
 21
425.1694609914
 31
0.0
  0
LINE
  5
301
  8
0
  6
CONTINUOUS
 62
     7
 10
308.4658533502
 20
450.1694609914
 30
0.0
 11
308.4658533502
 21
436.1694609914
 31
0.0
  0
LINE
  5
302
  8
0
  6
CONTINUOUS
 62
     7
 10
191.6801040508
 20
461.6694609914
 30
0.0
 11
196.0516026496
 21
461.6694609914
 31
0.0
  0
ARC
  5
303
  8
0
  6
CONTINUOUS
 62
     7
 10
196.0551830864
 20
460.3677344958
 30
0.0
 40
1.301731419622089
 50
0.0759918197
 51
90.1575933205
  0
LINE
  5
304
  8
0
  6
CONTINUOUS
 62
     7
 10
197.3569133611
 20
460.3694609914
 30
0.0
 11
190.3747933392
 21
460.3694609914
 31
0.0
  0
ARC
  5
305
  8
0
  6
CONTINUOUS
 62
     7
 10
191.6772706024
 20
460.3669844558
 30
0.0
 40
1.302479617559078
 50
89.8753571572
 51
179.8910577026
  0
LINE
  5
306
  8
0
  6
CONTINUOUS
 62
     7
 10
190.3658533502
 20
459.2694609914
 30
0.0
 11
197.3658533502
 21
459.2694609914
 31
0.0
  0
LINE
  5
307
  8
0
  6
CONTINUOUS
 62
     7
 10
197.3569133611
 20
460.3694609914
 30
0.0
 11
197.3658533502
 21
460.3694609914
 31
0.0
  0
LINE
  5
308
  8
0
  6
CONTINUOUS
 62
     7
 10
190.3658533502
 20
460.3694609914
 30
0.0
 11
190.3747933392
 21
460.3694609914
 31
0.0
  0
LINE
  5
309
  8
0
  6
CONTINUOUS
 62
     7
 10
273.7636037479
 20
473.1694609914
 30
0.0
 11
284.4658533502
 21
473.1694609914
 31
0.0
  0
LINE
  5
30A
  8
0
  6
CONTINUOUS
 62
     7
 10
284.4658533502
 20
468.1694609914
 30
0.0
 11
273.7636037479
 21
468.1694609914
 31
0.0
  0
POLYLINE
  5
30B
  8
0
  6
CONTINUOUS
 62
     7
 66
     1
 10
0.0
 20
0.0
 30
0.0
 70
   128
  0
VERTEX
  5
49B
  8
0
  6
CONTINUOUS
 62
     7
 10
273.7636037479
 20
468.1694609914
 30
0.0
  0
VERTEX
  5
49C
  8
0
  6
CONTINUOUS
 62
     7
 10
273.8594549523
 20
468.9889390961
 30
0.0
  0
VERTEX
  5
49D
  8
0
  6
CONTINUOUS
 62
     7
 10
273.9375505153
 20
469.8106802139
 30
0.0
  0
VERTEX
  5
49E
  8
0
  6
CONTINUOUS
 62
     7
 10
273.9912110947
 20
470.5660041719
 30
0.0
  0
VERTEX
  5
49F
  8
0
  6
CONTINUOUS
 62
     7
 10
274.0217885181
 20
471.2760830064
 30
0.0
  0
VERTEX
  5
4A0
  8
0
  6
CONTINUOUS
 62
     7
 10
274.0266470659
 20
471.8751006277
 30
0.0
  0
VERTEX
  5
4A1
  8
0
  6
CONTINUOUS
 62
     7
 10
274.0063023206
 20
472.3871477204
 30
0.0
  0
VERTEX
  5
4A2
  8
0
  6
CONTINUOUS
 62
     7
 10
273.9627384511
 20
472.767951912
 30
0.0
  0
VERTEX
  5
4A3
  8
0
  6
CONTINUOUS
 62
     7
 10
273.8948096325
 20
473.0313033192
 30
0.0
  0
VERTEX
  5
4A4
  8
0
  6
CONTINUOUS
 62
     7
 10
273.7636037479
 20
473.1694609914
 30
0.0
  0
SEQEND
  5
4EC
  8
0
  6
CONTINUOUS
 62
     7
  0
LINE
  5
30C
  8
0
  6
CONTINUOUS
 62
     7
 10
284.4658533502
 20
473.1694609914
 30
0.0
 11
284.4658533502
 21
468.1694609914
 31
0.0
  0
POLYLINE
  5
30D
  8
0
  6
CONTINUOUS
 62
     7
 66
     1
 10
0.0
 20
0.0
 30
0.0
 70
   128
  0
VERTEX
  5
4A5
  8
0
  6
CONTINUOUS
 62
     7
 10
273.1149479025
 20
465.1451547457
 30
0.0
  0
VERTEX
  5
4A6
  8
0
  6
CONTINUOUS
 62
     7
 10
273.3736791166
 20
466.3439839069
 30
0.0
  0
VERTEX
  5
4A7
  8
0
  6
CONTINUOUS
 62
     7
 10
273.6030578759
 20
467.7591231858
 30
0.0
  0
VERTEX
  5
4A8
  8
0
  6
CONTINUOUS
 62
     7
 10
273.7749532264
 20
469.2186772151
 30
0.0
  0
VERTEX
  5
4A9
  8
0
  6
CONTINUOUS
 62
     7
 10
273.8693010669
 20
470.5435047876
 30
0.0
  0
VERTEX
  5
4AA
  8
0
  6
CONTINUOUS
 62
     7
 10
273.8779094327
 20
471.5884030565
 30
0.0
  0
VERTEX
  5
4AB
  8
0
  6
CONTINUOUS
 62
     7
 10
273.8023673668
 20
472.251192373
 30
0.0
  0
VERTEX
  5
4AC
  8
0
  6
CONTINUOUS
 62
     7
 10
273.651470254
 20
472.4691752949
 30
0.0
  0
VERTEX
  5
4AD
  8
0
  6
CONTINUOUS
 62
     7
 10
273.4401147658
 20
472.2154580362
 30
0.0
  0
VERTEX
  5
4AE
  8
0
  6
CONTINUOUS
 62
     7
 10
273.1896429573
 20
471.5043125543
 30
0.0
  0
VERTEX
  5
4AF
  8
0
  6
CONTINUOUS
 62
     7
 10
272.9277765511
 20
470.4024934157
 30
0.0
  0
VERTEX
  5
4B0
  8
0
  6
CONTINUOUS
 62
     7
 10
272.6860882451
 20
469.034354563
 30
0.0
  0
VERTEX
  5
4B1
  8
0
  6
CONTINUOUS
 62
     7
 10
272.5827526774
 20
468.3042207621
 30
0.0
  0
VERTEX
  5
4B2
  8
0
  6
CONTINUOUS
 62
     7
 10
272.4945597562
 20
467.5682760393
 30
0.0
  0
VERTEX
  5
4B3
  8
0
  6
CONTINUOUS
 62
     7
 10
272.3754853707
 20
466.1842052767
 30
0.0
  0
VERTEX
  5
4B4
  8
0
  6
CONTINUOUS
 62
     7
 10
272.3401989234
 20
465.0390607468
 30
0.0
  0
VERTEX
  5
4B5
  8
0
  6
CONTINUOUS
 62
     7
 10
272.3898090011
 20
464.2486357748
 30
0.0
  0
VERTEX
  5
4B6
  8
0
  6
CONTINUOUS
 62
     7
 10
272.5177391098
 20
463.8875506293
 30
0.0
  0
VERTEX
  5
4B7
  8
0
  6
CONTINUOUS
 62
     7
 10
272.7112987129
 20
463.993945112
 30
0.0
  0
VERTEX
  5
4B8
  8
0
  6
CONTINUOUS
 62
     7
 10
272.951581309
 20
464.5672001436
 30
0.0
  0
VERTEX
  5
4B9
  8
0
  6
CONTINUOUS
 62
     7
 10
273.1149479025
 20
465.1451547457
 30
0.0
  0
SEQEND
  5
4ED
  8
0
  6
CONTINUOUS
 62
     7
  0
ARC
  5
30E
  8
0
  6
CONTINUOUS
 62
     7
 10
279.8901073379
 20
468.9160870547
 30
0.0
 40
9.196450903977258
 50
215.9183905969
 51
222.784526542
  0
ARC
  5
30F
  8
0
  6
CONTINUOUS
 62
     7
 10
280.9345699662
 20
465.3998648655
 30
0.0
 40
8.697568387932158
 50
168.7787188815
 51
192.4744612487
  0
ARC
  5
310
  8
0
  6
CONTINUOUS
 62
     7
 10
459.6645974466
 20
448.9698630456
 30
0.0
 40
188.136200157258
 50
173.2687532447
 51
174.4723162804
  0
LINE
  5
311
  8
0
  6
CONTINUOUS
 62
     7
 10
272.8252437393
 20
473.1694609914
 30
0.0
 11
272.8252437393
 21
471.0217499458
 31
0.0
  0
LINE
  5
312
  8
0
  6
CONTINUOUS
 62
     7
 10
273.7636037479
 20
473.1694609914
 30
0.0
 11
272.8252437393
 21
473.1694609914
 31
0.0
  0
ARC
  5
313
  8
0
  6
CONTINUOUS
 62
     7
 10
469.9140562046
 20
443.1694609916
 30
0.0
 40
197.7371993302386
 50
172.7366309365
 51
174.3405358619
  0
LINE
  5
314
  8
0
  6
CONTINUOUS
 62
     7
 10
273.1407094349
 20
423.6694609914
 30
0.0
 11
271.4658533502
 21
423.6694609914
 31
0.0
  0
LINE
  5
315
  8
0
  6
CONTINUOUS
 62
     7
 10
273.1407094348
 20
462.6694609914
 30
0.0
 11
271.4658533502
 21
462.6694609914
 31
0.0
  0
LINE
  5
316
  8
0
  6
CONTINUOUS
 62
     7
 10
273.7636037479
 20
418.1694609914
 30
0.0
 11
284.4658533502
 21
418.1694609914
 31
0.0
  0
ARC
  5
317
  8
0
  6
CONTINUOUS
 62
     7
 10
469.9140562046
 20
443.1694609916
 30
0.0
 40
197.7371993302387
 50
185.6594641383
 51
187.2633690637
  0
LINE
  5
318
  8
0
  6
CONTINUOUS
 62
     7
 10
271.4658533502
 20
423.6694609914
 30
0.0
 11
271.4658533502
 21
462.6694609914
 31
0.0
  0
LINE
  5
319
  8
0
  6
CONTINUOUS
 62
     7
 10
284.4658533502
 20
418.1694609914
 30
0.0
 11
284.4658533502
 21
468.1694609914
 31
0.0
  0
LINE
  5
31A
  8
0
  6
CONTINUOUS
 62
     7
 10
272.442330425
 20
463.5211516256
 30
0.0
 11
271.4658533502
 21
463.5211516256
 31
0.0
  0
LINE
  5
31B
  8
0
  6
CONTINUOUS
 62
     7
 10
271.4658533502
 20
462.6694609914
 30
0.0
 11
271.4658533502
 21
463.5211516256
 31
0.0
  0
POLYLINE
  5
31C
  8
0
  6
CONTINUOUS
 62
     7
 66
     1
 10
0.0
 20
0.0
 30
0.0
 70
   128
  0
VERTEX
  5
4BA
  8
0
  6
CONTINUOUS
 62
     7
 10
273.8848387827
 20
415.1289018323
 30
0.0
  0
VERTEX
  5
4BB
  8
0
  6
CONTINUOUS
 62
     7
 10
273.8421874144
 20
416.2906315341
 30
0.0
  0
VERTEX
  5
4BC
  8
0
  6
CONTINUOUS
 62
     7
 10
273.7195412925
 20
417.654008525
 30
0.0
  0
VERTEX
  5
4BD
  8
0
  6
CONTINUOUS
 62
     7
 10
273.5299952421
 20
419.0764962224
 30
0.0
  0
VERTEX
  5
4BE
  8
0
  6
CONTINUOUS
 62
     7
 10
273.2920589887
 20
420.4122376417
 30
0.0
  0
VERTEX
  5
4BF
  8
0
  6
CONTINUOUS
 62
     7
 10
273.0310553016
 20
421.5078174036
 30
0.0
  0
VERTEX
  5
4C0
  8
0
  6
CONTINUOUS
 62
     7
 10
272.7775384568
 20
422.2248932469
 30
0.0
  0
VERTEX
  5
4C1
  8
0
  6
CONTINUOUS
 62
     7
 10
272.6637983888
 20
422.4089084474
 30
0.0
  0
VERTEX
  5
4C2
  8
0
  6
CONTINUOUS
 62
     7
 10
272.5628942676
 20
422.4694169281
 30
0.0
  0
VERTEX
  5
4C3
  8
0
  6
CONTINUOUS
 62
     7
 10
272.4130828387
 20
422.2151755696
 30
0.0
  0
VERTEX
  5
4C4
  8
0
  6
CONTINUOUS
 62
     7
 10
272.3439024182
 20
421.5055571984
 30
0.0
  0
VERTEX
  5
4C5
  8
0
  6
CONTINUOUS
 62
     7
 10
272.3602415504
 20
420.4341747238
 30
0.0
  0
VERTEX
  5
4C6
  8
0
  6
CONTINUOUS
 62
     7
 10
272.458287485
 20
419.1216165618
 30
0.0
  0
VERTEX
  5
4C7
  8
0
  6
CONTINUOUS
 62
     7
 10
272.6277080278
 20
417.7027296197
 30
0.0
  0
VERTEX
  5
4C8
  8
0
  6
CONTINUOUS
 62
     7
 10
272.8521409141
 20
416.3235813342
 30
0.0
  0
VERTEX
  5
4C9
  8
0
  6
CONTINUOUS
 62
     7
 10
273.1086631635
 20
415.1374411009
 30
0.0
  0
VERTEX
  5
4CA
  8
0
  6
CONTINUOUS
 62
     7
 10
273.3682493572
 20
414.2898964243
 30
0.0
  0
VERTEX
  5
4CB
  8
0
  6
CONTINUOUS
 62
     7
 10
273.4890167151
 20
414.0306287037
 30
0.0
  0
VERTEX
  5
4CC
  8
0
  6
CONTINUOUS
 62
     7
 10
273.5990363114
 20
413.8919358689
 30
0.0
  0
VERTEX
  5
4CD
  8
0
  6
CONTINUOUS
 62
     7
 10
273.7722917545
 20
413.992542585
 30
0.0
  0
VERTEX
  5
4CE
  8
0
  6
CONTINUOUS
 62
     7
 10
273.8682696958
 20
414.5687019213
 30
0.0
  0
VERTEX
  5
4CF
  8
0
  6
CONTINUOUS
 62
     7
 10
273.8848387827
 20
415.1289018323
 30
0.0
  0
SEQEND
  5
4EE
  8
0
  6
CONTINUOUS
 62
     7
  0
LINE
  5
31D
  8
0
  6
CONTINUOUS
 62
     7
 10
272.8252437393
 20
415.3171720369
 30
0.0
 11
272.8252437394
 21
413.1694609914
 31
0.0
  0
ARC
  5
31E
  8
0
  6
CONTINUOUS
 62
     7
 10
459.664598196
 20
437.3690590148
 30
0.0
 40
188.1362009106587
 50
185.5276837212
 51
186.7312467521
  0
ARC
  5
31F
  8
0
  6
CONTINUOUS
 62
     7
 10
282.6430377207
 20
420.920372467
 30
0.0
 40
10.37567097037604
 50
169.4630319336
 51
189.2837879366
  0
ARC
  5
320
  8
0
  6
CONTINUOUS
 62
     7
 10
279.8901073379
 20
417.422834928
 30
0.0
 40
9.196450903949243
 50
137.2154734581
 51
144.0816094032
  0
POLYLINE
  5
321
  8
0
  6
CONTINUOUS
 62
     7
 66
     1
 10
0.0
 20
0.0
 30
0.0
 70
   128
  0
VERTEX
  5
4D0
  8
0
  6
CONTINUOUS
 62
     7
 10
273.7636037479
 20
413.1694609914
 30
0.0
  0
VERTEX
  5
4D1
  8
0
  6
CONTINUOUS
 62
     7
 10
273.8606279606
 20
413.2395251367
 30
0.0
  0
VERTEX
  5
4D2
  8
0
  6
CONTINUOUS
 62
     7
 10
273.9375505154
 20
413.4464958778
 30
0.0
  0
VERTEX
  5
4D3
  8
0
  6
CONTINUOUS
 62
     7
 10
273.991741132
 20
413.7875780248
 30
0.0
  0
VERTEX
  5
4D4
  8
0
  6
CONTINUOUS
 62
     7
 10
274.0217885182
 20
414.2516938141
 30
0.0
  0
VERTEX
  5
4D5
  8
0
  6
CONTINUOUS
 62
     7
 10
274.0264447634
 20
414.8219151025
 30
0.0
  0
VERTEX
  5
4D6
  8
0
  6
CONTINUOUS
 62
     7
 10
274.0063023207
 20
415.4841083785
 30
0.0
  0
VERTEX
  5
4D7
  8
0
  6
CONTINUOUS
 62
     7
 10
273.9618669748
 20
416.217291575
 30
0.0
  0
VERTEX
  5
4D8
  8
0
  6
CONTINUOUS
 62
     7
 10
273.8948096326
 20
417.0022038734
 30
0.0
  0
VERTEX
  5
4D9
  8
0
  6
CONTINUOUS
 62
     7
 10
273.7636037479
 20
418.1694609914
 30
0.0
  0
SEQEND
  5
4EF
  8
0
  6
CONTINUOUS
 62
     7
  0
LINE
  5
322
  8
0
  6
CONTINUOUS
 62
     7
 10
272.8252437394
 20
413.1694609914
 30
0.0
 11
273.7636037479
 21
413.1694609914
 31
0.0
  0
LINE
  5
323
  8
0
  6
CONTINUOUS
 62
     7
 10
272.442330425
 20
422.8177703571
 30
0.0
 11
271.4658533502
 21
422.8177703571
 31
0.0
  0
LINE
  5
324
  8
0
  6
CONTINUOUS
 62
     7
 10
271.4658533502
 20
422.8177703571
 30
0.0
 11
271.4658533502
 21
423.6694609914
 31
0.0
  0
LINE
  5
325
  8
0
  6
CONTINUOUS
 62
     7
 10
284.4658533502
 20
413.1694609914
 30
0.0
 11
273.7636037479
 21
413.1694609914
 31
0.0
  0
LINE
  5
326
  8
0
  6
CONTINUOUS
 62
     7
 10
284.4658533502
 20
418.1694609914
 30
0.0
 11
284.4658533502
 21
413.1694609914
 31
0.0
  0
LINE
  5
327
  8
0
  6
CONTINUOUS
 62
     7
 10
272.4032734795
 20
419.2465217057
 30
0.0
 11
271.4658533502
 21
419.2465217057
 31
0.0
  0
LINE
  5
328
  8
0
  6
CONTINUOUS
 62
     7
 10
271.4658533502
 20
419.2465217057
 30
0.0
 11
271.4658533502
 21
422.8177703571
 31
0.0
  0
LINE
  5
329
  8
0
  6
CONTINUOUS
 62
     7
 10
272.4032734795
 20
467.092400277
 30
0.0
 11
271.4658533502
 21
467.092400277
 31
0.0
  0
LINE
  5
32A
  8
0
  6
CONTINUOUS
 62
     7
 10
271.4658533502
 20
463.5211516256
 30
0.0
 11
271.4658533502
 21
467.092400277
 31
0.0
  0
LINE
  5
32B
  8
0
  6
CONTINUOUS
 62
     7
 10
272.8252437393
 20
471.0217499458
 30
0.0
 11
271.4658533502
 21
471.0217499458
 31
0.0
  0
LINE
  5
32C
  8
0
  6
CONTINUOUS
 62
     7
 10
271.4658533502
 20
467.092400277
 30
0.0
 11
271.4658533502
 21
471.0217499458
 31
0.0
  0
LINE
  5
32D
  8
0
  6
CONTINUOUS
 62
     7
 10
272.8252437393
 20
415.3171720369
 30
0.0
 11
271.4658533502
 21
415.3171720369
 31
0.0
  0
LINE
  5
32E
  8
0
  6
CONTINUOUS
 62
     7
 10
271.4658533502
 20
415.3171720369
 30
0.0
 11
271.4658533502
 21
419.2465217057
 31
0.0
  0
LINE
  5
32F
  8
0
  6
CONTINUOUS
 62
     7
 10
272.8252437393
 20
473.1694609914
 30
0.0
 11
271.4658533502
 21
473.1694609914
 31
0.0
  0
LINE
  5
330
  8
0
  6
CONTINUOUS
 62
     7
 10
271.4658533502
 20
471.0217499458
 30
0.0
 11
271.4658533502
 21
473.1694609914
 31
0.0
  0
LINE
  5
331
  8
0
  6
CONTINUOUS
 62
     7
 10
272.8252437394
 20
413.1694609914
 30
0.0
 11
271.4658533502
 21
413.1694609914
 31
0.0
  0
LINE
  5
332
  8
0
  6
CONTINUOUS
 62
     7
 10
271.4658533502
 20
413.1694609914
 30
0.0
 11
271.4658533502
 21
415.3171720369
 31
0.0
  0
CIRCLE
  5
333
  8
0
  6
CONTINUOUS
 62
     7
 10
197.6658533502
 20
443.1694609914
 30
0.0
 40
3.25
  0
CIRCLE
  5
334
  8
0
  6
CONTINUOUS
 62
     7
 10
197.6658533502
 20
443.1694609914
 30
0.0
 40
3.75
  0
CIRCLE
  5
335
  8
0
  6
CONTINUOUS
 62
     7
 10
197.6658533502
 20
443.1694609914
 30
0.0
 40
5.250000000002046
  0
LINE
  5
336
  8
0
  6
CONTINUOUS
 62
     7
 10
204.8658533502
 20
429.6694609914
 30
0.0
 11
188.6658533502
 21
429.6694609914
 31
0.0
  0
LINE
  5
337
  8
0
  6
CONTINUOUS
 62
     7
 10
188.6658533502
 20
429.6694609914
 30
0.0
 11
188.6658533502
 21
456.6694609914
 31
0.0
  0
LINE
  5
338
  8
0
  6
CONTINUOUS
 62
     7
 10
188.6658533502
 20
456.6694609914
 30
0.0
 11
204.8658533502
 21
456.6694609914
 31
0.0
  0
LINE
  5
339
  8
0
  6
CONTINUOUS
 62
     7
 10
204.8658533502
 20
456.6694609914
 30
0.0
 11
204.8658533502
 21
429.6694609914
 31
0.0
  0
LINE
  5
33A
  8
0
  6
CONTINUOUS
 62
     7
 10
213.1658533502
 20
456.6694609914
 30
0.0
 11
204.8658533502
 21
456.6694609914
 31
0.0
  0
ARC
  5
33B
  8
0
  6
CONTINUOUS
 62
     7
 10
213.16510497
 20
452.6687126111
 30
0.0
 40
4.000748450203334
 50
0.0107177516
 51
89.9892822485
  0
LINE
  5
33C
  8
0
  6
CONTINUOUS
 62
     7
 10
217.1658533502
 20
452.6694609914
 30
0.0
 11
217.1658533502
 21
433.6694609913
 31
0.0
  0
ARC
  5
33D
  8
0
  6
CONTINUOUS
 62
     7
 10
213.1658533502
 20
433.6694609914
 30
0.0
 40
4.000000000000114
 50
270.0
 51
359.9999999999
  0
LINE
  5
33E
  8
0
  6
CONTINUOUS
 62
     7
 10
213.1658533502
 20
429.6694609914
 30
0.0
 11
204.8658533502
 21
429.6694609914
 31
0.0
  0
LINE
  5
33F
  8
0
  6
CONTINUOUS
 62
     7
 10
199.8658533502
 20
456.9694609914
 30
0.0
 11
205.8658533502
 21
456.9694609914
 31
0.0
  0
LINE
  5
340
  8
0
  6
CONTINUOUS
 62
     7
 10
271.4658533502
 20
463.5211516256
 30
0.0
 11
190.6658533502
 21
463.5211516256
 31
0.0
  0
LINE
  5
341
  8
0
  6
CONTINUOUS
 62
     7
 10
271.4658533502
 20
462.6694609914
 30
0.0
 11
190.6658533502
 21
462.6694609914
 31
0.0
  0
LINE
  5
342
  8
0
  6
CONTINUOUS
 62
     7
 10
190.6658533502
 20
462.6694609914
 30
0.0
 11
190.6658533502
 21
463.5211516256
 31
0.0
  0
LINE
  5
343
  8
0
  6
CONTINUOUS
 62
     7
 10
271.4658533502
 20
423.6694609914
 30
0.0
 11
190.6658533502
 21
423.6694609914
 31
0.0
  0
LINE
  5
344
  8
0
  6
CONTINUOUS
 62
     7
 10
190.6658533502
 20
461.1858780502
 30
0.0
 11
190.6658533502
 21
462.6694609914
 31
0.0
  0
LINE
  5
345
  8
0
  6
CONTINUOUS
 62
     7
 10
190.6658533502
 20
423.6694609914
 30
0.0
 11
190.6658533502
 21
429.6694609914
 31
0.0
  0
LINE
  5
346
  8
0
  6
CONTINUOUS
 62
     7
 10
271.4658533502
 20
422.8177703571
 30
0.0
 11
190.6658533502
 21
422.8177703571
 31
0.0
  0
LINE
  5
347
  8
0
  6
CONTINUOUS
 62
     7
 10
190.6658533502
 20
422.8177703571
 30
0.0
 11
190.6658533502
 21
423.6694609914
 31
0.0
  0
LINE
  5
348
  8
0
  6
CONTINUOUS
 62
     7
 10
271.4658533502
 20
467.092400277
 30
0.0
 11
190.6658533502
 21
467.092400277
 31
0.0
  0
LINE
  5
349
  8
0
  6
CONTINUOUS
 62
     7
 10
190.6658533502
 20
463.5211516256
 30
0.0
 11
190.6658533502
 21
467.092400277
 31
0.0
  0
LINE
  5
34A
  8
0
  6
CONTINUOUS
 62
     7
 10
271.4658533502
 20
419.2465217057
 30
0.0
 11
190.6658533502
 21
419.2465217057
 31
0.0
  0
LINE
  5
34B
  8
0
  6
CONTINUOUS
 62
     7
 10
190.6658533502
 20
419.2465217057
 30
0.0
 11
190.6658533502
 21
422.8177703571
 31
0.0
  0
LINE
  5
34C
  8
0
  6
CONTINUOUS
 62
     7
 10
271.4658533502
 20
471.0217499458
 30
0.0
 11
190.6658533502
 21
471.0217499458
 31
0.0
  0
LINE
  5
34D
  8
0
  6
CONTINUOUS
 62
     7
 10
190.6658533502
 20
467.092400277
 30
0.0
 11
190.6658533502
 21
471.0217499458
 31
0.0
  0
LINE
  5
34E
  8
0
  6
CONTINUOUS
 62
     7
 10
271.4658533502
 20
415.3171720369
 30
0.0
 11
190.6658533502
 21
415.3171720369
 31
0.0
  0
LINE
  5
34F
  8
0
  6
CONTINUOUS
 62
     7
 10
190.6658533502
 20
415.3171720369
 30
0.0
 11
190.6658533502
 21
419.2465217057
 31
0.0
  0
LINE
  5
350
  8
0
  6
CONTINUOUS
 62
     7
 10
271.4658533502
 20
473.1694609914
 30
0.0
 11
190.6658533502
 21
473.1694609914
 31
0.0
  0
LINE
  5
351
  8
0
  6
CONTINUOUS
 62
     7
 10
190.6658533502
 20
471.0217499458
 30
0.0
 11
190.6658533502
 21
473.1694609914
 31
0.0
  0
LINE
  5
352
  8
0
  6
CONTINUOUS
 62
     7
 10
271.4658533502
 20
413.1694609914
 30
0.0
 11
190.6658533502
 21
413.1694609914
 31
0.0
  0
LINE
  5
353
  8
0
  6
CONTINUOUS
 62
     7
 10
190.6658533502
 20
413.1694609914
 30
0.0
 11
190.6658533502
 21
415.3171720369
 31
0.0
  0
CIRCLE
  5
354
  8
0
  6
CONTINUOUS
 62
     7
 10
170.3658533502
 20
443.1694609914
 30
0.0
 40
3.0
  0
CIRCLE
  5
355
  8
0
  6
CONTINUOUS
 62
     7
 10
170.3658533502
 20
443.1694609914
 30
0.0
 40
5.0
  0
LINE
  5
356
  8
0
  6
CONTINUOUS
 62
     7
 10
176.3658533502
 20
430.1694609914
 30
0.0
 11
164.3658533502
 21
430.1694609914
 31
0.0
  0
LINE
  5
357
  8
0
  6
CONTINUOUS
 62
     7
 10
164.3658533502
 20
456.1694609914
 30
0.0
 11
176.3658533502
 21
456.1694609914
 31
0.0
  0
LINE
  5
358
  8
0
  6
CONTINUOUS
 62
     7
 10
176.3658533502
 20
430.1694609914
 30
0.0
 11
176.3658533502
 21
456.1694609914
 31
0.0
  0
LINE
  5
359
  8
0
  6
CONTINUOUS
 62
     7
 10
164.3658533502
 20
430.1694609914
 30
0.0
 11
164.3658533502
 21
456.1694609914
 31
0.0
  0
LINE
  5
35A
  8
0
  6
CONTINUOUS
 62
     7
 10
164.3083892122
 20
473.1694609914
 30
0.0
 11
163.6600023472
 21
473.1694609914
 31
0.0
  0
LINE
  5
35B
  8
0
  6
CONTINUOUS
 62
     7
 10
164.3083892122
 20
471.0217499458
 30
0.0
 11
164.3083892122
 21
473.1694609914
 31
0.0
  0
ARC
  5
35C
  8
0
  6
CONTINUOUS
 62
     7
 10
351.1477429223
 20
448.9698630453
 30
0.0
 40
188.1362001601519
 50
173.2687532447
 51
174.4723162803
  0
ARC
  5
35D
  8
0
  6
CONTINUOUS
 62
     7
 10
174.1261831938
 20
465.4185495157
 30
0.0
 40
10.37567097063507
 50
170.7162120636
 51
190.5369680661
  0
ARC
  5
35E
  8
0
  6
CONTINUOUS
 62
     7
 10
171.3732528107
 20
468.9160870545
 30
0.0
 40
9.196450903811753
 50
215.9183905961
 51
222.7845265413
  0
ARC
  5
35F
  8
0
  6
CONTINUOUS
 62
     7
 10
361.39720168
 20
443.1694609914
 30
0.0
 40
197.7371993328519
 50
174.3405358619
 51
185.6594641381
  0
ARC
  5
360
  8
0
  6
CONTINUOUS
 62
     7
 10
171.3732528107
 20
417.4228349282
 30
0.0
 40
9.196450903819018
 50
137.2154734587
 51
144.0816094039
  0
ARC
  5
361
  8
0
  6
CONTINUOUS
 62
     7
 10
172.4177154392
 20
420.9390571172
 30
0.0
 40
8.697568388130094
 50
167.5255387518
 51
191.2212811185
  0
ARC
  5
362
  8
0
  6
CONTINUOUS
 62
     7
 10
351.1477429217
 20
437.3690589374
 30
0.0
 40
188.1362001594921
 50
185.5276837197
 51
186.7312467553
  0
LINE
  5
363
  8
0
  6
CONTINUOUS
 62
     7
 10
164.3083892122
 20
413.1694609914
 30
0.0
 11
164.3083892122
 21
415.3171720369
 31
0.0
  0
LINE
  5
364
  8
0
  6
CONTINUOUS
 62
     7
 10
163.6600023472
 20
413.1694609914
 30
0.0
 11
164.3083892122
 21
413.1694609914
 31
0.0
  0
LINE
  5
365
  8
0
  6
CONTINUOUS
 62
     7
 10
162.9658533502
 20
468.1694609914
 30
0.0
 11
162.9658533502
 21
418.1694609914
 31
0.0
  0
LINE
  5
366
  8
0
  6
CONTINUOUS
 62
     7
 10
163.9254758978
 20
463.5211516256
 30
0.0
 11
176.8658533502
 21
463.5211516256
 31
0.0
  0
LINE
  5
367
  8
0
  6
CONTINUOUS
 62
     7
 10
164.6238549077
 20
462.6694609914
 30
0.0
 11
176.8658533502
 21
462.6694609914
 31
0.0
  0
LINE
  5
368
  8
0
  6
CONTINUOUS
 62
     7
 10
176.8658533502
 20
462.6694609914
 30
0.0
 11
176.8658533502
 21
463.5211516256
 31
0.0
  0
LINE
  5
369
  8
0
  6
CONTINUOUS
 62
     7
 10
164.6238549077
 20
423.6694609914
 30
0.0
 11
176.8658533502
 21
423.6694609914
 31
0.0
  0
LINE
  5
36A
  8
0
  6
CONTINUOUS
 62
     7
 10
176.8658533502
 20
423.6694609914
 30
0.0
 11
176.8658533502
 21
462.6694609914
 31
0.0
  0
LINE
  5
36B
  8
0
  6
CONTINUOUS
 62
     7
 10
163.9254758978
 20
422.8177703571
 30
0.0
 11
176.8658533502
 21
422.8177703571
 31
0.0
  0
LINE
  5
36C
  8
0
  6
CONTINUOUS
 62
     7
 10
176.8658533502
 20
422.8177703571
 30
0.0
 11
176.8658533502
 21
423.6694609914
 31
0.0
  0
LINE
  5
36D
  8
0
  6
CONTINUOUS
 62
     7
 10
163.8864189523
 20
467.092400277
 30
0.0
 11
176.8658533502
 21
467.092400277
 31
0.0
  0
LINE
  5
36E
  8
0
  6
CONTINUOUS
 62
     7
 10
176.8658533502
 20
463.5211516256
 30
0.0
 11
176.8658533502
 21
467.092400277
 31
0.0
  0
LINE
  5
36F
  8
0
  6
CONTINUOUS
 62
     7
 10
163.8864189523
 20
419.2465217057
 30
0.0
 11
176.8658533502
 21
419.2465217057
 31
0.0
  0
LINE
  5
370
  8
0
  6
CONTINUOUS
 62
     7
 10
176.8658533502
 20
419.2465217057
 30
0.0
 11
176.8658533502
 21
422.8177703571
 31
0.0
  0
LINE
  5
371
  8
0
  6
CONTINUOUS
 62
     7
 10
164.3083892122
 20
471.0217499458
 30
0.0
 11
176.8658533502
 21
471.0217499458
 31
0.0
  0
LINE
  5
372
  8
0
  6
CONTINUOUS
 62
     7
 10
176.8658533502
 20
467.092400277
 30
0.0
 11
176.8658533502
 21
471.0217499458
 31
0.0
  0
LINE
  5
373
  8
0
  6
CONTINUOUS
 62
     7
 10
164.3083892122
 20
415.3171720369
 30
0.0
 11
176.8658533502
 21
415.3171720369
 31
0.0
  0
LINE
  5
374
  8
0
  6
CONTINUOUS
 62
     7
 10
176.8658533502
 20
415.3171720369
 30
0.0
 11
176.8658533502
 21
419.2465217057
 31
0.0
  0
LINE
  5
375
  8
0
  6
CONTINUOUS
 62
     7
 10
164.3083892122
 20
473.1694609914
 30
0.0
 11
176.8658533502
 21
473.1694609914
 31
0.0
  0
LINE
  5
376
  8
0
  6
CONTINUOUS
 62
     7
 10
176.8658533502
 20
471.0217499458
 30
0.0
 11
176.8658533502
 21
473.1694609914
 31
0.0
  0
LINE
  5
377
  8
0
  6
CONTINUOUS
 62
     7
 10
164.3083892122
 20
413.1694609914
 30
0.0
 11
176.8658533502
 21
413.1694609914
 31
0.0
  0
LINE
  5
378
  8
0
  6
CONTINUOUS
 62
     7
 10
176.8658533502
 20
413.1694609914
 30
0.0
 11
176.8658533502
 21
415.3171720369
 31
0.0
  0
LINE
  5
379
  8
0
  6
CONTINUOUS
 62
     7
 10
190.6658533502
 20
463.5211516256
 30
0.0
 11
187.6658533502
 21
463.5211516256
 31
0.0
  0
LINE
  5
37A
  8
0
  6
CONTINUOUS
 62
     7
 10
190.6658533502
 20
462.6694609914
 30
0.0
 11
187.6658533502
 21
462.6694609914
 31
0.0
  0
LINE
  5
37B
  8
0
  6
CONTINUOUS
 62
     7
 10
187.6658533502
 20
463.5211516256
 30
0.0
 11
187.6658533502
 21
462.6694609914
 31
0.0
  0
LINE
  5
37C
  8
0
  6
CONTINUOUS
 62
     7
 10
190.6658533502
 20
423.6694609914
 30
0.0
 11
187.6658533502
 21
423.6694609914
 31
0.0
  0
LINE
  5
37D
  8
0
  6
CONTINUOUS
 62
     7
 10
187.6658533502
 20
462.6694609914
 30
0.0
 11
187.6658533502
 21
423.6694609914
 31
0.0
  0
LINE
  5
37E
  8
0
  6
CONTINUOUS
 62
     7
 10
190.6658533502
 20
422.8177703571
 30
0.0
 11
187.6658533502
 21
422.8177703571
 31
0.0
  0
LINE
  5
37F
  8
0
  6
CONTINUOUS
 62
     7
 10
187.6658533502
 20
423.6694609914
 30
0.0
 11
187.6658533502
 21
422.8177703571
 31
0.0
  0
LINE
  5
380
  8
0
  6
CONTINUOUS
 62
     7
 10
190.6658533502
 20
467.092400277
 30
0.0
 11
187.6658533502
 21
467.092400277
 31
0.0
  0
LINE
  5
381
  8
0
  6
CONTINUOUS
 62
     7
 10
187.6658533502
 20
467.092400277
 30
0.0
 11
187.6658533502
 21
463.5211516256
 31
0.0
  0
LINE
  5
382
  8
0
  6
CONTINUOUS
 62
     7
 10
190.6658533502
 20
419.2465217057
 30
0.0
 11
187.6658533502
 21
419.2465217057
 31
0.0
  0
LINE
  5
383
  8
0
  6
CONTINUOUS
 62
     7
 10
187.6658533502
 20
422.8177703571
 30
0.0
 11
187.6658533502
 21
419.2465217057
 31
0.0
  0
LINE
  5
384
  8
0
  6
CONTINUOUS
 62
     7
 10
190.6658533502
 20
471.0217499458
 30
0.0
 11
187.6658533502
 21
471.0217499458
 31
0.0
  0
LINE
  5
385
  8
0
  6
CONTINUOUS
 62
     7
 10
187.6658533502
 20
471.0217499458
 30
0.0
 11
187.6658533502
 21
467.092400277
 31
0.0
  0
LINE
  5
386
  8
0
  6
CONTINUOUS
 62
     7
 10
190.6658533502
 20
415.3171720369
 30
0.0
 11
187.6658533502
 21
415.3171720369
 31
0.0
  0
LINE
  5
387
  8
0
  6
CONTINUOUS
 62
     7
 10
187.6658533502
 20
419.2465217057
 30
0.0
 11
187.6658533502
 21
415.3171720369
 31
0.0
  0
LINE
  5
388
  8
0
  6
CONTINUOUS
 62
     7
 10
190.6658533502
 20
473.1694609914
 30
0.0
 11
187.6658533502
 21
473.1694609914
 31
0.0
  0
LINE
  5
389
  8
0
  6
CONTINUOUS
 62
     7
 10
187.6658533502
 20
473.1694609914
 30
0.0
 11
187.6658533502
 21
471.0217499458
 31
0.0
  0
LINE
  5
38A
  8
0
  6
CONTINUOUS
 62
     7
 10
190.6658533502
 20
413.1694609914
 30
0.0
 11
187.6658533502
 21
413.1694609914
 31
0.0
  0
LINE
  5
38B
  8
0
  6
CONTINUOUS
 62
     7
 10
187.6658533502
 20
415.3171720369
 30
0.0
 11
187.6658533502
 21
413.1694609914
 31
0.0
  0
LINE
  5
38C
  8
0
  6
CONTINUOUS
 62
     7
 10
187.6658533502
 20
463.5211516256
 30
0.0
 11
176.8658533502
 21
463.5211516256
 31
0.0
  0
LINE
  5
38D
  8
0
  6
CONTINUOUS
 62
     7
 10
187.6658533502
 20
462.6694609914
 30
0.0
 11
176.8658533502
 21
462.6694609914
 31
0.0
  0
LINE
  5
38E
  8
0
  6
CONTINUOUS
 62
     7
 10
187.6658533502
 20
423.6694609914
 30
0.0
 11
176.8658533502
 21
423.6694609914
 31
0.0
  0
LINE
  5
38F
  8
0
  6
CONTINUOUS
 62
     7
 10
187.6658533502
 20
422.8177703571
 30
0.0
 11
176.8658533502
 21
422.8177703571
 31
0.0
  0
LINE
  5
390
  8
0
  6
CONTINUOUS
 62
     7
 10
187.6658533502
 20
467.092400277
 30
0.0
 11
176.8658533502
 21
467.092400277
 31
0.0
  0
LINE
  5
391
  8
0
  6
CONTINUOUS
 62
     7
 10
187.6658533502
 20
419.2465217057
 30
0.0
 11
176.8658533502
 21
419.2465217057
 31
0.0
  0
LINE
  5
392
  8
0
  6
CONTINUOUS
 62
     7
 10
187.6658533502
 20
471.0217499458
 30
0.0
 11
176.8658533502
 21
471.0217499458
 31
0.0
  0
LINE
  5
393
  8
0
  6
CONTINUOUS
 62
     7
 10
187.6658533502
 20
415.3171720369
 30
0.0
 11
176.8658533502
 21
415.3171720369
 31
0.0
  0
LINE
  5
394
  8
0
  6
CONTINUOUS
 62
     7
 10
187.6658533502
 20
473.1694609914
 30
0.0
 11
176.8658533502
 21
473.1694609914
 31
0.0
  0
LINE
  5
395
  8
0
  6
CONTINUOUS
 62
     7
 10
187.6658533502
 20
413.1694609914
 30
0.0
 11
176.8658533502
 21
413.1694609914
 31
0.0
  0
ENDSEC
  0
EOF
