  0
SECTION
  2
HEADER
  9
$ACADVER
  1
AC1009
  9
$DWGCODEPAGE
  3
dos932
  9
$INSBASE
 10
0.0
 20
0.0
 30
0.0
  9
$EXTMIN
 10
0.0
 20
0.0
 30
0.0
  9
$EXTMAX
 10
431.8
 20
279.4
 30
0.0
  9
$LIMMIN
 10
0.0
 20
0.0
  9
$LIMMAX
 10
431.8
 20
279.4
  9
$ORTHOMODE
 70
     0
  9
$REGENMODE
 70
     1
  9
$FILLMODE
 70
     1
  9
$QTEXTMODE
 70
     0
  9
$MIRRTEXT
 70
     1
  9
$DRAGMODE
 70
     2
  9
$LTSCALE
 40
1.0
  9
$OSMODE
 70
    37
  9
$ATTMODE
 70
     1
  9
$TEXTSIZE
 40
3.5
  9
$TRACEWID
 40
1.0
  9
$TEXTSTYLE
  7
STANDARD
  9
$CLAYER
  8
0
  9
$CELTYPE
  6
BYLAYER
  9
$CECOLOR
 62
   256
  9
$DIMSCALE
 40
1.0
  9
$DIMASZ
 40
3.0
  9
$DIMEXO
 40
0.01
  9
$DIMDLI
 40
3.75
  9
$DIMRND
 40
0.0
  9
$DIMDLE
 40
0.0
  9
$DIMEXE
 40
1.0
  9
$DIMTP
 40
0.0
  9
$DIMTM
 40
0.0
  9
$DIMTXT
 40
3.5
  9
$DIMCEN
 40
2.5
  9
$DIMTSZ
 40
0.0
  9
$DIMTOL
 70
     0
  9
$DIMLIM
 70
     0
  9
$DIMTIH
 70
     1
  9
$DIMTOH
 70
     1
  9
$DIMSE1
 70
     0
  9
$DIMSE2
 70
     0
  9
$DIMTAD
 70
     1
  9
$DIMZIN
 70
     0
  9
$DIMBLK
  1

  9
$DIMASO
 70
     1
  9
$DIMSHO
 70
     1
  9
$DIMPOST
  1

  9
$DIMAPOST
  1

  9
$DIMALT
 70
     0
  9
$DIMALTD
 70
     3
  9
$DIMALTF
 40
0.0393700787
  9
$DIMLFAC
 40
1.0
  9
$DIMTOFL
 70
     1
  9
$DIMTVP
 40
0.0
  9
$DIMTIX
 70
     0
  9
$DIMSOXD
 70
     0
  9
$DIMSAH
 70
     0
  9
$DIMBLK1
  1

  9
$DIMBLK2
  1

  9
$DIMSTYLE
  2
ISO-25
  9
$DIMCLRD
 70
     0
  9
$DIMCLRE
 70
     0
  9
$DIMCLRT
 70
     0
  9
$DIMTFAC
 40
1.0
  9
$DIMGAP
 40
1.524
  9
$LUNITS
 70
     2
  9
$LUPREC
 70
     2
  9
$SKETCHINC
 40
1.0
  9
$FILLETRAD
 40
10.0
  9
$AUNITS
 70
     0
  9
$AUPREC
 70
     2
  9
$MENU
  1
.
  9
$ELEVATION
 40
0.0
  9
$PELEVATION
 40
0.0
  9
$THICKNESS
 40
0.0
  9
$LIMCHECK
 70
     0
  9
$CHAMFERA
 40
0.0
  9
$CHAMFERB
 40
0.0
  9
$SKPOLY
 70
     0
  9
$TDCREATE
 40
2457515.568570475
  9
$TDUPDATE
 40
2457515.568571736
  9
$TDINDWG
 40
0.0000000116
  9
$TDUSRTIMER
 40
0.0000000116
  9
$USRTIMER
 70
     1
  9
$ANGBASE
 50
0.0
  9
$ANGDIR
 70
     0
  9
$PDMODE
 70
     0
  9
$PDSIZE
 40
-1.0
  9
$PLINEWID
 40
0.0
  9
$COORDS
 70
     1
  9
$SPLFRAME
 70
     0
  9
$SPLINETYPE
 70
     6
  9
$SPLINESEGS
 70
     8
  9
$ATTDIA
 70
     0
  9
$ATTREQ
 70
     1
  9
$HANDLING
 70
     1
  9
$HANDSEED
  5
751
  9
$SURFTAB1
 70
     6
  9
$SURFTAB2
 70
     6
  9
$SURFTYPE
 70
     6
  9
$SURFU
 70
     6
  9
$SURFV
 70
     6
  9
$UCSNAME
  2

  9
$UCSORG
 10
0.0
 20
0.0
 30
0.0
  9
$UCSXDIR
 10
1.0
 20
0.0
 30
0.0
  9
$UCSYDIR
 10
0.0
 20
1.0
 30
0.0
  9
$PUCSNAME
  2

  9
$PUCSORG
 10
0.0
 20
0.0
 30
0.0
  9
$PUCSXDIR
 10
1.0
 20
0.0
 30
0.0
  9
$PUCSYDIR
 10
0.0
 20
1.0
 30
0.0
  9
$USERI1
 70
     0
  9
$USERI2
 70
     0
  9
$USERI3
 70
     0
  9
$USERI4
 70
     0
  9
$USERI5
 70
     0
  9
$USERR1
 40
0.0
  9
$USERR2
 40
0.0
  9
$USERR3
 40
0.0
  9
$USERR4
 40
0.0
  9
$USERR5
 40
0.0
  9
$WORLDVIEW
 70
     1
  9
$SHADEDGE
 70
     3
  9
$SHADEDIF
 70
    70
  9
$TILEMODE
 70
     1
  9
$MAXACTVP
 70
    64
  9
$PLIMCHECK
 70
     0
  9
$PEXTMIN
 10
1.0000000000E+20
 20
1.0000000000E+20
 30
1.0000000000E+20
  9
$PEXTMAX
 10
-1.0000000000E+20
 20
-1.0000000000E+20
 30
-1.0000000000E+20
  9
$PLIMMIN
 10
0.0
 20
0.0
  9
$PLIMMAX
 10
420.0
 20
297.0
  9
$UNITMODE
 70
     0
  9
$VISRETAIN
 70
     1
  9
$PLINEGEN
 70
     0
  9
$PSLTSCALE
 70
     1
  0
ENDSEC
  0
SECTION
  2
TABLES
  0
TABLE
  2
VPORT
 70
     1
  0
VPORT
  2
*ACTIVE
 70
     0
 10
0.0
 20
0.0
 11
1.0
 21
1.0
 12
215.9
 22
139.7
 13
0.0
 23
0.0
 14
10.0
 24
10.0
 15
10.0
 25
10.0
 16
0.0
 26
0.0
 36
1.0
 17
0.0
 27
0.0
 37
0.0
 40
279.4
 41
1.5454545455
 42
50.0
 43
0.0
 44
0.0
 50
0.0
 51
0.0
 71
     0
 72
  2000
 73
     1
 74
     3
 75
     0
 76
     0
 77
     0
 78
     0
  0
ENDTAB
  0
TABLE
  2
LTYPE
 70
     6
  0
LTYPE
  2
CONTINUOUS
 70
     0
  3
Solid line
 72
    65
 73
     0
 40
0.0
  0
LTYPE
  2
HIDDEN
 70
     0
  3
Hidden __ __ __ __ __ __ __ __ __ __ __ __ __ __
 72
    65
 73
     2
 40
1.905
 49
1.27
 49
-0.635
  0
LTYPE
  2
PHANTOM
 70
     0
  3
Phantom ______  __  __  ______  __  __  ______
 72
    65
 73
     6
 40
12.7
 49
6.35
 49
-1.27
 49
1.27
 49
-1.27
 49
1.27
 49
-1.27
  0
LTYPE
  2
CENTER
 70
     0
  3
Center ____ _ ____ _ ____ _ ____ _ ____ _ ____
 72
    65
 73
     4
 40
10.16
 49
6.35
 49
-1.27
 49
1.27
 49
-1.27
  0
LTYPE
  2
CENTERX2
 70
     0
  3
Center (2x) ________  __  ________  __  _____
 72
    65
 73
     4
 40
20.32
 49
12.7
 49
-2.54
 49
2.54
 49
-2.54
  0
LTYPE
  2
DOT2
 70
     0
  3
Dot (.5x) ........................................
 72
    65
 73
     2
 40
0.635
 49
0.0
 49
-0.635
  0
ENDTAB
  0
TABLE
  2
LAYER
 70
     3
  0
LAYER
  2
0
 70
     0
 62
     7
  6
CONTINUOUS
  0
LAYER
  2
DIM
 70
     0
 62
     7
  6
CONTINUOUS
  0
LAYER
  2
TXT
 70
     0
 62
     7
  6
CONTINUOUS
  0
ENDTAB
  0
TABLE
  2
STYLE
 70
     1
  0
STYLE
  2
STANDARD
 70
     0
 40
0.0
 41
1.0
 50
0.0
 71
     0
 42
3.5
  3
txt
  4
bigfont
  0
ENDTAB
  0
TABLE
  2
VIEW
 70
     0
  0
ENDTAB
  0
TABLE
  2
UCS
 70
     0
  0
ENDTAB
  0
TABLE
  2
APPID
 70
     1
  0
APPID
  2
ACAD
 70
     0
  0
ENDTAB
  0
TABLE
  2
DIMSTYLE
 70
     1
  0
DIMSTYLE
  2
ISO-25
 70
     0
  3

  4

  5

  6

  7

 40
1.0
 41
2.5
 42
0.625
 43
3.75
 44
1.25
 45
0.0
 46
0.0
 47
0.0
 48
0.0
140
2.5
141
2.5
142
0.0
143
0.0393700787
144
1.0
145
0.0
146
1.0
147
0.625
 71
     0
 72
     0
 73
     0
 74
     0
 75
     0
 76
     0
 77
     1
 78
     8
170
     0
171
     3
172
     1
173
     0
174
     0
175
     0
176
     0
177
     0
178
     0
  0
ENDTAB
  0
ENDSEC
  0
SECTION
  2
BLOCKS
  0
BLOCK
  8
0
  2
$MODEL_SPACE
 70
     0
 10
0.0
 20
0.0
 30
0.0
  3
$MODEL_SPACE
  1

  0
ENDBLK
  5
21
  8
0
  0
BLOCK
 67
     1
  8
0
  2
$PAPER_SPACE
 70
     0
 10
0.0
 20
0.0
 30
0.0
  3
$PAPER_SPACE
  1

  0
ENDBLK
  5
1D
 67
     1
  8
0
  0
ENDSEC
  0
SECTION
  2
ENTITIES
  0
LINE
  5
71
  8
0
  6
CONTINUOUS
 62
     7
 10
267.5424272987
 20
75.0197642774
 30
0.0
 11
265.5424272037
 21
75.0197642774
 31
0.0
  0
LINE
  5
72
  8
0
  6
CONTINUOUS
 62
     7
 10
265.5424272037
 20
39.0197658271
 30
0.0
 11
267.5424272987
 21
39.0197658271
 31
0.0
  0
LINE
  5
73
  8
0
  6
CONTINUOUS
 62
     7
 10
289.5424274123
 20
62.0197649405
 30
0.0
 11
267.5424272987
 21
62.0197649405
 31
0.0
  0
LINE
  5
74
  8
0
  6
CONTINUOUS
 62
     7
 10
267.5424272987
 20
52.019765164
 30
0.0
 11
289.5424274123
 21
52.019765164
 31
0.0
  0
LINE
  5
75
  8
0
  6
CONTINUOUS
 62
     7
 10
188.2424299932
 20
14.0197635919
 30
0.0
 11
188.2424299932
 21
-193.3802417189
 31
0.0
  0
LINE
  5
76
  8
0
  6
CONTINUOUS
 62
     7
 10
196.2424238539
 20
-193.3802417189
 30
0.0
 11
196.2424238539
 21
14.0197635919
 31
0.0
  0
ARC
  5
77
  8
0
  6
CONTINUOUS
 62
     7
 10
316.8393605564
 20
57.0197650522
 30
0.0
 40
150.0
 50
168.4630409672
 51
169.1063172186
  0
LINE
  5
78
  8
0
  6
CONTINUOUS
 62
     7
 10
169.5424263692
 20
85.3678421408
 30
0.0
 11
168.04243078
 21
82.769765082
 31
0.0
  0
LINE
  5
79
  8
0
  6
CONTINUOUS
 62
     7
 10
171.5424304223
 20
14.0197635919
 30
0.0
 11
171.5424304223
 21
-229.4802418619
 31
0.0
  0
LINE
  5
7A
  8
0
  6
CONTINUOUS
 62
     7
 10
177.5424276805
 20
-229.4802418619
 30
0.0
 11
177.5424276805
 21
14.0197635919
 31
0.0
  0
LINE
  5
7B
  8
0
  6
CONTINUOUS
 62
     7
 10
199.4848494744
 20
16.0404579074
 30
0.0
 11
211.755255363
 21
22.0260233909
 31
0.0
  0
LINE
  5
7C
  8
0
  6
CONTINUOUS
 62
     7
 10
197.4273418403
 20
16.0197639197
 30
0.0
 11
199.4424258685
 21
16.0197639197
 31
0.0
  0
LINE
  5
7D
  8
0
  6
CONTINUOUS
 62
     7
 10
183.242427311
 20
16.0197639197
 30
0.0
 11
186.9924237347
 21
16.0197639197
 31
0.0
  0
LINE
  5
7E
  8
0
  6
CONTINUOUS
 62
     7
 10
186.9924237347
 20
16.0197639197
 30
0.0
 11
186.9924237347
 21
14.0197635919
 31
0.0
  0
LINE
  5
7F
  8
0
  6
CONTINUOUS
 62
     7
 10
197.4924301124
 20
14.0197635919
 30
0.0
 11
197.4924301124
 21
16.0253853828
 31
0.0
  0
ARC
  5
80
  8
0
  6
CONTINUOUS
 62
     7
 10
188.2424272037
 20
-217.8802349478
 30
0.0
 40
0.5
 50
180.0
 51
270.0
  0
ARC
  5
81
  8
0
  6
CONTINUOUS
 62
     7
 10
196.2424272037
 20
-217.8802349478
 30
0.0
 40
0.5
 50
270.0
 51
0.0
  0
LINE
  5
82
  8
0
  6
CONTINUOUS
 62
     7
 10
187.7424289799
 20
-193.3802417189
 30
0.0
 11
187.7424289799
 21
-217.8802243143
 31
0.0
  0
LINE
  5
83
  8
0
  6
CONTINUOUS
 62
     7
 10
196.7424248672
 20
-217.8802243143
 30
0.0
 11
196.7424248672
 21
-193.3802417189
 31
0.0
  0
ARC
  5
84
  8
0
  6
CONTINUOUS
 62
     7
 10
188.2424272037
 20
-218.8802349478
 30
0.0
 40
0.5
 50
0.0
 51
90.0
  0
ARC
  5
85
  8
0
  6
CONTINUOUS
 62
     7
 10
196.2424272037
 20
-218.8802349478
 30
0.0
 40
0.5
 50
90.0
 51
180.0
  0
LINE
  5
86
  8
0
  6
CONTINUOUS
 62
     7
 10
188.7424235559
 20
-218.880241242
 30
0.0
 11
188.7424235559
 21
-233.3802333742
 31
0.0
  0
LINE
  5
87
  8
0
  6
CONTINUOUS
 62
     7
 10
195.7424302912
 20
-233.3802333742
 30
0.0
 11
195.7424302912
 21
-218.880241242
 31
0.0
  0
POLYLINE
  5
88
  8
0
  6
CONTINUOUS
 62
     7
 66
     1
 10
0.0
 20
0.0
 30
0.0
 70
   128
  0
VERTEX
  5
640
  8
0
  6
CONTINUOUS
 62
     7
 10
197.5590457535
 20
-253.380244103
 30
0.0
  0
VERTEX
  5
641
  8
0
  6
CONTINUOUS
 62
     7
 10
196.4256485319
 20
-244.8781779676
 30
0.0
  0
VERTEX
  5
642
  8
0
  6
CONTINUOUS
 62
     7
 10
194.8945393181
 20
-233.3802333742
 30
0.0
  0
SEQEND
  5
722
  8
0
  6
CONTINUOUS
 62
     7
  0
POLYLINE
  5
89
  8
0
  6
CONTINUOUS
 62
     7
 66
     1
 10
0.0
 20
0.0
 30
0.0
 70
   128
  0
VERTEX
  5
643
  8
0
  6
CONTINUOUS
 62
     7
 10
193.3945437288
 20
-233.3802333742
 30
0.0
  0
VERTEX
  5
644
  8
0
  6
CONTINUOUS
 62
     7
 10
194.6613137937
 20
-242.882286635
 30
0.0
  0
VERTEX
  5
645
  8
0
  6
CONTINUOUS
 62
     7
 10
196.0593258357
 20
-253.380244103
 30
0.0
  0
SEQEND
  5
723
  8
0
  6
CONTINUOUS
 62
     7
  0
POLYLINE
  5
8A
  8
0
  6
CONTINUOUS
 62
     7
 66
     1
 10
0.0
 20
0.0
 30
0.0
 70
   128
  0
VERTEX
  5
646
  8
0
  6
CONTINUOUS
 62
     7
 10
189.3749554968
 20
-253.380244103
 30
0.0
  0
VERTEX
  5
647
  8
0
  6
CONTINUOUS
 62
     7
 10
190.2019997454
 20
-243.3657399088
 30
0.0
  0
VERTEX
  5
648
  8
0
  6
CONTINUOUS
 62
     7
 10
190.4494782305
 20
-240.5128529936
 30
0.0
  0
VERTEX
  5
649
  8
0
  6
CONTINUOUS
 62
     7
 10
191.0901760078
 20
-233.3802333742
 30
0.0
  0
SEQEND
  5
724
  8
0
  6
CONTINUOUS
 62
     7
  0
POLYLINE
  5
8B
  8
0
  6
CONTINUOUS
 62
     7
 66
     1
 10
0.0
 20
0.0
 30
0.0
 70
   128
  0
VERTEX
  5
64A
  8
0
  6
CONTINUOUS
 62
     7
 10
189.5904486394
 20
-233.3802333742
 30
0.0
  0
VERTEX
  5
64B
  8
0
  6
CONTINUOUS
 62
     7
 10
189.010473094
 20
-240.5054918199
 30
0.0
  0
VERTEX
  5
64C
  8
0
  6
CONTINUOUS
 62
     7
 10
188.7699012971
 20
-243.3533123403
 30
0.0
  0
VERTEX
  5
64D
  8
0
  6
CONTINUOUS
 62
     7
 10
187.8811215377
 20
-253.380244103
 30
0.0
  0
SEQEND
  5
725
  8
0
  6
CONTINUOUS
 62
     7
  0
POLYLINE
  5
8C
  8
0
  6
CONTINUOUS
 62
     7
 66
     1
 10
0.0
 20
0.0
 30
0.0
 70
   128
  0
VERTEX
  5
64E
  8
0
  6
CONTINUOUS
 62
     7
 10
191.4929022408
 20
-233.3802333742
 30
0.0
  0
VERTEX
  5
64F
  8
0
  6
CONTINUOUS
 62
     7
 10
191.7260383582
 20
-242.882286635
 30
0.0
  0
VERTEX
  5
650
  8
0
  6
CONTINUOUS
 62
     7
 10
191.9692551112
 20
-253.380244103
 30
0.0
  0
SEQEND
  5
726
  8
0
  6
CONTINUOUS
 62
     7
  0
POLYLINE
  5
8D
  8
0
  6
CONTINUOUS
 62
     7
 66
     1
 10
0.0
 20
0.0
 30
0.0
 70
   128
  0
VERTEX
  5
651
  8
0
  6
CONTINUOUS
 62
     7
 10
193.4678425408
 20
-253.380244103
 30
0.0
  0
VERTEX
  5
652
  8
0
  6
CONTINUOUS
 62
     7
 10
193.2588165021
 20
-244.8781779676
 30
0.0
  0
VERTEX
  5
653
  8
0
  6
CONTINUOUS
 62
     7
 10
192.9919516063
 20
-233.3802333742
 30
0.0
  0
SEQEND
  5
727
  8
0
  6
CONTINUOUS
 62
     7
  0
POLYLINE
  5
8E
  8
0
  6
CONTINUOUS
 62
     7
 66
     1
 10
0.0
 20
0.0
 30
0.0
 70
   128
  0
VERTEX
  5
654
  8
0
  6
CONTINUOUS
 62
     7
 10
189.4122829056
 20
-253.380244103
 30
0.0
  0
VERTEX
  5
655
  8
0
  6
CONTINUOUS
 62
     7
 10
190.4320885754
 20
-244.8781779676
 30
0.0
  0
VERTEX
  5
656
  8
0
  6
CONTINUOUS
 62
     7
 10
191.5477236128
 20
-235.6146326929
 30
0.0
  0
SEQEND
  5
728
  8
0
  6
CONTINUOUS
 62
     7
  0
POLYLINE
  5
8F
  8
0
  6
CONTINUOUS
 62
     7
 66
     1
 10
0.0
 20
0.0
 30
0.0
 70
   128
  0
VERTEX
  5
657
  8
0
  6
CONTINUOUS
 62
     7
 10
193.0438821531
 20
-235.6177917391
 30
0.0
  0
VERTEX
  5
658
  8
0
  6
CONTINUOUS
 62
     7
 10
194.2642351008
 20
-242.882286635
 30
0.0
  0
VERTEX
  5
659
  8
0
  6
CONTINUOUS
 62
     7
 10
196.0248519993
 20
-253.380244103
 30
0.0
  0
SEQEND
  5
729
  8
0
  6
CONTINUOUS
 62
     7
  0
LINE
  5
90
  8
0
  6
CONTINUOUS
 62
     7
 10
179.48053231
 20
16.0197639197
 30
0.0
 11
180.5424263096
 21
16.0197639197
 31
0.0
  0
LINE
  5
91
  8
0
  6
CONTINUOUS
 62
     7
 10
168.5424243427
 20
16.0197639197
 30
0.0
 11
169.5424263692
 21
16.0197639197
 31
0.0
  0
LINE
  5
92
  8
0
  6
CONTINUOUS
 62
     7
 10
169.5424263692
 20
16.0197639197
 30
0.0
 11
169.5424263692
 21
14.0197635919
 31
0.0
  0
LINE
  5
93
  8
0
  6
CONTINUOUS
 62
     7
 10
179.542424283
 20
14.0197635919
 30
0.0
 11
179.542424283
 21
16.0248563916
 31
0.0
  0
LINE
  5
94
  8
0
  6
CONTINUOUS
 62
     7
 10
258.5424269876
 20
43.0197646201
 30
0.0
 11
255.0424273452
 21
43.0197646201
 31
0.0
  0
LINE
  5
95
  8
0
  6
CONTINUOUS
 62
     7
 10
258.5424269876
 20
71.0197654844
 30
0.0
 11
255.0424273452
 21
71.0197654844
 31
0.0
  0
LINE
  5
96
  8
0
  6
CONTINUOUS
 62
     7
 10
265.5424272037
 20
81.7197659344
 30
0.0
 11
258.5424269876
 21
81.7197659344
 31
0.0
  0
LINE
  5
97
  8
0
  6
CONTINUOUS
 62
     7
 10
265.5424272037
 20
32.3197641701
 30
0.0
 11
265.5424272037
 21
81.7197659344
 31
0.0
  0
LINE
  5
98
  8
0
  6
CONTINUOUS
 62
     7
 10
258.5424269876
 20
32.3197641701
 30
0.0
 11
265.5424272037
 21
32.3197641701
 31
0.0
  0
LINE
  5
99
  8
0
  6
CONTINUOUS
 62
     7
 10
255.0424273452
 20
71.0197654844
 30
0.0
 11
255.0424273452
 21
43.0197646201
 31
0.0
  0
LINE
  5
9A
  8
0
  6
CONTINUOUS
 62
     7
 10
258.5424269876
 20
81.7197659344
 30
0.0
 11
258.5424269876
 21
71.0197654844
 31
0.0
  0
LINE
  5
9B
  8
0
  6
CONTINUOUS
 62
     7
 10
258.5424269876
 20
32.3197641701
 30
0.0
 11
258.5424269876
 21
43.0197646201
 31
0.0
  0
LINE
  5
9C
  8
0
  6
CONTINUOUS
 62
     7
 10
258.5424269876
 20
36.819765839
 30
0.0
 11
255.0424273452
 21
36.819765839
 31
0.0
  0
LINE
  5
9D
  8
0
  6
CONTINUOUS
 62
     7
 10
255.0424273452
 20
43.0197646201
 30
0.0
 11
255.0424273452
 21
36.819765839
 31
0.0
  0
LINE
  5
9E
  8
0
  6
CONTINUOUS
 62
     7
 10
258.5424269876
 20
77.2197642655
 30
0.0
 11
255.0424273452
 21
77.2197642655
 31
0.0
  0
LINE
  5
9F
  8
0
  6
CONTINUOUS
 62
     7
 10
255.0424273452
 20
71.0197654844
 30
0.0
 11
255.0424273452
 21
77.2197642655
 31
0.0
  0
LINE
  5
A0
  8
0
  6
CONTINUOUS
 62
     7
 10
265.5424272037
 20
27.0197657228
 30
0.0
 11
258.5424269876
 21
27.0197657228
 31
0.0
  0
LINE
  5
A1
  8
0
  6
CONTINUOUS
 62
     7
 10
265.5424272037
 20
32.3197641701
 30
0.0
 11
265.5424272037
 21
27.0197657228
 31
0.0
  0
LINE
  5
A2
  8
0
  6
CONTINUOUS
 62
     7
 10
258.5424269876
 20
27.0197657228
 30
0.0
 11
258.5424269876
 21
32.3197641701
 31
0.0
  0
LINE
  5
A3
  8
0
  6
CONTINUOUS
 62
     7
 10
258.5424269876
 20
87.0197643817
 30
0.0
 11
265.5424272037
 21
87.0197643817
 31
0.0
  0
LINE
  5
A4
  8
0
  6
CONTINUOUS
 62
     7
 10
265.5424272037
 20
87.0197643817
 30
0.0
 11
265.5424272037
 21
81.7197659344
 31
0.0
  0
LINE
  5
A5
  8
0
  6
CONTINUOUS
 62
     7
 10
258.5424269876
 20
81.7197659344
 30
0.0
 11
258.5424269876
 21
87.0197643817
 31
0.0
  0
LINE
  5
A6
  8
0
  6
CONTINUOUS
 62
     7
 10
258.5424269876
 20
32.0197646797
 30
0.0
 11
255.0424273452
 21
32.0197646797
 31
0.0
  0
LINE
  5
A7
  8
0
  6
CONTINUOUS
 62
     7
 10
255.0424273452
 20
36.819765839
 30
0.0
 11
255.0424273452
 21
32.0197646797
 31
0.0
  0
LINE
  5
A8
  8
0
  6
CONTINUOUS
 62
     7
 10
258.5424269876
 20
82.0197654248
 30
0.0
 11
255.0424273452
 21
82.0197654248
 31
0.0
  0
LINE
  5
A9
  8
0
  6
CONTINUOUS
 62
     7
 10
255.0424273452
 20
77.2197642655
 30
0.0
 11
255.0424273452
 21
82.0197654248
 31
0.0
  0
LINE
  5
AA
  8
0
  6
CONTINUOUS
 62
     7
 10
258.5424269876
 20
86.0377815843
 30
0.0
 11
255.0424273452
 21
86.0377815843
 31
0.0
  0
LINE
  5
AB
  8
0
  6
CONTINUOUS
 62
     7
 10
255.0424273452
 20
82.0197654248
 30
0.0
 11
255.0424273452
 21
86.0377815843
 31
0.0
  0
LINE
  5
AC
  8
0
  6
CONTINUOUS
 62
     7
 10
258.5424269876
 20
87.0197643817
 30
0.0
 11
255.0424273452
 21
87.0197643817
 31
0.0
  0
LINE
  5
AD
  8
0
  6
CONTINUOUS
 62
     7
 10
255.0424273452
 20
86.0377815843
 30
0.0
 11
255.0424273452
 21
87.0197643817
 31
0.0
  0
LINE
  5
AE
  8
0
  6
CONTINUOUS
 62
     7
 10
258.5424269876
 20
28.0017485202
 30
0.0
 11
255.0424273452
 21
28.0017485202
 31
0.0
  0
LINE
  5
AF
  8
0
  6
CONTINUOUS
 62
     7
 10
255.0424273452
 20
32.0197646797
 30
0.0
 11
255.0424273452
 21
28.0017485202
 31
0.0
  0
LINE
  5
B0
  8
0
  6
CONTINUOUS
 62
     7
 10
258.5424269876
 20
27.0197657228
 30
0.0
 11
255.0424273452
 21
27.0197657228
 31
0.0
  0
LINE
  5
B1
  8
0
  6
CONTINUOUS
 62
     7
 10
255.0424273452
 20
28.0017485202
 30
0.0
 11
255.0424273452
 21
27.0197657228
 31
0.0
  0
LINE
  5
B2
  8
0
  6
CONTINUOUS
 62
     7
 10
267.5424272987
 20
75.0197642774
 30
0.0
 11
267.5424272987
 21
39.0197658271
 31
0.0
  0
LINE
  5
B3
  8
0
  6
CONTINUOUS
 62
     7
 10
289.5424274123
 20
62.0197649405
 30
0.0
 11
289.5424274123
 21
52.019765164
 31
0.0
  0
LINE
  5
B4
  8
0
  6
CONTINUOUS
 62
     7
 10
201.3424282289
 20
71.0197654844
 30
0.0
 11
255.0424273452
 21
71.0197654844
 31
0.0
  0
LINE
  5
B5
  8
0
  6
CONTINUOUS
 62
     7
 10
201.3424282289
 20
77.2197642655
 30
0.0
 11
201.3424282289
 21
71.0197654844
 31
0.0
  0
LINE
  5
B6
  8
0
  6
CONTINUOUS
 62
     7
 10
255.0424273452
 20
77.2197642655
 30
0.0
 11
201.3424282289
 21
77.2197642655
 31
0.0
  0
LINE
  5
B7
  8
0
  6
CONTINUOUS
 62
     7
 10
201.3424282289
 20
43.0197646201
 30
0.0
 11
255.0424273452
 21
43.0197646201
 31
0.0
  0
LINE
  5
B8
  8
0
  6
CONTINUOUS
 62
     7
 10
201.3424282289
 20
71.0197654844
 30
0.0
 11
201.3424282289
 21
43.0197646201
 31
0.0
  0
LINE
  5
B9
  8
0
  6
CONTINUOUS
 62
     7
 10
255.0424273452
 20
36.819765839
 30
0.0
 11
201.3424282289
 21
36.819765839
 31
0.0
  0
LINE
  5
BA
  8
0
  6
CONTINUOUS
 62
     7
 10
201.3424282289
 20
36.819765839
 30
0.0
 11
201.3424282289
 21
43.0197646201
 31
0.0
  0
LINE
  5
BB
  8
0
  6
CONTINUOUS
 62
     7
 10
255.0424273452
 20
82.0197654248
 30
0.0
 11
201.3424282289
 21
82.0197654248
 31
0.0
  0
LINE
  5
BC
  8
0
  6
CONTINUOUS
 62
     7
 10
201.3424282289
 20
82.0197654248
 30
0.0
 11
201.3424282289
 21
77.2197642655
 31
0.0
  0
LINE
  5
BD
  8
0
  6
CONTINUOUS
 62
     7
 10
255.0424273452
 20
32.0197646797
 30
0.0
 11
201.3424282289
 21
32.0197646797
 31
0.0
  0
LINE
  5
BE
  8
0
  6
CONTINUOUS
 62
     7
 10
201.3424282289
 20
32.0197646797
 30
0.0
 11
201.3424282289
 21
36.819765839
 31
0.0
  0
LINE
  5
BF
  8
0
  6
CONTINUOUS
 62
     7
 10
255.0424273452
 20
27.0197657228
 30
0.0
 11
201.3424282289
 21
27.0197657228
 31
0.0
  0
LINE
  5
C0
  8
0
  6
CONTINUOUS
 62
     7
 10
255.0424273452
 20
28.0017485202
 30
0.0
 11
201.3424282289
 21
28.0017485202
 31
0.0
  0
LINE
  5
C1
  8
0
  6
CONTINUOUS
 62
     7
 10
201.3424282289
 20
27.0197657228
 30
0.0
 11
201.3424282289
 21
28.0017485202
 31
0.0
  0
LINE
  5
C2
  8
0
  6
CONTINUOUS
 62
     7
 10
201.3424282289
 20
28.0017485202
 30
0.0
 11
201.3424282289
 21
32.0197646797
 31
0.0
  0
LINE
  5
C3
  8
0
  6
CONTINUOUS
 62
     7
 10
255.0424273452
 20
86.0377815843
 30
0.0
 11
201.3424282289
 21
86.0377815843
 31
0.0
  0
LINE
  5
C4
  8
0
  6
CONTINUOUS
 62
     7
 10
255.0424273452
 20
87.0197643817
 30
0.0
 11
201.3424282289
 21
87.0197643817
 31
0.0
  0
LINE
  5
C5
  8
0
  6
CONTINUOUS
 62
     7
 10
201.3424282289
 20
87.0197643817
 30
0.0
 11
201.3424282289
 21
86.0377815843
 31
0.0
  0
LINE
  5
C6
  8
0
  6
CONTINUOUS
 62
     7
 10
201.3424282289
 20
86.0377815843
 30
0.0
 11
201.3424282289
 21
82.0197654248
 31
0.0
  0
LINE
  5
C7
  8
0
  6
CONTINUOUS
 62
     7
 10
185.3424256063
 20
36.819765839
 30
0.0
 11
201.3424282289
 21
43.0197646201
 31
0.0
  0
LINE
  5
C8
  8
0
  6
CONTINUOUS
 62
     7
 10
185.3424256063
 20
36.819765839
 30
0.0
 11
181.8424259639
 21
36.819765839
 31
0.0
  0
LINE
  5
C9
  8
0
  6
CONTINUOUS
 62
     7
 10
181.8424259639
 20
77.2197642655
 30
0.0
 11
181.8424259639
 21
36.819765839
 31
0.0
  0
LINE
  5
CA
  8
0
  6
CONTINUOUS
 62
     7
 10
185.3424256063
 20
77.2197642655
 30
0.0
 11
181.8424259639
 21
77.2197642655
 31
0.0
  0
LINE
  5
CB
  8
0
  6
CONTINUOUS
 62
     7
 10
185.3424256063
 20
77.2197642655
 30
0.0
 11
201.3424282289
 21
71.0197654844
 31
0.0
  0
LINE
  5
CC
  8
0
  6
CONTINUOUS
 62
     7
 10
201.3424282289
 20
77.2197642655
 30
0.0
 11
185.3424256063
 21
77.2197642655
 31
0.0
  0
LINE
  5
CD
  8
0
  6
CONTINUOUS
 62
     7
 10
201.3424282289
 20
36.819765839
 30
0.0
 11
185.3424256063
 21
36.819765839
 31
0.0
  0
LINE
  5
CE
  8
0
  6
CONTINUOUS
 62
     7
 10
181.8424259639
 20
32.0197646797
 30
0.0
 11
201.3424282289
 21
32.0197646797
 31
0.0
  0
LINE
  5
CF
  8
0
  6
CONTINUOUS
 62
     7
 10
181.8424259639
 20
32.0197646797
 30
0.0
 11
181.8424259639
 21
36.819765839
 31
0.0
  0
LINE
  5
D0
  8
0
  6
CONTINUOUS
 62
     7
 10
181.8424259639
 20
82.0197654248
 30
0.0
 11
201.3424282289
 21
82.0197654248
 31
0.0
  0
LINE
  5
D1
  8
0
  6
CONTINUOUS
 62
     7
 10
181.8424259639
 20
82.0197654248
 30
0.0
 11
181.8424259639
 21
77.2197642655
 31
0.0
  0
LINE
  5
D2
  8
0
  6
CONTINUOUS
 62
     7
 10
185.3424256063
 20
27.0197657228
 30
0.0
 11
201.3424282289
 21
28.0017485202
 31
0.0
  0
LINE
  5
D3
  8
0
  6
CONTINUOUS
 62
     7
 10
185.3424256063
 20
27.0197657228
 30
0.0
 11
201.3424282289
 21
27.0197657228
 31
0.0
  0
LINE
  5
D4
  8
0
  6
CONTINUOUS
 62
     7
 10
181.8424259639
 20
27.0197657228
 30
0.0
 11
185.3424256063
 21
27.0197657228
 31
0.0
  0
LINE
  5
D5
  8
0
  6
CONTINUOUS
 62
     7
 10
181.8424259639
 20
27.0197657228
 30
0.0
 11
181.8424259639
 21
32.0197646797
 31
0.0
  0
LINE
  5
D6
  8
0
  6
CONTINUOUS
 62
     7
 10
185.3424256063
 20
87.0197643817
 30
0.0
 11
201.3424282289
 21
86.0377815843
 31
0.0
  0
LINE
  5
D7
  8
0
  6
CONTINUOUS
 62
     7
 10
181.8424259639
 20
87.0197643817
 30
0.0
 11
185.3424256063
 21
87.0197643817
 31
0.0
  0
LINE
  5
D8
  8
0
  6
CONTINUOUS
 62
     7
 10
181.8424259639
 20
87.0197643817
 30
0.0
 11
181.8424259639
 21
82.0197654248
 31
0.0
  0
LINE
  5
D9
  8
0
  6
CONTINUOUS
 62
     7
 10
185.3424256063
 20
87.0197643817
 30
0.0
 11
201.3424282289
 21
87.0197643817
 31
0.0
  0
LINE
  5
DA
  8
0
  6
CONTINUOUS
 62
     7
 10
169.5424263692
 20
85.3678421408
 30
0.0
 11
169.5424263692
 21
31.9588207931
 31
0.0
  0
LINE
  5
DB
  8
0
  6
CONTINUOUS
 62
     7
 10
171.2647770858
 20
87.0197643817
 30
0.0
 11
169.869976244
 21
87.0197643817
 31
0.0
  0
ARC
  5
DC
  8
0
  6
CONTINUOUS
 62
     7
 10
316.8393605564
 20
57.0197650522
 30
0.0
 40
148.6336435669932
 50
168.3555065844
 51
170.316890223
  0
POLYLINE
  5
DD
  8
0
  6
CONTINUOUS
 62
     7
 66
     1
 10
0.0
 20
0.0
 30
0.0
 70
   128
  0
VERTEX
  5
65A
  8
0
  6
CONTINUOUS
 62
     7
 10
170.3232844687
 20
77.2197642655
 30
0.0
  0
VERTEX
  5
65B
  8
0
  6
CONTINUOUS
 62
     7
 10
170.1011379576
 20
77.4821644008
 30
0.0
  0
VERTEX
  5
65C
  8
0
  6
CONTINUOUS
 62
     7
 10
169.9925010419
 20
78.2488906116
 30
0.0
  0
VERTEX
  5
65D
  8
0
  6
CONTINUOUS
 62
     7
 10
170.010352633
 20
79.4166815758
 30
0.0
  0
VERTEX
  5
65E
  8
0
  6
CONTINUOUS
 62
     7
 10
170.1484044409
 20
80.8493425429
 30
0.0
  0
VERTEX
  5
65F
  8
0
  6
CONTINUOUS
 62
     7
 10
170.3232844687
 20
82.0197654248
 30
0.0
  0
SEQEND
  5
72A
  8
0
  6
CONTINUOUS
 62
     7
  0
ARC
  5
DE
  8
0
  6
CONTINUOUS
 62
     7
 10
316.8393605564
 20
57.0197650522
 30
0.0
 40
146.9693845669906
 50
172.1000552368
 51
187.8999447632
  0
LINE
  5
DF
  8
0
  6
CONTINUOUS
 62
     7
 10
170.3232844687
 20
36.819765839
 30
0.0
 11
171.2647770858
 21
36.819765839
 31
0.0
  0
POLYLINE
  5
E0
  8
0
  6
CONTINUOUS
 62
     7
 66
     1
 10
0.0
 20
0.0
 30
0.0
 70
   128
  0
VERTEX
  5
660
  8
0
  6
CONTINUOUS
 62
     7
 10
170.3232844687
 20
32.0197646797
 30
0.0
  0
VERTEX
  5
661
  8
0
  6
CONTINUOUS
 62
     7
 10
170.1011379576
 20
33.5850720585
 30
0.0
  0
VERTEX
  5
662
  8
0
  6
CONTINUOUS
 62
     7
 10
169.9925010419
 20
34.9896983534
 30
0.0
  0
VERTEX
  5
663
  8
0
  6
CONTINUOUS
 62
     7
 10
170.010352633
 20
36.0526242584
 30
0.0
  0
VERTEX
  5
664
  8
0
  6
CONTINUOUS
 62
     7
 10
170.1484044409
 20
36.6748818487
 30
0.0
  0
VERTEX
  5
665
  8
0
  6
CONTINUOUS
 62
     7
 10
170.3232844687
 20
36.819765839
 30
0.0
  0
SEQEND
  5
72B
  8
0
  6
CONTINUOUS
 62
     7
  0
ARC
  5
E1
  8
0
  6
CONTINUOUS
 62
     7
 10
316.8393605564
 20
57.0197650522
 30
0.0
 40
148.6336435669932
 50
189.683109777
 51
191.6444934156
  0
LINE
  5
E2
  8
0
  6
CONTINUOUS
 62
     7
 10
170.4684739328
 20
27.0197657228
 30
0.0
 11
171.2647770858
 21
27.0197657228
 31
0.0
  0
ARC
  5
E3
  8
0
  6
CONTINUOUS
 62
     7
 10
316.8393605564
 20
57.0197650522
 30
0.0
 40
149.4136456285034
 50
189.6557822534
 51
191.5828600674
  0
LINE
  5
E4
  8
0
  6
CONTINUOUS
 62
     7
 10
171.2647770858
 20
77.2197642655
 30
0.0
 11
170.3232844687
 21
77.2197642655
 31
0.0
  0
LINE
  5
E5
  8
0
  6
CONTINUOUS
 62
     7
 10
171.2647770858
 20
36.819765839
 30
0.0
 11
181.8424259639
 21
36.819765839
 31
0.0
  0
LINE
  5
E6
  8
0
  6
CONTINUOUS
 62
     7
 10
171.2647770858
 20
77.2197642655
 30
0.0
 11
181.8424259639
 21
77.2197642655
 31
0.0
  0
LINE
  5
E7
  8
0
  6
CONTINUOUS
 62
     7
 10
168.04243078
 20
82.769765082
 30
0.0
 11
168.04243078
 21
34.9403624714
 31
0.0
  0
POLYLINE
  5
E8
  8
0
  6
CONTINUOUS
 62
     7
 66
     1
 10
0.0
 20
0.0
 30
0.0
 70
   128
  0
VERTEX
  5
666
  8
0
  6
CONTINUOUS
 62
     7
 10
168.04243078
 20
34.9403624714
 30
0.0
  0
VERTEX
  5
667
  8
0
  6
CONTINUOUS
 62
     7
 10
169.133575759
 20
32.7627477527
 30
0.0
  0
VERTEX
  5
668
  8
0
  6
CONTINUOUS
 62
     7
 10
169.5424263692
 20
31.9588207931
 30
0.0
  0
SEQEND
  5
72C
  8
0
  6
CONTINUOUS
 62
     7
  0
LINE
  5
E9
  8
0
  6
CONTINUOUS
 62
     7
 10
170.3232844687
 20
82.0197654248
 30
0.0
 11
181.8424259639
 21
82.0197654248
 31
0.0
  0
LINE
  5
EA
  8
0
  6
CONTINUOUS
 62
     7
 10
170.3232844687
 20
32.0197646797
 30
0.0
 11
181.8424259639
 21
32.0197646797
 31
0.0
  0
LINE
  5
EB
  8
0
  6
CONTINUOUS
 62
     7
 10
171.2647770858
 20
27.0197657228
 30
0.0
 11
181.8424259639
 21
27.0197657228
 31
0.0
  0
LINE
  5
EC
  8
0
  6
CONTINUOUS
 62
     7
 10
171.2647770858
 20
87.0197643817
 30
0.0
 11
181.8424259639
 21
87.0197643817
 31
0.0
  0
LINE
  5
ED
  8
0
  6
CONTINUOUS
 62
     7
 10
170.4684739328
 20
27.0197657228
 30
0.0
 11
168.04243078
 21
27.0197657228
 31
0.0
  0
LINE
  5
EE
  8
0
  6
CONTINUOUS
 62
     7
 10
168.04243078
 20
27.0197657228
 30
0.0
 11
168.04243078
 21
34.9403624714
 31
0.0
  0
LINE
  5
EF
  8
0
  6
CONTINUOUS
 62
     7
 10
198.3924304462
 20
22.5197659165
 30
0.0
 11
200.2924253559
 21
22.5197659165
 31
0.0
  0
LINE
  5
F0
  8
0
  6
CONTINUOUS
 62
     7
 10
200.2924253559
 20
22.5197659165
 30
0.0
 11
200.2924253559
 21
22.2197645635
 31
0.0
  0
LINE
  5
F1
  8
0
  6
CONTINUOUS
 62
     7
 10
196.1924304581
 20
22.2197645635
 30
0.0
 11
200.2924253559
 21
22.2197645635
 31
0.0
  0
LINE
  5
F2
  8
0
  6
CONTINUOUS
 62
     7
 10
196.1924304581
 20
22.5197659165
 30
0.0
 11
196.1924304581
 21
22.2197645635
 31
0.0
  0
LINE
  5
F3
  8
0
  6
CONTINUOUS
 62
     7
 10
196.1924304581
 20
22.5197659165
 30
0.0
 11
198.0924253679
 21
22.5197659165
 31
0.0
  0
LINE
  5
F4
  8
0
  6
CONTINUOUS
 62
     7
 10
198.0924253679
 20
25.1197652251
 30
0.0
 11
198.0924253679
 21
22.5197659165
 31
0.0
  0
LINE
  5
F5
  8
0
  6
CONTINUOUS
 62
     7
 10
198.0924253679
 20
25.1197652251
 30
0.0
 11
198.3924304462
 21
25.1197652251
 31
0.0
  0
LINE
  5
F6
  8
0
  6
CONTINUOUS
 62
     7
 10
198.3924304462
 20
25.1197652251
 30
0.0
 11
198.3924304462
 21
22.5197659165
 31
0.0
  0
CIRCLE
  5
F7
  8
0
  6
CONTINUOUS
 62
     7
 10
198.2424272037
 20
23.0197650522
 30
0.0
 40
2.599999999999994
  0
CIRCLE
  5
F8
  8
0
  6
CONTINUOUS
 62
     7
 10
198.2424272037
 20
23.0197650522
 30
0.0
 40
2.900000000000006
  0
LINE
  5
F9
  8
0
  6
CONTINUOUS
 62
     7
 10
197.3924284196
 20
21.2197662622
 30
0.0
 11
199.0924273944
 21
21.2197662622
 31
0.0
  0
LINE
  5
FA
  8
0
  6
CONTINUOUS
 62
     7
 10
199.0924273944
 20
21.2197662622
 30
0.0
 11
199.0924273944
 21
20.9197649092
 31
0.0
  0
LINE
  5
FB
  8
0
  6
CONTINUOUS
 62
     7
 10
197.3924284196
 20
20.9197649092
 30
0.0
 11
199.0924273944
 21
20.9197649092
 31
0.0
  0
LINE
  5
FC
  8
0
  6
CONTINUOUS
 62
     7
 10
197.3924284196
 20
21.2197662622
 30
0.0
 11
197.3924284196
 21
20.9197649092
 31
0.0
  0
LINE
  5
FD
  8
0
  6
CONTINUOUS
 62
     7
 10
199.6924301005
 20
21.8697660894
 30
0.0
 11
199.6924301005
 21
21.5697647363
 31
0.0
  0
LINE
  5
FE
  8
0
  6
CONTINUOUS
 62
     7
 10
196.7924257136
 20
21.5697647363
 30
0.0
 11
199.6924301005
 21
21.5697647363
 31
0.0
  0
LINE
  5
FF
  8
0
  6
CONTINUOUS
 62
     7
 10
196.7924257136
 20
21.8697660894
 30
0.0
 11
196.7924257136
 21
21.5697647363
 31
0.0
  0
LINE
  5
100
  8
0
  6
CONTINUOUS
 62
     7
 10
196.7924257136
 20
21.8697660894
 30
0.0
 11
199.6924301005
 21
21.8697660894
 31
0.0
  0
LINE
  5
101
  8
0
  6
CONTINUOUS
 62
     7
 10
207.7424285329
 20
21.6070213646
 30
0.0
 11
207.7424285329
 21
27.0197657228
 31
0.0
  0
LINE
  5
102
  8
0
  6
CONTINUOUS
 62
     7
 10
211.7424254632
 20
27.0197657228
 30
0.0
 11
211.7424254632
 21
22.7766209573
 31
0.0
  0
POLYLINE
  5
103
  8
0
  6
CONTINUOUS
 62
     7
 66
     1
 10
0.0
 20
0.0
 30
0.0
 70
   128
  0
VERTEX
  5
669
  8
0
  6
CONTINUOUS
 62
     7
 10
211.7424254632
 20
22.7766209573
 30
0.0
  0
VERTEX
  5
66A
  8
0
  6
CONTINUOUS
 62
     7
 10
211.5537655866
 20
22.8920602531
 30
0.0
  0
VERTEX
  5
66B
  8
0
  6
CONTINUOUS
 62
     7
 10
211.0026759422
 20
22.8341990441
 30
0.0
  0
VERTEX
  5
66C
  8
0
  6
CONTINUOUS
 62
     7
 10
210.1677676058
 20
22.6069749624
 30
0.0
  0
VERTEX
  5
66D
  8
0
  6
CONTINUOUS
 62
     7
 10
209.1088985419
 20
22.2185426683
 30
0.0
  0
VERTEX
  5
66E
  8
0
  6
CONTINUOUS
 62
     7
 10
207.7424285329
 20
21.6070213646
 30
0.0
  0
SEQEND
  5
72D
  8
0
  6
CONTINUOUS
 62
     7
  0
LINE
  5
104
  8
0
  6
CONTINUOUS
 62
     7
 10
183.242427311
 20
17.5582380325
 30
0.0
 11
199.4424258685
 21
17.5582380325
 31
0.0
  0
LINE
  5
105
  8
0
  6
CONTINUOUS
 62
     7
 10
183.242427311
 20
17.5582380325
 30
0.0
 11
183.242427311
 21
27.0197657228
 31
0.0
  0
LINE
  5
106
  8
0
  6
CONTINUOUS
 62
     7
 10
207.7424285329
 20
21.6070213646
 30
0.0
 11
199.4424258685
 21
17.5582380325
 31
0.0
  0
LINE
  5
107
  8
0
  6
CONTINUOUS
 62
     7
 10
199.4424258685
 20
17.5582380325
 30
0.0
 11
199.4424258685
 21
16.0197639197
 31
0.0
  0
LINE
  5
108
  8
0
  6
CONTINUOUS
 62
     7
 10
211.7424254632
 20
22.7766209573
 30
0.0
 11
211.7424254632
 21
22.0392966003
 31
0.0
  0
LINE
  5
109
  8
0
  6
CONTINUOUS
 62
     7
 10
183.242427311
 20
16.0197639197
 30
0.0
 11
183.242427311
 21
17.5582380325
 31
0.0
  0
ARC
  5
10A
  8
0
  6
CONTINUOUS
 62
     7
 10
192.2422445751
 20
-43.8510408439
 30
0.0
 40
60.10053146102167
 50
85.0507264571
 51
95.0112104533
  0
LINE
  5
10B
  8
0
  6
CONTINUOUS
 62
     7
 10
186.9924237347
 20
14.0197635919
 30
0.0
 11
197.4924301124
 21
14.0197635919
 31
0.0
  0
ARC
  5
10C
  8
0
  6
CONTINUOUS
 62
     7
 10
188.2424272037
 20
22.2197650522
 30
0.0
 40
2.20000000000002
 50
141.5249788441
 51
308.4750211559
  0
POLYLINE
  5
10D
  8
0
  6
CONTINUOUS
 62
     7
 66
     1
 10
0.0
 20
0.0
 30
0.0
 70
   128
  0
VERTEX
  5
66F
  8
0
  6
CONTINUOUS
 62
     7
 10
189.611205957
 20
20.497428748
 30
0.0
  0
VERTEX
  5
670
  8
0
  6
CONTINUOUS
 62
     7
 10
189.9181177235
 20
20.1905207068
 30
0.0
  0
VERTEX
  5
671
  8
0
  6
CONTINUOUS
 62
     7
 10
190.1903917408
 20
19.9182466895
 30
0.0
  0
VERTEX
  5
672
  8
0
  6
CONTINUOUS
 62
     7
 10
190.3959756112
 20
19.7126665444
 30
0.0
  0
VERTEX
  5
673
  8
0
  6
CONTINUOUS
 62
     7
 10
190.5125101423
 20
19.5961320132
 30
0.0
  0
VERTEX
  5
674
  8
0
  6
CONTINUOUS
 62
     7
 10
190.534206233
 20
19.5744359225
 30
0.0
  0
SEQEND
  5
72E
  8
0
  6
CONTINUOUS
 62
     7
  0
ARC
  5
10E
  8
0
  6
CONTINUOUS
 62
     7
 10
188.2424272037
 20
22.2197650522
 30
0.0
 40
3.500000000000008
 50
139.0960437582
 51
310.9039562418
  0
POLYLINE
  5
10F
  8
0
  6
CONTINUOUS
 62
     7
 66
     1
 10
0.0
 20
0.0
 30
0.0
 70
   128
  0
VERTEX
  5
675
  8
0
  6
CONTINUOUS
 62
     7
 10
185.5971013522
 20
24.5115408033
 30
0.0
  0
VERTEX
  5
676
  8
0
  6
CONTINUOUS
 62
     7
 10
185.6488232827
 20
24.4598114223
 30
0.0
  0
VERTEX
  5
677
  8
0
  6
CONTINUOUS
 62
     7
 10
185.7981180167
 20
24.3105241388
 30
0.0
  0
VERTEX
  5
678
  8
0
  6
CONTINUOUS
 62
     7
 10
186.0282440996
 20
24.0803980559
 30
0.0
  0
VERTEX
  5
679
  8
0
  6
CONTINUOUS
 62
     7
 10
186.3138472057
 20
23.7947949499
 30
0.0
  0
VERTEX
  5
67A
  8
0
  6
CONTINUOUS
 62
     7
 10
186.5200941777
 20
23.5885479778
 30
0.0
  0
SEQEND
  5
72F
  8
0
  6
CONTINUOUS
 62
     7
  0
ARC
  5
110
  8
0
  6
CONTINUOUS
 62
     7
 10
188.2424272037
 20
22.2197650522
 30
0.0
 40
2.200000000000014
 50
321.5249788441
 51
128.4750211559
  0
POLYLINE
  5
111
  8
0
  6
CONTINUOUS
 62
     7
 66
     1
 10
0.0
 20
0.0
 30
0.0
 70
   128
  0
VERTEX
  5
67B
  8
0
  6
CONTINUOUS
 62
     7
 10
186.8736465788
 20
23.9421003789
 30
0.0
  0
VERTEX
  5
67C
  8
0
  6
CONTINUOUS
 62
     7
 10
186.5667348123
 20
24.2490084201
 30
0.0
  0
VERTEX
  5
67D
  8
0
  6
CONTINUOUS
 62
     7
 10
186.2944607949
 20
24.5212824375
 30
0.0
  0
VERTEX
  5
67E
  8
0
  6
CONTINUOUS
 62
     7
 10
186.0888769245
 20
24.7268663079
 30
0.0
  0
VERTEX
  5
67F
  8
0
  6
CONTINUOUS
 62
     7
 10
185.972349844
 20
24.8433971137
 30
0.0
  0
VERTEX
  5
680
  8
0
  6
CONTINUOUS
 62
     7
 10
185.9506537533
 20
24.8650932044
 30
0.0
  0
SEQEND
  5
730
  8
0
  6
CONTINUOUS
 62
     7
  0
ARC
  5
112
  8
0
  6
CONTINUOUS
 62
     7
 10
188.2424272037
 20
22.2197650522
 30
0.0
 40
3.500000000000019
 50
319.0960437582
 51
130.9039562418
  0
POLYLINE
  5
113
  8
0
  6
CONTINUOUS
 62
     7
 66
     1
 10
0.0
 20
0.0
 30
0.0
 70
   128
  0
VERTEX
  5
681
  8
0
  6
CONTINUOUS
 62
     7
 10
190.8877586341
 20
19.9279883236
 30
0.0
  0
VERTEX
  5
682
  8
0
  6
CONTINUOUS
 62
     7
 10
190.836029253
 20
19.9797177047
 30
0.0
  0
VERTEX
  5
683
  8
0
  6
CONTINUOUS
 62
     7
 10
190.6867419696
 20
20.1290049881
 30
0.0
  0
VERTEX
  5
684
  8
0
  6
CONTINUOUS
 62
     7
 10
190.4566158867
 20
20.359131071
 30
0.0
  0
VERTEX
  5
685
  8
0
  6
CONTINUOUS
 62
     7
 10
190.1710127807
 20
20.6447379023
 30
0.0
  0
VERTEX
  5
686
  8
0
  6
CONTINUOUS
 62
     7
 10
189.964758358
 20
20.8509848744
 30
0.0
  0
SEQEND
  5
731
  8
0
  6
CONTINUOUS
 62
     7
  0
ARC
  5
114
  8
0
  6
CONTINUOUS
 62
     7
 10
186.4746602507
 20
22.2197650522
 30
0.0
 40
1.000000000000023
 50
315.0
 51
45.0
  0
LINE
  5
115
  8
0
  6
CONTINUOUS
 62
     7
 10
186.5807270026
 20
20.9116176993
 30
0.0
 11
187.1817653394
 21
21.5126597613
 31
0.0
  0
LINE
  5
116
  8
0
  6
CONTINUOUS
 62
     7
 10
186.5807270026
 20
20.9116176993
 30
0.0
 11
186.9342794037
 21
20.5580652982
 31
0.0
  0
ARC
  5
117
  8
0
  6
CONTINUOUS
 62
     7
 10
188.2424272037
 20
20.4519980993
 30
0.0
 40
1.000000000000021
 50
45.0
 51
135.0
  0
LINE
  5
118
  8
0
  6
CONTINUOUS
 62
     7
 10
186.9342794037
 20
20.5580652982
 30
0.0
 11
187.5353177405
 21
21.159103635
 31
0.0
  0
LINE
  5
119
  8
0
  6
CONTINUOUS
 62
     7
 10
186.5200941777
 20
23.5885479778
 30
0.0
 11
187.1817653394
 21
22.9268730909
 31
0.0
  0
LINE
  5
11A
  8
0
  6
CONTINUOUS
 62
     7
 10
188.9495347953
 20
21.159103635
 30
0.0
 11
189.611205957
 21
20.497428748
 31
0.0
  0
ARC
  5
11B
  8
0
  6
CONTINUOUS
 62
     7
 10
188.2424272037
 20
23.9875320052
 30
0.0
 40
1.000000000000023
 50
225.0
 51
315.0
  0
LINE
  5
11C
  8
0
  6
CONTINUOUS
 62
     7
 10
188.9495347953
 20
23.280425492
 30
0.0
 11
189.5505731321
 21
23.881467554
 31
0.0
  0
ARC
  5
11D
  8
0
  6
CONTINUOUS
 62
     7
 10
190.0101941566
 20
22.2197650522
 30
0.0
 40
1.000000000000033
 50
135.0
 51
225.0
  0
LINE
  5
11E
  8
0
  6
CONTINUOUS
 62
     7
 10
189.5505731321
 20
23.881467554
 30
0.0
 11
189.9041255331
 21
23.5279114276
 31
0.0
  0
LINE
  5
11F
  8
0
  6
CONTINUOUS
 62
     7
 10
189.3030871964
 20
22.9268730909
 30
0.0
 11
189.9041255331
 21
23.5279114276
 31
0.0
  0
LINE
  5
120
  8
0
  6
CONTINUOUS
 62
     7
 10
189.3030871964
 20
21.5126597613
 30
0.0
 11
189.964758358
 21
20.8509848744
 31
0.0
  0
LINE
  5
121
  8
0
  6
CONTINUOUS
 62
     7
 10
186.8736465788
 20
23.9421003789
 30
0.0
 11
187.5353177405
 21
23.280425492
 31
0.0
  0
ARC
  5
122
  8
0
  6
CONTINUOUS
 62
     7
 10
188.2424272037
 20
22.2197650522
 30
0.0
 40
3.500000000000019
 50
310.9039562418
 51
319.0960437582
  0
ARC
  5
123
  8
0
  6
CONTINUOUS
 62
     7
 10
188.2424272037
 20
22.2197650522
 30
0.0
 40
3.500000000000008
 50
130.9039562418
 51
139.0960437582
  0
LINE
  5
124
  8
0
  6
CONTINUOUS
 62
     7
 10
195.4424252129
 20
-257.0802322298
 30
0.0
 11
190.0424306607
 21
-257.0802322298
 31
0.0
  0
LINE
  5
125
  8
0
  6
CONTINUOUS
 62
     7
 10
195.4424252129
 20
-255.5802217394
 30
0.0
 11
190.0424306607
 21
-255.5802217394
 31
0.0
  0
LINE
  5
126
  8
0
  6
CONTINUOUS
 62
     7
 10
195.4424252129
 20
-255.5802217394
 30
0.0
 11
195.4424252129
 21
-257.0802322298
 31
0.0
  0
LINE
  5
127
  8
0
  6
CONTINUOUS
 62
     7
 10
190.0424306607
 20
-257.0802322298
 30
0.0
 11
190.0424306607
 21
-255.5802217394
 31
0.0
  0
LINE
  5
128
  8
0
  6
CONTINUOUS
 62
     7
 10
194.2424272514
 20
-270.380233851
 30
0.0
 11
191.2424286223
 21
-270.380233851
 31
0.0
  0
LINE
  5
129
  8
0
  6
CONTINUOUS
 62
     7
 10
194.2424272514
 20
-269.6802369028
 30
0.0
 11
191.2424286223
 21
-269.6802369028
 31
0.0
  0
LINE
  5
12A
  8
0
  6
CONTINUOUS
 62
     7
 10
194.2424272514
 20
-269.6802369028
 30
0.0
 11
194.2424272514
 21
-270.380233851
 31
0.0
  0
LINE
  5
12B
  8
0
  6
CONTINUOUS
 62
     7
 10
191.2424286223
 20
-270.380233851
 30
0.0
 11
191.2424286223
 21
-269.6802369028
 31
0.0
  0
LINE
  5
12C
  8
0
  6
CONTINUOUS
 62
     7
 10
190.0424306607
 20
-257.5802257925
 30
0.0
 11
191.2424286223
 21
-257.5802257925
 31
0.0
  0
LINE
  5
12D
  8
0
  6
CONTINUOUS
 62
     7
 10
190.0424306607
 20
-257.0802322298
 30
0.0
 11
190.0424306607
 21
-257.5802257925
 31
0.0
  0
LINE
  5
12E
  8
0
  6
CONTINUOUS
 62
     7
 10
195.4424252129
 20
-257.5802257925
 30
0.0
 11
194.2424272514
 21
-257.5802257925
 31
0.0
  0
LINE
  5
12F
  8
0
  6
CONTINUOUS
 62
     7
 10
195.4424252129
 20
-257.5802257925
 30
0.0
 11
195.4424252129
 21
-257.0802322298
 31
0.0
  0
LINE
  5
130
  8
0
  6
CONTINUOUS
 62
     7
 10
194.2424272514
 20
-269.6802369028
 30
0.0
 11
194.2424272514
 21
-257.0802322298
 31
0.0
  0
LINE
  5
131
  8
0
  6
CONTINUOUS
 62
     7
 10
191.2424286223
 20
-257.0802322298
 30
0.0
 11
191.2424286223
 21
-269.6802369028
 31
0.0
  0
LINE
  5
132
  8
0
  6
CONTINUOUS
 62
     7
 10
190.0424306607
 20
-262.8302327066
 30
0.0
 11
191.2424286223
 21
-262.8302327066
 31
0.0
  0
LINE
  5
133
  8
0
  6
CONTINUOUS
 62
     7
 10
190.0424306607
 20
-257.5802257925
 30
0.0
 11
190.0424306607
 21
-262.8302327066
 31
0.0
  0
LINE
  5
134
  8
0
  6
CONTINUOUS
 62
     7
 10
195.4424252129
 20
-262.8302327066
 30
0.0
 11
194.2424272514
 21
-262.8302327066
 31
0.0
  0
LINE
  5
135
  8
0
  6
CONTINUOUS
 62
     7
 10
195.4424252129
 20
-262.8302327066
 30
0.0
 11
195.4424252129
 21
-257.5802257925
 31
0.0
  0
LINE
  5
136
  8
0
  6
CONTINUOUS
 62
     7
 10
189.2424245691
 20
-253.380244103
 30
0.0
 11
185.8424266195
 21
-253.380244103
 31
0.0
  0
LINE
  5
137
  8
0
  6
CONTINUOUS
 62
     7
 10
189.2424245691
 20
-254.3802312284
 30
0.0
 11
189.2424245691
 21
-253.380244103
 31
0.0
  0
LINE
  5
138
  8
0
  6
CONTINUOUS
 62
     7
 10
185.8424266195
 20
-254.3802312284
 30
0.0
 11
185.8424266195
 21
-253.380244103
 31
0.0
  0
LINE
  5
139
  8
0
  6
CONTINUOUS
 62
     7
 10
185.8424266195
 20
-254.3802312284
 30
0.0
 11
189.2424245691
 21
-254.3802312284
 31
0.0
  0
LINE
  5
13A
  8
0
  6
CONTINUOUS
 62
     7
 10
196.2424238539
 20
-253.380244103
 30
0.0
 11
196.2424238539
 21
-254.3802312284
 31
0.0
  0
LINE
  5
13B
  8
0
  6
CONTINUOUS
 62
     7
 10
199.6424292541
 20
-253.380244103
 30
0.0
 11
196.2424238539
 21
-253.380244103
 31
0.0
  0
LINE
  5
13C
  8
0
  6
CONTINUOUS
 62
     7
 10
196.2424238539
 20
-254.3802312284
 30
0.0
 11
199.6424292541
 21
-254.3802312284
 31
0.0
  0
LINE
  5
13D
  8
0
  6
CONTINUOUS
 62
     7
 10
199.6424292541
 20
-254.3802312284
 30
0.0
 11
199.6424292541
 21
-253.380244103
 31
0.0
  0
LINE
  5
13E
  8
0
  6
CONTINUOUS
 62
     7
 10
190.0424306607
 20
-263.1302228838
 30
0.0
 11
191.2424286223
 21
-263.1302228838
 31
0.0
  0
LINE
  5
13F
  8
0
  6
CONTINUOUS
 62
     7
 10
190.0424306607
 20
-262.8302327066
 30
0.0
 11
190.0424306607
 21
-263.1302228838
 31
0.0
  0
LINE
  5
140
  8
0
  6
CONTINUOUS
 62
     7
 10
194.2424272514
 20
-263.1302228838
 30
0.0
 11
195.4424252129
 21
-263.1302228838
 31
0.0
  0
LINE
  5
141
  8
0
  6
CONTINUOUS
 62
     7
 10
195.4424252129
 20
-263.1302228838
 30
0.0
 11
195.4424252129
 21
-262.8302327066
 31
0.0
  0
LINE
  5
142
  8
0
  6
CONTINUOUS
 62
     7
 10
185.8424266195
 20
-264.0802315145
 30
0.0
 11
191.2424286223
 21
-264.0802315145
 31
0.0
  0
LINE
  5
143
  8
0
  6
CONTINUOUS
 62
     7
 10
194.2424272514
 20
-264.0802315145
 30
0.0
 11
199.6424292541
 21
-264.0802315145
 31
0.0
  0
LINE
  5
144
  8
0
  6
CONTINUOUS
 62
     7
 10
189.2424245691
 20
-253.380244103
 30
0.0
 11
196.2424238539
 21
-253.380244103
 31
0.0
  0
LINE
  5
145
  8
0
  6
CONTINUOUS
 62
     7
 10
199.6424292541
 20
-254.3802312284
 30
0.0
 11
199.6424292541
 21
-264.0802315145
 31
0.0
  0
LINE
  5
146
  8
0
  6
CONTINUOUS
 62
     7
 10
185.8424266195
 20
-254.3802312284
 30
0.0
 11
185.8424266195
 21
-264.0802315145
 31
0.0
  0
LINE
  5
147
  8
0
  6
CONTINUOUS
 62
     7
 10
188.2424299932
 20
-218.3802476793
 30
0.0
 11
196.2424238539
 21
-218.3802476793
 31
0.0
  0
LINE
  5
148
  8
0
  6
CONTINUOUS
 62
     7
 10
187.7424289799
 20
-193.3802417189
 30
0.0
 11
196.7424248672
 21
-193.3802417189
 31
0.0
  0
LINE
  5
149
  8
0
  6
CONTINUOUS
 62
     7
 10
198.6424272275
 20
-272.9802480608
 30
0.0
 11
195.2424292779
 21
-272.9802480608
 31
0.0
  0
LINE
  5
14A
  8
0
  6
CONTINUOUS
 62
     7
 10
195.2424292779
 20
-264.0802315145
 30
0.0
 11
195.2424292779
 21
-272.9802480608
 31
0.0
  0
LINE
  5
14B
  8
0
  6
CONTINUOUS
 62
     7
 10
198.6424272275
 20
-264.0802315145
 30
0.0
 11
198.6424272275
 21
-272.9802480608
 31
0.0
  0
LINE
  5
14C
  8
0
  6
CONTINUOUS
 62
     7
 10
194.4424306369
 20
-272.9802480608
 30
0.0
 11
191.0424252367
 21
-272.9802480608
 31
0.0
  0
LINE
  5
14D
  8
0
  6
CONTINUOUS
 62
     7
 10
191.0424252367
 20
-264.0802315145
 30
0.0
 11
191.0424252367
 21
-272.9802480608
 31
0.0
  0
LINE
  5
14E
  8
0
  6
CONTINUOUS
 62
     7
 10
194.4424306369
 20
-264.0802315145
 30
0.0
 11
194.4424306369
 21
-272.9802480608
 31
0.0
  0
LINE
  5
14F
  8
0
  6
CONTINUOUS
 62
     7
 10
186.8424286461
 20
-272.9802480608
 30
0.0
 11
186.8424286461
 21
-264.0802315145
 31
0.0
  0
LINE
  5
150
  8
0
  6
CONTINUOUS
 62
     7
 10
190.2424265957
 20
-264.0802315145
 30
0.0
 11
190.2424265957
 21
-272.9802480608
 31
0.0
  0
LINE
  5
151
  8
0
  6
CONTINUOUS
 62
     7
 10
190.2424265957
 20
-272.9802480608
 30
0.0
 11
186.8424286461
 21
-272.9802480608
 31
0.0
  0
LINE
  5
152
  8
0
  6
CONTINUOUS
 62
     7
 10
195.7424302912
 20
-233.3802333742
 30
0.0
 11
188.7424235559
 21
-233.3802333742
 31
0.0
  0
LINE
  5
153
  8
0
  6
CONTINUOUS
 62
     7
 10
168.5424243427
 20
17.4450264603
 30
0.0
 11
180.5424263096
 21
17.4450264603
 31
0.0
  0
LINE
  5
154
  8
0
  6
CONTINUOUS
 62
     7
 10
168.5424243427
 20
17.4450264603
 30
0.0
 11
168.5424243427
 21
27.0197657228
 31
0.0
  0
LINE
  5
155
  8
0
  6
CONTINUOUS
 62
     7
 10
180.5424263096
 20
17.4450264603
 30
0.0
 11
180.5424263096
 21
27.0197657228
 31
0.0
  0
LINE
  5
156
  8
0
  6
CONTINUOUS
 62
     7
 10
168.5424243427
 20
16.0197639197
 30
0.0
 11
168.5424243427
 21
17.4450264603
 31
0.0
  0
ARC
  5
157
  8
0
  6
CONTINUOUS
 62
     7
 10
174.5422777436
 20
-43.8626180301
 30
0.0
 40
60.09074955227467
 50
85.2861198337
 51
94.7728137975
  0
LINE
  5
158
  8
0
  6
CONTINUOUS
 62
     7
 10
180.5424263096
 20
16.0197639197
 30
0.0
 11
180.5424263096
 21
17.4450264603
 31
0.0
  0
LINE
  5
159
  8
0
  6
CONTINUOUS
 62
     7
 10
169.5424263692
 20
14.0197635919
 30
0.0
 11
179.542424283
 21
14.0197635919
 31
0.0
  0
LINE
  5
15A
  8
0
  6
CONTINUOUS
 62
     7
 10
183.242427311
 20
-229.4802418619
 30
0.0
 11
165.8424307919
 21
-229.4802418619
 31
0.0
  0
ARC
  5
15B
  8
0
  6
CONTINUOUS
 62
     7
 10
183.2424272037
 20
-229.9802349478
 30
0.0
 40
0.5000000000000568
 50
360.0
 51
90.0
  0
LINE
  5
15C
  8
0
  6
CONTINUOUS
 62
     7
 10
183.7424283242
 20
-234.2151454359
 30
0.0
 11
183.7424283242
 21
-229.9802354246
 31
0.0
  0
ARC
  5
15D
  8
0
  6
CONTINUOUS
 62
     7
 10
178.7424272037
 20
-234.2151331628
 30
0.0
 40
5.00000000000119
 50
311.2570117043
 51
0.0
  0
LINE
  5
15E
  8
0
  6
CONTINUOUS
 62
     7
 10
181.0338517046
 20
-238.8561716944
 30
0.0
 11
182.03961303
 21
-237.9739335447
 31
0.0
  0
LINE
  5
15F
  8
0
  6
CONTINUOUS
 62
     7
 10
181.0338517046
 20
-243.9802339941
 30
0.0
 11
181.0338517046
 21
-238.8561716944
 31
0.0
  0
LINE
  5
160
  8
0
  6
CONTINUOUS
 62
     7
 10
183.0338483072
 20
-245.9802380472
 30
0.0
 11
181.0338517046
 21
-243.9802339941
 31
0.0
  0
LINE
  5
161
  8
0
  6
CONTINUOUS
 62
     7
 10
183.9424242592
 20
-245.9802380472
 30
0.0
 11
183.0338483072
 21
-245.9802380472
 31
0.0
  0
LINE
  5
162
  8
0
  6
CONTINUOUS
 62
     7
 10
166.0510023451
 20
-245.9802380472
 30
0.0
 11
165.1424263931
 21
-245.9802380472
 31
0.0
  0
LINE
  5
163
  8
0
  6
CONTINUOUS
 62
     7
 10
168.0510063982
 20
-243.9802339941
 30
0.0
 11
166.0510023451
 21
-245.9802380472
 31
0.0
  0
LINE
  5
164
  8
0
  6
CONTINUOUS
 62
     7
 10
168.0510063982
 20
-238.8561716944
 30
0.0
 11
168.0510063982
 21
-243.9802339941
 31
0.0
  0
LINE
  5
165
  8
0
  6
CONTINUOUS
 62
     7
 10
167.0452376223
 20
-237.9739335447
 30
0.0
 11
168.0510063982
 21
-238.8561716944
 31
0.0
  0
ARC
  5
166
  8
0
  6
CONTINUOUS
 62
     7
 10
170.3424272037
 20
-234.2151331628
 30
0.0
 40
5.000000000000726
 50
180.0
 51
228.7429882957
  0
LINE
  5
167
  8
0
  6
CONTINUOUS
 62
     7
 10
165.3424297786
 20
-229.9802354246
 30
0.0
 11
165.3424297786
 21
-234.2151454359
 31
0.0
  0
ARC
  5
168
  8
0
  6
CONTINUOUS
 62
     7
 10
165.8424272037
 20
-229.9802349478
 30
0.0
 40
0.5000000000000568
 50
90.0
 51
180.0
  0
LINE
  5
169
  8
0
  6
CONTINUOUS
 62
     7
 10
165.1424263931
 20
-262.4802342325
 30
0.0
 11
183.9424242592
 21
-262.4802342325
 31
0.0
  0
LINE
  5
16A
  8
0
  6
CONTINUOUS
 62
     7
 10
165.1424263931
 20
-245.9802380472
 30
0.0
 11
165.1424263931
 21
-262.4802342325
 31
0.0
  0
LINE
  5
16B
  8
0
  6
CONTINUOUS
 62
     7
 10
183.9424242592
 20
-262.4802342325
 30
0.0
 11
183.9424242592
 21
-245.9802380472
 31
0.0
  0
LINE
  5
16C
  8
0
  6
CONTINUOUS
 62
     7
 10
167.5510053849
 20
-243.63023552
 30
0.0
 11
167.5510053849
 21
-243.1302419573
 31
0.0
  0
LINE
  5
16D
  8
0
  6
CONTINUOUS
 62
     7
 10
166.301006577
 20
-239.8302307993
 30
0.0
 11
167.5510053849
 21
-243.1302419573
 31
0.0
  0
LINE
  5
16E
  8
0
  6
CONTINUOUS
 62
     7
 10
166.301006577
 20
-239.2802289396
 30
0.0
 11
166.301006577
 21
-239.8302307993
 31
0.0
  0
ARC
  5
16F
  8
0
  6
CONTINUOUS
 62
     7
 10
166.6010058474
 20
-239.2802349478
 30
0.0
 40
0.2999999999999829
 50
90.0
 51
180.0
  0
LINE
  5
170
  8
0
  6
CONTINUOUS
 62
     7
 10
166.6010042048
 20
-238.9802387625
 30
0.0
 11
167.6510070777
 21
-238.9802387625
 31
0.0
  0
LINE
  5
171
  8
0
  6
CONTINUOUS
 62
     7
 10
167.6510070777
 20
-238.9802387625
 30
0.0
 11
168.0510063982
 21
-239.3802455336
 31
0.0
  0
LINE
  5
172
  8
0
  6
CONTINUOUS
 62
     7
 10
165.2010028577
 20
-245.9802380472
 30
0.0
 11
167.5510053849
 21
-243.63023552
 31
0.0
  0
LINE
  5
173
  8
0
  6
CONTINUOUS
 62
     7
 10
181.5338452673
 20
-243.63023552
 30
0.0
 11
183.8838477946
 21
-245.9802380472
 31
0.0
  0
LINE
  5
174
  8
0
  6
CONTINUOUS
 62
     7
 10
181.4338510251
 20
-238.9802387625
 30
0.0
 11
181.0338517046
 21
-239.3802455336
 31
0.0
  0
LINE
  5
175
  8
0
  6
CONTINUOUS
 62
     7
 10
181.4338510251
 20
-238.9802387625
 30
0.0
 11
182.4838464475
 21
-238.9802387625
 31
0.0
  0
ARC
  5
176
  8
0
  6
CONTINUOUS
 62
     7
 10
182.4838485599
 20
-239.2802349478
 30
0.0
 40
0.3000000000000114
 50
0.0
 51
90.0
  0
LINE
  5
177
  8
0
  6
CONTINUOUS
 62
     7
 10
182.7838515258
 20
-239.8302307993
 30
0.0
 11
182.7838515258
 21
-239.2802289396
 31
0.0
  0
LINE
  5
178
  8
0
  6
CONTINUOUS
 62
     7
 10
181.5338452673
 20
-243.1302419573
 30
0.0
 11
182.7838515258
 21
-239.8302307993
 31
0.0
  0
LINE
  5
179
  8
0
  6
CONTINUOUS
 62
     7
 10
181.5338452673
 20
-243.63023552
 30
0.0
 11
181.5338452673
 21
-243.1302419573
 31
0.0
  0
LINE
  5
17A
  8
0
  6
CONTINUOUS
 62
     7
 10
178.1924237824
 20
-272.9802480608
 30
0.0
 11
178.1924237824
 21
-262.4802342325
 31
0.0
  0
LINE
  5
17B
  8
0
  6
CONTINUOUS
 62
     7
 10
178.1924237824
 20
-272.9802480608
 30
0.0
 11
169.2924295879
 21
-272.9802480608
 31
0.0
  0
LINE
  5
17C
  8
0
  6
CONTINUOUS
 62
     7
 10
169.2924295879
 20
-272.9802480608
 30
0.0
 11
169.2924295879
 21
-262.4802342325
 31
0.0
  0
LINE
  5
17D
  8
0
  6
CONTINUOUS
 62
     7
 10
169.2924295879
 20
-272.9802480608
 30
0.0
 11
168.8924302674
 21
-272.9802480608
 31
0.0
  0
LINE
  5
17E
  8
0
  6
CONTINUOUS
 62
     7
 10
168.8924302674
 20
-272.9802480608
 30
0.0
 11
168.8924302674
 21
-262.4802342325
 31
0.0
  0
LINE
  5
17F
  8
0
  6
CONTINUOUS
 62
     7
 10
178.8960640645
 20
-272.9802480608
 30
0.0
 11
178.8960640645
 21
-262.4802342325
 31
0.0
  0
LINE
  5
180
  8
0
  6
CONTINUOUS
 62
     7
 10
178.8960640645
 20
-272.9802480608
 30
0.0
 11
178.1924237824
 21
-272.9802480608
 31
0.0
  0
LINE
  5
181
  8
0
  6
CONTINUOUS
 62
     7
 10
181.8179359055
 20
-242.3802367121
 30
0.0
 11
181.8179359055
 21
-243.1302419573
 31
0.0
  0
LINE
  5
182
  8
0
  6
CONTINUOUS
 62
     7
 10
181.8179359055
 20
-243.1302419573
 30
0.0
 11
181.5338452673
 21
-243.1302419573
 31
0.0
  0
LINE
  5
183
  8
0
  6
CONTINUOUS
 62
     7
 10
167.5510053849
 20
-243.1302419573
 30
0.0
 11
167.2669147468
 21
-243.1302419573
 31
0.0
  0
LINE
  5
184
  8
0
  6
CONTINUOUS
 62
     7
 10
167.2669147468
 20
-243.1302419573
 30
0.0
 11
167.2669147468
 21
-242.3802367121
 31
0.0
  0
LINE
  5
185
  8
0
  6
CONTINUOUS
 62
     7
 10
167.2669147468
 20
-242.3802367121
 30
0.0
 11
166.9449453569
 21
-242.3802367121
 31
0.0
  0
LINE
  5
186
  8
0
  6
CONTINUOUS
 62
     7
 10
166.9449453569
 20
-242.3802367121
 30
0.0
 11
166.9449453569
 21
-241.5302446752
 31
0.0
  0
LINE
  5
187
  8
0
  6
CONTINUOUS
 62
     7
 10
182.139912746
 20
-241.5302446752
 30
0.0
 11
182.139912746
 21
-242.3802367121
 31
0.0
  0
LINE
  5
188
  8
0
  6
CONTINUOUS
 62
     7
 10
182.139912746
 20
-242.3802367121
 30
0.0
 11
181.8179359055
 21
-242.3802367121
 31
0.0
  0
LINE
  5
189
  8
0
  6
CONTINUOUS
 62
     7
 10
182.4618821359
 20
-240.6802228361
 30
0.0
 11
182.4618821359
 21
-241.5302446752
 31
0.0
  0
LINE
  5
18A
  8
0
  6
CONTINUOUS
 62
     7
 10
182.4618821359
 20
-241.5302446752
 30
0.0
 11
182.139912746
 21
-241.5302446752
 31
0.0
  0
LINE
  5
18B
  8
0
  6
CONTINUOUS
 62
     7
 10
166.6229759669
 20
-241.5302446752
 30
0.0
 11
166.6229759669
 21
-240.6802228361
 31
0.0
  0
LINE
  5
18C
  8
0
  6
CONTINUOUS
 62
     7
 10
166.9449453569
 20
-241.5302446752
 30
0.0
 11
166.6229759669
 21
-241.5302446752
 31
0.0
  0
LINE
  5
18D
  8
0
  6
CONTINUOUS
 62
     7
 10
166.6229759669
 20
-240.6802228361
 30
0.0
 11
166.301006577
 21
-240.6802228361
 31
0.0
  0
LINE
  5
18E
  8
0
  6
CONTINUOUS
 62
     7
 10
166.301006577
 20
-240.6802228361
 30
0.0
 11
166.301006577
 21
-239.8302307993
 31
0.0
  0
LINE
  5
18F
  8
0
  6
CONTINUOUS
 62
     7
 10
182.7838515258
 20
-239.8302307993
 30
0.0
 11
182.7838515258
 21
-240.6802228361
 31
0.0
  0
LINE
  5
190
  8
0
  6
CONTINUOUS
 62
     7
 10
182.7838515258
 20
-240.6802228361
 30
0.0
 11
182.4618821359
 21
-240.6802228361
 31
0.0
  0
LINE
  5
191
  8
0
  6
CONTINUOUS
 62
     7
 10
183.1058209157
 20
-239.2802289396
 30
0.0
 11
183.1058209157
 21
-239.8302307993
 31
0.0
  0
ARC
  5
192
  8
0
  6
CONTINUOUS
 62
     7
 10
182.8058182569
 20
-239.2802349478
 30
0.0
 40
0.3000000000000398
 50
0.0
 51
90.0
  0
LINE
  5
193
  8
0
  6
CONTINUOUS
 62
     7
 10
183.1058209157
 20
-239.8302307993
 30
0.0
 11
182.7838515258
 21
-239.8302307993
 31
0.0
  0
LINE
  5
194
  8
0
  6
CONTINUOUS
 62
     7
 10
182.4838464475
 20
-238.9802387625
 30
0.0
 11
182.8058158374
 21
-238.9802387625
 31
0.0
  0
LINE
  5
195
  8
0
  6
CONTINUOUS
 62
     7
 10
165.9790371871
 20
-239.8302307993
 30
0.0
 11
165.9790371871
 21
-239.2802289396
 31
0.0
  0
ARC
  5
196
  8
0
  6
CONTINUOUS
 62
     7
 10
166.2790361505
 20
-239.2802349478
 30
0.0
 40
0.3000000000000398
 50
90.0
 51
180.0
  0
LINE
  5
197
  8
0
  6
CONTINUOUS
 62
     7
 10
166.301006577
 20
-239.8302307993
 30
0.0
 11
165.9790371871
 21
-239.8302307993
 31
0.0
  0
LINE
  5
198
  8
0
  6
CONTINUOUS
 62
     7
 10
166.2790348149
 20
-238.9802387625
 30
0.0
 11
166.6010042048
 21
-238.9802387625
 31
0.0
  0
LINE
  5
199
  8
0
  6
CONTINUOUS
 62
     7
 10
180.0738816476
 20
-272.9802480608
 30
0.0
 11
180.0738816476
 21
-262.4802342325
 31
0.0
  0
LINE
  5
19A
  8
0
  6
CONTINUOUS
 62
     7
 10
180.0738816476
 20
-272.9802480608
 30
0.0
 11
178.8960640645
 21
-272.9802480608
 31
0.0
  0
LINE
  5
19B
  8
0
  6
CONTINUOUS
 62
     7
 10
167.6424240089
 20
-266.8802491098
 30
0.0
 11
165.1424263931
 21
-266.8802491098
 31
0.0
  0
LINE
  5
19C
  8
0
  6
CONTINUOUS
 62
     7
 10
167.6424240089
 20
-262.4802342325
 30
0.0
 11
167.6424240089
 21
-266.8802491098
 31
0.0
  0
LINE
  5
19D
  8
0
  6
CONTINUOUS
 62
     7
 10
165.1424263931
 20
-266.8802491098
 30
0.0
 11
165.1424263931
 21
-262.4802342325
 31
0.0
  0
LINE
  5
19E
  8
0
  6
CONTINUOUS
 62
     7
 10
183.9424242592
 20
-266.8802491098
 30
0.0
 11
181.4424266434
 21
-266.8802491098
 31
0.0
  0
LINE
  5
19F
  8
0
  6
CONTINUOUS
 62
     7
 10
181.4424266434
 20
-266.8802491098
 30
0.0
 11
181.4424266434
 21
-262.4802342325
 31
0.0
  0
LINE
  5
1A0
  8
0
  6
CONTINUOUS
 62
     7
 10
183.9424242592
 20
-262.4802342325
 30
0.0
 11
183.9424242592
 21
-266.8802491098
 31
0.0
  0
LINE
  5
1A1
  8
0
  6
CONTINUOUS
 62
     7
 10
180.1924278355
 20
-272.9802480608
 30
0.0
 11
180.1924278355
 21
-262.4802342325
 31
0.0
  0
LINE
  5
1A2
  8
0
  6
CONTINUOUS
 62
     7
 10
180.1924278355
 20
-272.9802480608
 30
0.0
 11
180.0738816476
 21
-272.9802480608
 31
0.0
  0
LINE
  5
1A3
  8
0
  6
CONTINUOUS
 62
     8
 10
187.7424289799
 20
-217.8802243143
 30
0.0
 11
196.7424248672
 21
-217.8802243143
 31
0.0
  0
LINE
  5
1A4
  8
0
  6
CONTINUOUS
 62
     8
 10
195.7424302912
 20
-218.880241242
 30
0.0
 11
188.7424235559
 21
-218.880241242
 31
0.0
  0
LINE
  5
1A5
  8
0
  6
CONTINUOUS
 62
     7
 10
366.2429499822
 20
14.0197635919
 30
0.0
 11
366.2429499822
 21
-193.3802417189
 31
0.0
  0
LINE
  5
1A6
  8
0
  6
CONTINUOUS
 62
     7
 10
374.2429503622
 20
-193.3802417189
 30
0.0
 11
374.2429503622
 21
14.0197635919
 31
0.0
  0
LINE
  5
1A7
  8
0
  6
CONTINUOUS
 62
     7
 10
356.742949822
 20
25.9197657287
 30
0.0
 11
356.4429503316
 21
25.9197657287
 31
0.0
  0
LINE
  5
1A8
  8
0
  6
CONTINUOUS
 62
     7
 10
356.4429503316
 20
20.1197662682
 30
0.0
 11
356.742949822
 21
20.1197662682
 31
0.0
  0
LINE
  5
1A9
  8
0
  6
CONTINUOUS
 62
     7
 10
364.992950243
 20
16.2495472759
 30
0.0
 11
364.992950243
 21
14.0197635919
 31
0.0
  0
LINE
  5
1AA
  8
0
  6
CONTINUOUS
 62
     7
 10
375.4929501014
 20
14.0197635919
 30
0.0
 11
375.4929501014
 21
16.2441046268
 31
0.0
  0
LINE
  5
1AB
  8
0
  6
CONTINUOUS
 62
     7
 10
356.4429503316
 20
25.7197642058
 30
0.0
 11
354.1429495821
 21
25.7197642058
 31
0.0
  0
LINE
  5
1AC
  8
0
  6
CONTINUOUS
 62
     7
 10
354.1429495821
 20
18.7197649211
 30
0.0
 11
356.742949822
 21
18.7197649211
 31
0.0
  0
ARC
  5
1AD
  8
0
  6
CONTINUOUS
 62
     7
 10
353.0429501722
 20
24.4197650522
 30
0.0
 40
1.300000000000011
 50
90.0
 51
180.0
  0
LINE
  5
1AE
  8
0
  6
CONTINUOUS
 62
     7
 10
354.1429495821
 20
25.7197642058
 30
0.0
 11
353.0429495881
 21
25.7197642058
 31
0.0
  0
LINE
  5
1AF
  8
0
  6
CONTINUOUS
 62
     7
 10
353.0429495881
 20
18.7197649211
 30
0.0
 11
354.1429495821
 21
18.7197649211
 31
0.0
  0
ARC
  5
1B0
  8
0
  6
CONTINUOUS
 62
     7
 10
353.0429501722
 20
20.0197650522
 30
0.0
 40
1.299999999999994
 50
180.0
 51
270.0
  0
LINE
  5
1B1
  8
0
  6
CONTINUOUS
 62
     7
 10
375.2929499755
 20
-264.0802315145
 30
0.0
 11
375.2929499755
 21
-254.3802312284
 31
0.0
  0
POLYLINE
  5
1B2
  8
0
  6
CONTINUOUS
 62
     7
 66
     1
 10
0.0
 20
0.0
 30
0.0
 70
   128
  0
VERTEX
  5
687
  8
0
  6
CONTINUOUS
 62
     7
 10
368.8919010023
 20
-253.380244103
 30
0.0
  0
VERTEX
  5
688
  8
0
  6
CONTINUOUS
 62
     7
 10
369.5216348428
 20
-244.8781779676
 30
0.0
  0
VERTEX
  5
689
  8
0
  6
CONTINUOUS
 62
     7
 10
370.3749161799
 20
-233.3802333742
 30
0.0
  0
SEQEND
  5
732
  8
0
  6
CONTINUOUS
 62
     7
  0
POLYLINE
  5
1B3
  8
0
  6
CONTINUOUS
 62
     7
 66
     1
 10
0.0
 20
0.0
 30
0.0
 70
   128
  0
VERTEX
  5
68A
  8
0
  6
CONTINUOUS
 62
     7
 10
368.8749162397
 20
-233.3802333742
 30
0.0
  0
VERTEX
  5
68B
  8
0
  6
CONTINUOUS
 62
     7
 10
368.1712191468
 20
-242.882286635
 30
0.0
  0
VERTEX
  5
68C
  8
0
  6
CONTINUOUS
 62
     7
 10
367.3922681632
 20
-253.380244103
 30
0.0
  0
SEQEND
  5
733
  8
0
  6
CONTINUOUS
 62
     7
  0
POLYLINE
  5
1B4
  8
0
  6
CONTINUOUS
 62
     7
 66
     1
 10
0.0
 20
0.0
 30
0.0
 70
   128
  0
VERTEX
  5
68D
  8
0
  6
CONTINUOUS
 62
     7
 10
371.1109841392
 20
-233.3802333742
 30
0.0
  0
VERTEX
  5
68E
  8
0
  6
CONTINUOUS
 62
     7
 10
371.2966600582
 20
-242.882286635
 30
0.0
  0
VERTEX
  5
68F
  8
0
  6
CONTINUOUS
 62
     7
 10
371.4988776632
 20
-253.380244103
 30
0.0
  0
SEQEND
  5
734
  8
0
  6
CONTINUOUS
 62
     7
  0
POLYLINE
  5
1B5
  8
0
  6
CONTINUOUS
 62
     7
 66
     1
 10
0.0
 20
0.0
 30
0.0
 70
   128
  0
VERTEX
  5
690
  8
0
  6
CONTINUOUS
 62
     7
 10
372.9982372755
 20
-253.380244103
 30
0.0
  0
VERTEX
  5
691
  8
0
  6
CONTINUOUS
 62
     7
 10
372.832253241
 20
-244.8781779676
 30
0.0
  0
VERTEX
  5
692
  8
0
  6
CONTINUOUS
 62
     7
 10
372.6109842686
 20
-233.3802333742
 30
0.0
  0
SEQEND
  5
735
  8
0
  6
CONTINUOUS
 62
     7
  0
LINE
  5
1B6
  8
0
  6
CONTINUOUS
 62
     7
 10
365.7429503659
 20
-193.3802417189
 30
0.0
 11
365.7429503659
 21
-217.8802243143
 31
0.0
  0
LINE
  5
1B7
  8
0
  6
CONTINUOUS
 62
     7
 10
374.7429499785
 20
-217.8802243143
 30
0.0
 11
374.7429499785
 21
-193.3802417189
 31
0.0
  0
ARC
  5
1B8
  8
0
  6
CONTINUOUS
 62
     7
 10
366.2429501722
 20
-217.8802349478
 30
0.0
 40
0.5
 50
180.0
 51
270.0
  0
ARC
  5
1B9
  8
0
  6
CONTINUOUS
 62
     7
 10
374.2429501722
 20
-217.8802349478
 30
0.0
 40
0.5
 50
270.0
 51
0.0
  0
ARC
  5
1BA
  8
0
  6
CONTINUOUS
 62
     7
 10
366.2429501722
 20
-218.8802349478
 30
0.0
 40
0.5
 50
0.0
 51
90.0
  0
ARC
  5
1BB
  8
0
  6
CONTINUOUS
 62
     7
 10
374.2429501722
 20
-218.8802349478
 30
0.0
 40
0.5
 50
90.0
 51
180.0
  0
LINE
  5
1BC
  8
0
  6
CONTINUOUS
 62
     7
 10
366.7429500642
 20
-218.880241242
 30
0.0
 11
366.7429500642
 21
-233.3802333742
 31
0.0
  0
LINE
  5
1BD
  8
0
  6
CONTINUOUS
 62
     7
 10
373.7429502802
 20
-233.3802333742
 30
0.0
 11
373.7429502802
 21
-218.880241242
 31
0.0
  0
POLYLINE
  5
1BE
  8
0
  6
CONTINUOUS
 62
     7
 66
     1
 10
0.0
 20
0.0
 30
0.0
 70
   128
  0
VERTEX
  5
693
  8
0
  6
CONTINUOUS
 62
     7
 10
367.4932598518
 20
-233.3802333742
 30
0.0
  0
VERTEX
  5
694
  8
0
  6
CONTINUOUS
 62
     7
 10
367.4192197072
 20
-243.1380501657
 30
0.0
  0
VERTEX
  5
695
  8
0
  6
CONTINUOUS
 62
     7
 10
367.3269582363
 20
-253.380244103
 30
0.0
  0
SEQEND
  5
736
  8
0
  6
CONTINUOUS
 62
     7
  0
CIRCLE
  5
1BF
  8
0
  6
CONTINUOUS
 62
     7
 10
370.2429501722
 20
57.0197650522
 30
0.0
 40
5.0
  0
CIRCLE
  5
1C0
  8
0
  6
CONTINUOUS
 62
     7
 10
370.2429501722
 20
57.0197650522
 30
0.0
 40
17.99999999999994
  0
CIRCLE
  5
1C1
  8
0
  6
CONTINUOUS
 62
     7
 10
395.2429501722
 20
32.0197650522
 30
0.0
 40
2.250000000000057
  0
CIRCLE
  5
1C2
  8
0
  6
CONTINUOUS
 62
     7
 10
395.2429501722
 20
82.0197650522
 30
0.0
 40
2.250000000000057
  0
ARC
  5
1C3
  8
0
  6
CONTINUOUS
 62
     7
 10
345.5429501722
 20
81.7197650522
 30
0.0
 40
5.300000000000068
 50
90.0
 51
180.0
  0
LINE
  5
1C4
  8
0
  6
CONTINUOUS
 62
     7
 10
345.54294929
 20
87.0197643817
 30
0.0
 11
394.9429510543
 21
87.0197643817
 31
0.0
  0
ARC
  5
1C5
  8
0
  6
CONTINUOUS
 62
     7
 10
394.9429501722
 20
81.7197650522
 30
0.0
 40
5.300000000000011
 50
0.0
 51
90.0
  0
LINE
  5
1C6
  8
0
  6
CONTINUOUS
 62
     7
 10
400.2429495016
 20
32.3197641701
 30
0.0
 11
400.2429495016
 21
81.7197659344
 31
0.0
  0
ARC
  5
1C7
  8
0
  6
CONTINUOUS
 62
     7
 10
394.9429501722
 20
32.3197650522
 30
0.0
 40
5.300000000000001
 50
270.0
 51
0.0
  0
LINE
  5
1C8
  8
0
  6
CONTINUOUS
 62
     7
 10
345.54294929
 20
27.0197657228
 30
0.0
 11
394.9429510543
 21
27.0197657228
 31
0.0
  0
ARC
  5
1C9
  8
0
  6
CONTINUOUS
 62
     7
 10
345.5429501722
 20
32.3197650522
 30
0.0
 40
5.300000000000068
 50
180.0
 51
270.0
  0
LINE
  5
1CA
  8
0
  6
CONTINUOUS
 62
     7
 10
340.2429508427
 20
32.3197641701
 30
0.0
 11
340.2429508427
 21
81.7197659344
 31
0.0
  0
CIRCLE
  5
1CB
  8
0
  6
CONTINUOUS
 62
     7
 10
345.2429501722
 20
82.0197650522
 30
0.0
 40
2.249999999999943
  0
CIRCLE
  5
1CC
  8
0
  6
CONTINUOUS
 62
     7
 10
345.2429501722
 20
32.0197650522
 30
0.0
 40
2.249999999999943
  0
LINE
  5
1CD
  8
0
  6
CONTINUOUS
 62
     7
 10
379.7429498667
 20
22.7766209573
 30
0.0
 11
379.7429498667
 21
27.0197657228
 31
0.0
  0
LINE
  5
1CE
  8
0
  6
CONTINUOUS
 62
     7
 10
383.7429505224
 20
27.0197657228
 30
0.0
 11
383.7429505224
 21
21.6070213646
 31
0.0
  0
POLYLINE
  5
1CF
  8
0
  6
CONTINUOUS
 62
     7
 66
     1
 10
0.0
 20
0.0
 30
0.0
 70
   128
  0
VERTEX
  5
696
  8
0
  6
CONTINUOUS
 62
     7
 10
383.7429505224
 20
21.6070213646
 30
0.0
  0
VERTEX
  5
697
  8
0
  6
CONTINUOUS
 62
     7
 10
383.5049547637
 20
22.2155773372
 30
0.0
  0
VERTEX
  5
698
  8
0
  6
CONTINUOUS
 62
     7
 10
382.7761007855
 20
22.6641842455
 30
0.0
  0
VERTEX
  5
699
  8
0
  6
CONTINUOUS
 62
     7
 10
381.7295354242
 20
22.8718878061
 30
0.0
  0
VERTEX
  5
69A
  8
0
  6
CONTINUOUS
 62
     7
 10
380.5571744601
 20
22.8720889718
 30
0.0
  0
VERTEX
  5
69B
  8
0
  6
CONTINUOUS
 62
     7
 10
379.7429498667
 20
22.7766209573
 30
0.0
  0
SEQEND
  5
737
  8
0
  6
CONTINUOUS
 62
     7
  0
ARC
  5
1D0
  8
0
  6
CONTINUOUS
 62
     7
 10
370.2429501722
 20
76.0197650522
 30
0.0
 40
59.99999999999999
 50
256.9971218371
 51
283.0028781629
  0
LINE
  5
1D1
  8
0
  6
CONTINUOUS
 62
     7
 10
356.742949822
 20
21.6070213646
 30
0.0
 11
356.742949822
 21
17.5582380325
 31
0.0
  0
POLYLINE
  5
1D2
  8
0
  6
CONTINUOUS
 62
     7
 66
     1
 10
0.0
 20
0.0
 30
0.0
 70
   128
  0
VERTEX
  5
69C
  8
0
  6
CONTINUOUS
 62
     7
 10
360.7429504777
 20
22.7766209573
 30
0.0
  0
VERTEX
  5
69D
  8
0
  6
CONTINUOUS
 62
     7
 10
359.5289919907
 20
22.8920602531
 30
0.0
  0
VERTEX
  5
69E
  8
0
  6
CONTINUOUS
 62
     7
 10
358.4254557649
 20
22.8341990441
 30
0.0
  0
VERTEX
  5
69F
  8
0
  6
CONTINUOUS
 62
     7
 10
357.5621141503
 20
22.6069749624
 30
0.0
  0
VERTEX
  5
6A0
  8
0
  6
CONTINUOUS
 62
     7
 10
356.9835942621
 20
22.2185426683
 30
0.0
  0
VERTEX
  5
6A1
  8
0
  6
CONTINUOUS
 62
     7
 10
356.742949822
 20
21.6070213646
 30
0.0
  0
SEQEND
  5
738
  8
0
  6
CONTINUOUS
 62
     7
  0
ARC
  5
1D3
  8
0
  6
CONTINUOUS
 62
     7
 10
370.2429501722
 20
82.030462634
 30
0.0
 40
60.0105636337526
 50
260.8914474507
 51
279.1085525493
  0
LINE
  5
1D4
  8
0
  6
CONTINUOUS
 62
     7
 10
383.7429505224
 20
21.6070213646
 30
0.0
 11
383.7429505224
 21
17.5582380325
 31
0.0
  0
LINE
  5
1D5
  8
0
  6
CONTINUOUS
 62
     7
 10
360.7429504777
 20
27.0197657228
 30
0.0
 11
360.7429504777
 21
22.7766209573
 31
0.0
  0
LINE
  5
1D6
  8
0
  6
CONTINUOUS
 62
     7
 10
356.742949822
 20
21.6070213646
 30
0.0
 11
356.742949822
 21
27.0197657228
 31
0.0
  0
LINE
  5
1D7
  8
0
  6
CONTINUOUS
 62
     7
 10
356.4429503316
 20
23.0197632045
 30
0.0
 11
356.4429503316
 21
25.9197657287
 31
0.0
  0
LINE
  5
1D8
  8
0
  6
CONTINUOUS
 62
     7
 10
356.4429503316
 20
20.1197662682
 30
0.0
 11
356.4429503316
 21
23.0197632045
 31
0.0
  0
LINE
  5
1D9
  8
0
  6
CONTINUOUS
 62
     7
 10
364.992950243
 20
14.0197635919
 30
0.0
 11
375.4929501014
 21
14.0197635919
 31
0.0
  0
LINE
  5
1DA
  8
0
  6
CONTINUOUS
 62
     7
 10
354.1429495821
 20
22.2197645635
 30
0.0
 11
354.1429495821
 21
25.7197642058
 31
0.0
  0
LINE
  5
1DB
  8
0
  6
CONTINUOUS
 62
     7
 10
354.1429495821
 20
18.7197649211
 30
0.0
 11
354.1429495821
 21
22.2197645635
 31
0.0
  0
LINE
  5
1DC
  8
0
  6
CONTINUOUS
 62
     7
 10
351.7429499338
 20
20.8509848744
 30
0.0
 11
351.7429499338
 21
24.4197645516
 31
0.0
  0
POLYLINE
  5
1DD
  8
0
  6
CONTINUOUS
 62
     7
 66
     1
 10
0.0
 20
0.0
 30
0.0
 70
   128
  0
VERTEX
  5
6A2
  8
0
  6
CONTINUOUS
 62
     7
 10
353.0429495881
 20
19.9279883236
 30
0.0
  0
VERTEX
  5
6A3
  8
0
  6
CONTINUOUS
 62
     7
 10
352.6135558645
 20
19.9797177047
 30
0.0
  0
VERTEX
  5
6A4
  8
0
  6
CONTINUOUS
 62
     7
 10
352.2325760136
 20
20.1290049881
 30
0.0
  0
VERTEX
  5
6A5
  8
0
  6
CONTINUOUS
 62
     7
 10
351.9425323615
 20
20.359131071
 30
0.0
  0
VERTEX
  5
6A6
  8
0
  6
CONTINUOUS
 62
     7
 10
351.7757101367
 20
20.6447379023
 30
0.0
  0
VERTEX
  5
6A7
  8
0
  6
CONTINUOUS
 62
     7
 10
351.7429499338
 20
20.8509848744
 30
0.0
  0
SEQEND
  5
739
  8
0
  6
CONTINUOUS
 62
     7
  0
LINE
  5
1DE
  8
0
  6
CONTINUOUS
 62
     7
 10
353.0429495881
 20
19.5744359225
 30
0.0
 11
353.0429495881
 21
19.9279883236
 31
0.0
  0
LINE
  5
1DF
  8
0
  6
CONTINUOUS
 62
     7
 10
351.7429499338
 20
20.0197645754
 30
0.0
 11
351.7429499338
 21
20.497428748
 31
0.0
  0
POLYLINE
  5
1E0
  8
0
  6
CONTINUOUS
 62
     7
 66
     1
 10
0.0
 20
0.0
 30
0.0
 70
   128
  0
VERTEX
  5
6A8
  8
0
  6
CONTINUOUS
 62
     7
 10
351.7429499338
 20
20.497428748
 30
0.0
  0
VERTEX
  5
6A9
  8
0
  6
CONTINUOUS
 62
     7
 10
351.8167162696
 20
20.1905207068
 30
0.0
  0
VERTEX
  5
6AA
  8
0
  6
CONTINUOUS
 62
     7
 10
352.0303225527
 20
19.9182466895
 30
0.0
  0
VERTEX
  5
6AB
  8
0
  6
CONTINUOUS
 62
     7
 10
352.3582039783
 20
19.7126665444
 30
0.0
  0
VERTEX
  5
6AC
  8
0
  6
CONTINUOUS
 62
     7
 10
352.7625339488
 20
19.5961320132
 30
0.0
  0
VERTEX
  5
6AD
  8
0
  6
CONTINUOUS
 62
     7
 10
353.0429495881
 20
19.5744359225
 30
0.0
  0
SEQEND
  5
73A
  8
0
  6
CONTINUOUS
 62
     7
  0
LINE
  5
1E1
  8
0
  6
CONTINUOUS
 62
     7
 10
351.7429499338
 20
20.8509848744
 30
0.0
 11
351.7429499338
 21
20.497428748
 31
0.0
  0
LINE
  5
1E2
  8
0
  6
CONTINUOUS
 62
     7
 10
365.4429499442
 20
-264.0802315145
 30
0.0
 11
375.0429504002
 21
-264.0802315145
 31
0.0
  0
LINE
  5
1E3
  8
0
  6
CONTINUOUS
 62
     7
 10
365.4429499442
 20
-254.3802312284
 30
0.0
 11
365.4429499442
 21
-264.0802315145
 31
0.0
  0
LINE
  5
1E4
  8
0
  6
CONTINUOUS
 62
     7
 10
365.4429499442
 20
-254.3802312284
 30
0.0
 11
364.4429502459
 21
-254.3802312284
 31
0.0
  0
LINE
  5
1E5
  8
0
  6
CONTINUOUS
 62
     7
 10
364.4429502459
 20
-254.3802312284
 30
0.0
 11
364.4429502459
 21
-253.380244103
 31
0.0
  0
LINE
  5
1E6
  8
0
  6
CONTINUOUS
 62
     7
 10
375.0429504002
 20
-264.0802315145
 30
0.0
 11
375.0429504002
 21
-254.3802312284
 31
0.0
  0
LINE
  5
1E7
  8
0
  6
CONTINUOUS
 62
     7
 10
375.0429504002
 20
-254.3802312284
 30
0.0
 11
376.0429500984
 21
-254.3802312284
 31
0.0
  0
LINE
  5
1E8
  8
0
  6
CONTINUOUS
 62
     7
 10
376.0429500984
 20
-253.380244103
 30
0.0
 11
364.4429502459
 21
-253.380244103
 31
0.0
  0
LINE
  5
1E9
  8
0
  6
CONTINUOUS
 62
     7
 10
376.0429500984
 20
-253.380244103
 30
0.0
 11
376.0429500984
 21
-254.3802312284
 31
0.0
  0
LINE
  5
1EA
  8
0
  6
CONTINUOUS
 62
     7
 10
370.7429501959
 20
-264.0802315145
 30
0.0
 11
370.7429501959
 21
-272.9802480608
 31
0.0
  0
LINE
  5
1EB
  8
0
  6
CONTINUOUS
 62
     7
 10
373.3929501763
 20
-264.0802315145
 30
0.0
 11
373.3929501763
 21
-272.9802480608
 31
0.0
  0
LINE
  5
1EC
  8
0
  6
CONTINUOUS
 62
     7
 10
373.3929501763
 20
-272.9802480608
 30
0.0
 11
370.7429501959
 21
-272.9802480608
 31
0.0
  0
LINE
  5
1ED
  8
0
  6
CONTINUOUS
 62
     7
 10
374.1429500664
 20
-272.9802480608
 30
0.0
 11
374.1429500664
 21
-264.0802315145
 31
0.0
  0
LINE
  5
1EE
  8
0
  6
CONTINUOUS
 62
     7
 10
374.1429500664
 20
-272.9802480608
 30
0.0
 11
373.3929501763
 21
-272.9802480608
 31
0.0
  0
LINE
  5
1EF
  8
0
  6
CONTINUOUS
 62
     7
 10
366.5429501711
 20
-264.0802315145
 30
0.0
 11
366.5429501711
 21
-272.9802480608
 31
0.0
  0
LINE
  5
1F0
  8
0
  6
CONTINUOUS
 62
     7
 10
369.9429501579
 20
-272.9802480608
 30
0.0
 11
366.5429501711
 21
-272.9802480608
 31
0.0
  0
LINE
  5
1F1
  8
0
  6
CONTINUOUS
 62
     7
 10
369.9429501579
 20
-264.0802315145
 30
0.0
 11
369.9429501579
 21
-272.9802480608
 31
0.0
  0
LINE
  5
1F2
  8
0
  6
CONTINUOUS
 62
     7
 10
375.2929499755
 20
-264.0802315145
 30
0.0
 11
375.0429504002
 21
-264.0802315145
 31
0.0
  0
LINE
  5
1F3
  8
0
  6
CONTINUOUS
 62
     7
 10
365.7429503659
 20
-193.3802417189
 30
0.0
 11
374.7429499785
 21
-193.3802417189
 31
0.0
  0
LINE
  5
1F4
  8
0
  6
CONTINUOUS
 62
     7
 10
366.2429499822
 20
-218.3802476793
 30
0.0
 11
374.2429503622
 21
-218.3802476793
 31
0.0
  0
LINE
  5
1F5
  8
0
  6
CONTINUOUS
 62
     7
 10
370.2429501722
 20
-233.3802333742
 30
0.0
 11
366.7429500642
 21
-233.3802333742
 31
0.0
  0
LINE
  5
1F6
  8
0
  6
CONTINUOUS
 62
     7
 10
373.7429502802
 20
-233.3802333742
 30
0.0
 11
370.2429501722
 21
-233.3802333742
 31
0.0
  0
ARC
  5
1F7
  8
0
  6
CONTINUOUS
 62
     7
 10
365.1429501722
 20
-261.0302349478
 30
0.0
 40
0.3000000000000114
 50
270.0
 51
0.0
  0
ARC
  5
1F8
  8
0
  6
CONTINUOUS
 62
     7
 10
365.1429501722
 20
-263.1302349478
 30
0.0
 40
0.3000000000000114
 50
0.0
 51
90.0
  0
LINE
  5
1F9
  8
0
  6
CONTINUOUS
 62
     7
 10
365.1429499882
 20
-262.8302327066
 30
0.0
 11
362.642950044
 21
-262.8302327066
 31
0.0
  0
LINE
  5
1FA
  8
0
  6
CONTINUOUS
 62
     7
 10
362.642950044
 20
-262.8302327066
 30
0.0
 11
362.642950044
 21
-257.5802257925
 31
0.0
  0
LINE
  5
1FB
  8
0
  6
CONTINUOUS
 62
     7
 10
362.642950044
 20
-257.5802257925
 30
0.0
 11
361.9429503018
 21
-257.0802322298
 31
0.0
  0
LINE
  5
1FC
  8
0
  6
CONTINUOUS
 62
     7
 10
361.6429498801
 20
-257.0802322298
 30
0.0
 11
361.9429503018
 21
-257.0802322298
 31
0.0
  0
LINE
  5
1FD
  8
0
  6
CONTINUOUS
 62
     7
 10
361.6429498801
 20
-255.5802217394
 30
0.0
 11
361.6429498801
 21
-257.0802322298
 31
0.0
  0
LINE
  5
1FE
  8
0
  6
CONTINUOUS
 62
     7
 10
361.6429498801
 20
-255.5802217394
 30
0.0
 11
363.5566240559
 21
-255.5802217394
 31
0.0
  0
LINE
  5
1FF
  8
0
  6
CONTINUOUS
 62
     7
 10
363.5566240559
 20
-255.5802217394
 30
0.0
 11
364.0437113503
 21
-261.1476531893
 31
0.0
  0
ARC
  5
200
  8
0
  6
CONTINUOUS
 62
     7
 10
364.2429501722
 20
-261.1302349478
 30
0.0
 40
0.2000000000000455
 50
185.0000000001
 51
270.0
  0
LINE
  5
201
  8
0
  6
CONTINUOUS
 62
     7
 10
364.24295012
 20
-261.3302222162
 30
0.0
 11
365.1429499882
 21
-261.3302222162
 31
0.0
  0
LINE
  5
202
  8
0
  6
CONTINUOUS
 62
     7
 10
363.942950164
 20
-267.511462298
 30
0.0
 11
363.942950164
 21
-262.8302327066
 31
0.0
  0
LINE
  5
203
  8
0
  6
CONTINUOUS
 62
     7
 10
363.942950164
 20
-267.511462298
 30
0.0
 11
365.4429499442
 21
-267.3802426725
 31
0.0
  0
LINE
  5
204
  8
0
  6
CONTINUOUS
 62
     7
 10
365.4429499442
 20
-268.8802233606
 30
0.0
 11
365.4429499442
 21
-267.3802426725
 31
0.0
  0
LINE
  5
205
  8
0
  6
CONTINUOUS
 62
     7
 10
362.642950044
 20
-270.380233851
 30
0.0
 11
363.942950164
 21
-270.380233851
 31
0.0
  0
LINE
  5
206
  8
0
  6
CONTINUOUS
 62
     7
 10
361.9429503018
 20
-269.6802369028
 30
0.0
 11
362.642950044
 21
-270.380233851
 31
0.0
  0
LINE
  5
207
  8
0
  6
CONTINUOUS
 62
     7
 10
361.9429503018
 20
-269.6802369028
 30
0.0
 11
361.9429503018
 21
-257.0802322298
 31
0.0
  0
LINE
  5
208
  8
0
  6
CONTINUOUS
 62
     7
 10
365.4429499442
 20
-268.8802233606
 30
0.0
 11
363.942950164
 21
-270.380233851
 31
0.0
  0
LINE
  5
209
  8
0
  6
CONTINUOUS
 62
     7
 10
370.7429501959
 20
-266.8802491098
 30
0.0
 11
370.2679501716
 21
-266.8802491098
 31
0.0
  0
LINE
  5
20A
  8
0
  6
CONTINUOUS
 62
     7
 10
370.2679501716
 20
-264.0802315145
 30
0.0
 11
370.2679501716
 21
-266.8802491098
 31
0.0
  0
LINE
  5
20B
  8
0
  6
CONTINUOUS
 62
     7
 10
370.2179501728
 20
-266.8802491098
 30
0.0
 11
370.2179501728
 21
-264.0802315145
 31
0.0
  0
LINE
  5
20C
  8
0
  6
CONTINUOUS
 62
     7
 10
369.9429501579
 20
-266.8802491098
 30
0.0
 11
370.2179501728
 21
-266.8802491098
 31
0.0
  0
LINE
  5
20D
  8
0
  6
CONTINUOUS
 62
     7
 10
364.1429502899
 20
-261.3034299284
 30
0.0
 11
364.1429502899
 21
-245.9802380472
 31
0.0
  0
LINE
  5
20E
  8
0
  6
CONTINUOUS
 62
     7
 10
375.2929499755
 20
-262.4802342325
 30
0.0
 11
376.3429500545
 21
-262.4802342325
 31
0.0
  0
LINE
  5
20F
  8
0
  6
CONTINUOUS
 62
     7
 10
376.3429500545
 20
-262.4802342325
 30
0.0
 11
376.3429500545
 21
-245.9802380472
 31
0.0
  0
LINE
  5
210
  8
0
  6
CONTINUOUS
 62
     7
 10
376.3429500545
 20
-245.9802380472
 30
0.0
 11
372.8537686551
 21
-245.9802380472
 31
0.0
  0
LINE
  5
211
  8
0
  6
CONTINUOUS
 62
     7
 10
371.3563343194
 20
-245.9802380472
 30
0.0
 11
369.4400066892
 21
-245.9802380472
 31
0.0
  0
LINE
  5
212
  8
0
  6
CONTINUOUS
 62
     7
 10
367.3936174168
 20
-245.9802380472
 30
0.0
 11
364.1429502899
 21
-245.9802380472
 31
0.0
  0
LINE
  5
213
  8
0
  6
CONTINUOUS
 62
     7
 10
366.2679499397
 20
-243.63023552
 30
0.0
 11
366.2679499397
 21
-245.9802380472
 31
0.0
  0
LINE
  5
214
  8
0
  6
CONTINUOUS
 62
     7
 10
371.3110671528
 20
-243.63023552
 30
0.0
 11
369.6142461417
 21
-243.63023552
 31
0.0
  0
LINE
  5
215
  8
0
  6
CONTINUOUS
 62
     7
 10
367.414786146
 20
-243.63023552
 30
0.0
 11
366.2679499397
 21
-243.63023552
 31
0.0
  0
LINE
  5
216
  8
0
  6
CONTINUOUS
 62
     7
 10
364.1429502899
 20
-237.9739335447
 30
0.0
 11
364.1429502899
 21
-234.2151454359
 31
0.0
  0
LINE
  5
217
  8
0
  6
CONTINUOUS
 62
     7
 10
376.3429500545
 20
-237.9739335447
 30
0.0
 11
376.3429500545
 21
-234.2151454359
 31
0.0
  0
LINE
  5
218
  8
0
  6
CONTINUOUS
 62
     7
 10
364.1429502899
 20
-229.4802418619
 30
0.0
 11
366.7429500642
 21
-229.4802418619
 31
0.0
  0
LINE
  5
219
  8
0
  6
CONTINUOUS
 62
     7
 10
373.7429502802
 20
-229.4802418619
 30
0.0
 11
376.3429500545
 21
-229.4802418619
 31
0.0
  0
LINE
  5
21A
  8
0
  6
CONTINUOUS
 62
     7
 10
364.1429502899
 20
-229.9802354246
 30
0.0
 11
364.1429502899
 21
-229.4802418619
 31
0.0
  0
LINE
  5
21B
  8
0
  6
CONTINUOUS
 62
     7
 10
376.3429500545
 20
-229.9802354246
 30
0.0
 11
376.3429500545
 21
-229.4802418619
 31
0.0
  0
LINE
  5
21C
  8
0
  6
CONTINUOUS
 62
     7
 10
364.1429502899
 20
-234.2151454359
 30
0.0
 11
364.1429502899
 21
-229.9802354246
 31
0.0
  0
LINE
  5
21D
  8
0
  6
CONTINUOUS
 62
     7
 10
376.3429500545
 20
-234.2151454359
 30
0.0
 11
376.3429500545
 21
-229.9802354246
 31
0.0
  0
LINE
  5
21E
  8
0
  6
CONTINUOUS
 62
     7
 10
367.2179501886
 20
-239.2802289396
 30
0.0
 11
367.2179501886
 21
-239.8302307993
 31
0.0
  0
LINE
  5
21F
  8
0
  6
CONTINUOUS
 62
     7
 10
371.2179501457
 20
-239.8302307993
 30
0.0
 11
371.2179501457
 21
-239.2802289396
 31
0.0
  0
LINE
  5
220
  8
0
  6
CONTINUOUS
 62
     7
 10
367.2179501886
 20
-239.8302307993
 30
0.0
 11
367.4443188506
 21
-239.8302307993
 31
0.0
  0
LINE
  5
221
  8
0
  6
CONTINUOUS
 62
     7
 10
369.8962506755
 20
-239.8302307993
 30
0.0
 11
371.2179501457
 21
-239.8302307993
 31
0.0
  0
LINE
  5
222
  8
0
  6
CONTINUOUS
 62
     7
 10
367.2179501886
 20
-238.9802387625
 30
0.0
 11
367.2179501886
 21
-239.2802289396
 31
0.0
  0
LINE
  5
223
  8
0
  6
CONTINUOUS
 62
     7
 10
367.2179501886
 20
-238.9802387625
 30
0.0
 11
367.4507684922
 21
-238.9802387625
 31
0.0
  0
LINE
  5
224
  8
0
  6
CONTINUOUS
 62
     7
 10
369.9593306086
 20
-238.9802387625
 30
0.0
 11
371.2179501457
 21
-238.9802387625
 31
0.0
  0
LINE
  5
225
  8
0
  6
CONTINUOUS
 62
     7
 10
371.2179501457
 20
-239.2802289396
 30
0.0
 11
371.2179501457
 21
-238.9802387625
 31
0.0
  0
LINE
  5
226
  8
0
  6
CONTINUOUS
 62
     7
 10
372.8149732491
 20
-243.9802339941
 30
0.0
 11
376.3429500545
 21
-243.9802339941
 31
0.0
  0
LINE
  5
227
  8
0
  6
CONTINUOUS
 62
     7
 10
376.3429500545
 20
-245.9802380472
 30
0.0
 11
376.3429500545
 21
-243.9802339941
 31
0.0
  0
LINE
  5
228
  8
0
  6
CONTINUOUS
 62
     7
 10
364.1429502899
 20
-243.9802339941
 30
0.0
 11
366.2679499397
 21
-243.9802339941
 31
0.0
  0
LINE
  5
229
  8
0
  6
CONTINUOUS
 62
     7
 10
364.1429502899
 20
-245.9802380472
 30
0.0
 11
364.1429502899
 21
-243.9802339941
 31
0.0
  0
LINE
  5
22A
  8
0
  6
CONTINUOUS
 62
     7
 10
371.2179501457
 20
-238.9802387625
 30
0.0
 11
371.2204113985
 21
-238.9802387625
 31
0.0
  0
LINE
  5
22B
  8
0
  6
CONTINUOUS
 62
     7
 10
371.2370208381
 20
-239.8302307993
 30
0.0
 11
371.2179501457
 21
-239.8302307993
 31
0.0
  0
LINE
  5
22C
  8
0
  6
CONTINUOUS
 62
     7
 10
367.2179501886
 20
-239.8302307993
 30
0.0
 11
367.2179501886
 21
-240.6802228361
 31
0.0
  0
LINE
  5
22D
  8
0
  6
CONTINUOUS
 62
     7
 10
371.2179501457
 20
-240.6802228361
 30
0.0
 11
371.2179501457
 21
-239.8302307993
 31
0.0
  0
LINE
  5
22E
  8
0
  6
CONTINUOUS
 62
     7
 10
367.2179501886
 20
-240.6802228361
 30
0.0
 11
367.4378692089
 21
-240.6802228361
 31
0.0
  0
LINE
  5
22F
  8
0
  6
CONTINUOUS
 62
     7
 10
369.8331707132
 20
-240.6802228361
 30
0.0
 11
371.2179501457
 21
-240.6802228361
 31
0.0
  0
LINE
  5
230
  8
0
  6
CONTINUOUS
 62
     7
 10
366.2679499397
 20
-239.2802289396
 30
0.0
 11
367.2179501886
 21
-239.2802289396
 31
0.0
  0
LINE
  5
231
  8
0
  6
CONTINUOUS
 62
     7
 10
367.2179501886
 20
-238.9802387625
 30
0.0
 11
366.2679499397
 21
-238.9802387625
 31
0.0
  0
LINE
  5
232
  8
0
  6
CONTINUOUS
 62
     7
 10
366.2679499397
 20
-239.2802289396
 30
0.0
 11
366.2679499397
 21
-238.9802387625
 31
0.0
  0
LINE
  5
233
  8
0
  6
CONTINUOUS
 62
     7
 10
371.3014358804
 20
-243.1302419573
 30
0.0
 11
371.2179501457
 21
-243.1302419573
 31
0.0
  0
LINE
  5
234
  8
0
  6
CONTINUOUS
 62
     7
 10
367.2179501886
 20
-239.8302307993
 30
0.0
 11
366.2679499397
 21
-239.8302307993
 31
0.0
  0
LINE
  5
235
  8
0
  6
CONTINUOUS
 62
     7
 10
366.2679499397
 20
-239.8302307993
 30
0.0
 11
366.2679499397
 21
-239.2802289396
 31
0.0
  0
LINE
  5
236
  8
0
  6
CONTINUOUS
 62
     7
 10
367.2179501886
 20
-243.1302419573
 30
0.0
 11
366.2679499397
 21
-243.1302419573
 31
0.0
  0
LINE
  5
237
  8
0
  6
CONTINUOUS
 62
     7
 10
366.2679499397
 20
-243.1302419573
 30
0.0
 11
366.2679499397
 21
-239.8302307993
 31
0.0
  0
LINE
  5
238
  8
0
  6
CONTINUOUS
 62
     7
 10
367.2179501886
 20
-240.6802228361
 30
0.0
 11
367.2179501886
 21
-241.5302446752
 31
0.0
  0
LINE
  5
239
  8
0
  6
CONTINUOUS
 62
     7
 10
371.2179501457
 20
-241.5302446752
 30
0.0
 11
371.2179501457
 21
-240.6802228361
 31
0.0
  0
LINE
  5
23A
  8
0
  6
CONTINUOUS
 62
     7
 10
371.2179501457
 20
-241.5302446752
 30
0.0
 11
369.7700907509
 21
-241.5302446752
 31
0.0
  0
LINE
  5
23B
  8
0
  6
CONTINUOUS
 62
     7
 10
367.4314195672
 20
-241.5302446752
 30
0.0
 11
367.2179501886
 21
-241.5302446752
 31
0.0
  0
LINE
  5
23C
  8
0
  6
CONTINUOUS
 62
     7
 10
367.2179501886
 20
-241.5302446752
 30
0.0
 11
367.2179501886
 21
-242.3802367121
 31
0.0
  0
LINE
  5
23D
  8
0
  6
CONTINUOUS
 62
     7
 10
371.2179501457
 20
-242.3802367121
 30
0.0
 11
371.2179501457
 21
-241.5302446752
 31
0.0
  0
LINE
  5
23E
  8
0
  6
CONTINUOUS
 62
     7
 10
371.2179501457
 20
-242.3802367121
 30
0.0
 11
369.7070108177
 21
-242.3802367121
 31
0.0
  0
LINE
  5
23F
  8
0
  6
CONTINUOUS
 62
     7
 10
367.4249699256
 20
-242.3802367121
 30
0.0
 11
367.2179501886
 21
-242.3802367121
 31
0.0
  0
LINE
  5
240
  8
0
  6
CONTINUOUS
 62
     7
 10
364.1429502899
 20
-238.8561716944
 30
0.0
 11
367.4517095937
 21
-238.8561716944
 31
0.0
  0
LINE
  5
241
  8
0
  6
CONTINUOUS
 62
     7
 10
369.9685368487
 20
-238.8561716944
 30
0.0
 11
371.2179872822
 21
-238.8561716944
 31
0.0
  0
LINE
  5
242
  8
0
  6
CONTINUOUS
 62
     7
 10
372.7163645821
 20
-238.8561716944
 30
0.0
 11
376.3429500545
 21
-238.8561716944
 31
0.0
  0
LINE
  5
243
  8
0
  6
CONTINUOUS
 62
     7
 10
364.1429502899
 20
-238.8561716944
 30
0.0
 11
364.1429502899
 21
-237.9739335447
 31
0.0
  0
LINE
  5
244
  8
0
  6
CONTINUOUS
 62
     7
 10
376.3429500545
 20
-238.8561716944
 30
0.0
 11
376.3429500545
 21
-237.9739335447
 31
0.0
  0
LINE
  5
245
  8
0
  6
CONTINUOUS
 62
     7
 10
367.2179501886
 20
-242.3802367121
 30
0.0
 11
367.2179501886
 21
-243.1302419573
 31
0.0
  0
LINE
  5
246
  8
0
  6
CONTINUOUS
 62
     7
 10
371.2179501457
 20
-243.1302419573
 30
0.0
 11
369.6513520121
 21
-243.1302419573
 31
0.0
  0
LINE
  5
247
  8
0
  6
CONTINUOUS
 62
     7
 10
367.419279079
 20
-243.1302419573
 30
0.0
 11
367.2179501886
 21
-243.1302419573
 31
0.0
  0
LINE
  5
248
  8
0
  6
CONTINUOUS
 62
     7
 10
371.2179501457
 20
-242.3802367121
 30
0.0
 11
371.2179501457
 21
-243.1302419573
 31
0.0
  0
LINE
  5
249
  8
0
  6
CONTINUOUS
 62
     7
 10
366.2679499397
 20
-243.63023552
 30
0.0
 11
366.2679499397
 21
-243.1302419573
 31
0.0
  0
LINE
  5
24A
  8
0
  6
CONTINUOUS
 62
     7
 10
364.1429502899
 20
-243.9802339941
 30
0.0
 11
364.1429502899
 21
-238.8561716944
 31
0.0
  0
LINE
  5
24B
  8
0
  6
CONTINUOUS
 62
     7
 10
376.3429500545
 20
-243.9802339941
 30
0.0
 11
376.3429500545
 21
-238.8561716944
 31
0.0
  0
LINE
  5
24C
  8
0
  6
CONTINUOUS
 62
     7
 10
370.7429501959
 20
-272.9802480608
 30
0.0
 11
369.9429501579
 21
-272.9802480608
 31
0.0
  0
LINE
  5
24D
  8
0
  6
CONTINUOUS
 62
     8
 10
353.0429495881
 20
25.7197642058
 30
0.0
 11
353.0429495881
 21
19.9279883236
 31
0.0
  0
LINE
  5
24E
  8
0
  6
CONTINUOUS
 62
     8
 10
353.0429495881
 20
19.5744359225
 30
0.0
 11
353.0429495881
 21
18.7197649211
 31
0.0
  0
LINE
  5
24F
  8
0
  6
CONTINUOUS
 62
     8
 10
365.7429503659
 20
-217.8802243143
 30
0.0
 11
374.7429499785
 21
-217.8802243143
 31
0.0
  0
LINE
  5
250
  8
0
  6
CONTINUOUS
 62
     8
 10
373.7429502802
 20
-218.880241242
 30
0.0
 11
366.7429500642
 21
-218.880241242
 31
0.0
  0
LINE
  5
251
  8
0
  6
CONTINUOUS
 62
     8
 10
376.3429500545
 20
-234.2151454359
 30
0.0
 11
372.6270512129
 21
-234.2151454359
 31
0.0
  0
LINE
  5
252
  8
0
  6
CONTINUOUS
 62
     8
 10
371.1272985824
 20
-234.2151454359
 30
0.0
 11
370.3129569625
 21
-234.2151454359
 31
0.0
  0
LINE
  5
253
  8
0
  6
CONTINUOUS
 62
     8
 10
367.4869249957
 20
-234.2151454359
 30
0.0
 11
364.1429502899
 21
-234.2151454359
 31
0.0
  0
LINE
  5
254
  8
0
  6
CONTINUOUS
 62
     8
 10
364.1429502899
 20
-237.9739335447
 30
0.0
 11
367.4584039403
 21
-237.9739335447
 31
0.0
  0
LINE
  5
255
  8
0
  6
CONTINUOUS
 62
     8
 10
370.0340103245
 20
-237.9739335447
 30
0.0
 11
371.20074757
 21
-237.9739335447
 31
0.0
  0
LINE
  5
256
  8
0
  6
CONTINUOUS
 62
     8
 10
372.6993863387
 20
-237.9739335447
 30
0.0
 11
376.3429500545
 21
-237.9739335447
 31
0.0
  0
LINE
  5
257
  8
0
  6
CONTINUOUS
 62
     8
 10
376.3429500545
 20
-229.9802354246
 30
0.0
 11
373.7429502802
 21
-229.9802354246
 31
0.0
  0
LINE
  5
258
  8
0
  6
CONTINUOUS
 62
     8
 10
366.7429500642
 20
-229.9802354246
 30
0.0
 11
364.1429502899
 21
-229.9802354246
 31
0.0
  0
LINE
  5
259
  8
0
  6
CONTINUOUS
 62
     8
 10
367.2179501886
 20
-239.2802289396
 30
0.0
 11
367.448492107
 21
-239.2802289396
 31
0.0
  0
LINE
  5
25A
  8
0
  6
CONTINUOUS
 62
     8
 10
369.9370671097
 20
-239.2802289396
 30
0.0
 11
371.2179501457
 21
-239.2802289396
 31
0.0
  0
LINE
  5
25B
  8
0
  6
CONTINUOUS
 62
     8
 10
371.2179501457
 20
-239.2802289396
 30
0.0
 11
371.2262736084
 21
-239.2802289396
 31
0.0
  0
LINE
  5
25C
  8
0
  6
CONTINUOUS
 62
     7
 10
70.650005255
 20
14.0197635919
 30
0.0
 11
70.650005255
 21
-193.3802417189
 31
0.0
  0
LINE
  5
25D
  8
0
  6
CONTINUOUS
 62
     7
 10
78.650005635
 20
-193.3802417189
 30
0.0
 11
78.650005635
 21
14.0197635919
 31
0.0
  0
LINE
  5
25E
  8
0
  6
CONTINUOUS
 62
     7
 10
71.6500054189
 20
14.0197635919
 30
0.0
 11
71.6500054189
 21
-229.4802418619
 31
0.0
  0
LINE
  5
25F
  8
0
  6
CONTINUOUS
 62
     7
 10
77.6500054711
 20
-229.4802418619
 30
0.0
 11
77.6500054711
 21
14.0197635919
 31
0.0
  0
LINE
  5
260
  8
0
  6
CONTINUOUS
 62
     7
 10
88.1500057952
 20
18.7197649211
 30
0.0
 11
90.7500060351
 21
18.7197649211
 31
0.0
  0
LINE
  5
261
  8
0
  6
CONTINUOUS
 62
     7
 10
90.7500060351
 20
25.7197642058
 30
0.0
 11
88.1500057952
 21
25.7197642058
 31
0.0
  0
LINE
  5
262
  8
0
  6
CONTINUOUS
 62
     7
 10
69.4000055158
 20
16.2441046268
 30
0.0
 11
69.4000055158
 21
14.0197635919
 31
0.0
  0
LINE
  5
263
  8
0
  6
CONTINUOUS
 62
     7
 10
79.9000053742
 20
14.0197635919
 30
0.0
 11
79.9000053742
 21
16.2495472759
 31
0.0
  0
LINE
  5
264
  8
0
  6
CONTINUOUS
 62
     7
 10
88.4500052856
 20
25.9197657287
 30
0.0
 11
88.1500057952
 21
25.9197657287
 31
0.0
  0
ARC
  5
265
  8
0
  6
CONTINUOUS
 62
     7
 10
91.850005445
 20
20.0197650522
 30
0.0
 40
1.299999999999997
 50
270.0
 51
0.0
  0
LINE
  5
266
  8
0
  6
CONTINUOUS
 62
     7
 10
90.7500060351
 20
18.7197649211
 30
0.0
 11
91.8500060291
 21
18.7197649211
 31
0.0
  0
LINE
  5
267
  8
0
  6
CONTINUOUS
 62
     7
 10
91.8500060291
 20
25.7197642058
 30
0.0
 11
90.7500060351
 21
25.7197642058
 31
0.0
  0
ARC
  5
268
  8
0
  6
CONTINUOUS
 62
     7
 10
91.850005445
 20
24.4197650522
 30
0.0
 40
1.300000000000011
 50
0.0
 51
90.0
  0
ARC
  5
269
  8
0
  6
CONTINUOUS
 62
     7
 10
70.650005445
 20
-217.8802349478
 30
0.0
 40
0.5
 50
180.0
 51
270.0
  0
ARC
  5
26A
  8
0
  6
CONTINUOUS
 62
     7
 10
78.650005445
 20
-217.8802349478
 30
0.0
 40
0.5
 50
270.0
 51
0.0
  0
LINE
  5
26B
  8
0
  6
CONTINUOUS
 62
     7
 10
70.1500056387
 20
-193.3802417189
 30
0.0
 11
70.1500056387
 21
-217.8802243143
 31
0.0
  0
LINE
  5
26C
  8
0
  6
CONTINUOUS
 62
     7
 10
79.1500052513
 20
-217.8802243143
 30
0.0
 11
79.1500052513
 21
-193.3802417189
 31
0.0
  0
ARC
  5
26D
  8
0
  6
CONTINUOUS
 62
     7
 10
70.650005445
 20
-218.8802349478
 30
0.0
 40
0.5
 50
0.0
 51
90.0
  0
ARC
  5
26E
  8
0
  6
CONTINUOUS
 62
     7
 10
78.650005445
 20
-218.8802349478
 30
0.0
 40
0.5
 50
90.0
 51
180.0
  0
LINE
  5
26F
  8
0
  6
CONTINUOUS
 62
     7
 10
69.6000056417
 20
-262.4802342325
 30
0.0
 11
69.6000056417
 21
-264.0802315145
 31
0.0
  0
LINE
  5
270
  8
0
  6
CONTINUOUS
 62
     7
 10
71.150005337
 20
-218.880241242
 30
0.0
 11
71.150005337
 21
-229.4802418619
 31
0.0
  0
LINE
  5
271
  8
0
  6
CONTINUOUS
 62
     7
 10
78.1500055531
 20
-229.4802418619
 30
0.0
 11
78.1500055531
 21
-218.880241242
 31
0.0
  0
LINE
  5
272
  8
0
  6
CONTINUOUS
 62
     7
 10
69.6500055568
 20
16.2232057482
 30
0.0
 11
69.6500055568
 21
14.0197635919
 31
0.0
  0
LINE
  5
273
  8
0
  6
CONTINUOUS
 62
     7
 10
79.6500053333
 20
14.0197635919
 30
0.0
 11
79.6500053333
 21
16.2281082303
 31
0.0
  0
CIRCLE
  5
274
  8
0
  6
CONTINUOUS
 62
     7
 10
99.650005445
 20
82.0197650522
 30
0.0
 40
2.25
  0
ARC
  5
275
  8
0
  6
CONTINUOUS
 62
     7
 10
99.350005445
 20
81.7197650522
 30
0.0
 40
5.300000000000011
 50
0.0
 51
90.0
  0
LINE
  5
276
  8
0
  6
CONTINUOUS
 62
     7
 10
94.8500046582
 20
87.0197643817
 30
0.0
 11
99.3500063272
 21
87.0197643817
 31
0.0
  0
LINE
  5
277
  8
0
  6
CONTINUOUS
 62
     7
 10
104.6500047745
 20
81.7197659344
 30
0.0
 11
104.6500047745
 21
77.2197642655
 31
0.0
  0
CIRCLE
  5
278
  8
0
  6
CONTINUOUS
 62
     7
 10
49.650005445
 20
32.0197650522
 30
0.0
 40
2.249999999999993
  0
ARC
  5
279
  8
0
  6
CONTINUOUS
 62
     7
 10
49.950005445
 20
32.3197650522
 30
0.0
 40
5.300000000000001
 50
180.0
 51
270.0
  0
LINE
  5
27A
  8
0
  6
CONTINUOUS
 62
     7
 10
44.6500061156
 20
32.3197641701
 30
0.0
 11
44.6500061156
 21
36.819765839
 31
0.0
  0
LINE
  5
27B
  8
0
  6
CONTINUOUS
 62
     7
 10
54.4500062318
 20
27.0197657228
 30
0.0
 11
49.9500045629
 21
27.0197657228
 31
0.0
  0
ARC
  5
27C
  8
0
  6
CONTINUOUS
 62
     7
 10
99.350005445
 20
32.3197650522
 30
0.0
 40
5.300000000000001
 50
270.0
 51
0.0
  0
CIRCLE
  5
27D
  8
0
  6
CONTINUOUS
 62
     7
 10
99.650005445
 20
32.0197650522
 30
0.0
 40
2.25
  0
LINE
  5
27E
  8
0
  6
CONTINUOUS
 62
     7
 10
94.8500046582
 20
27.0197657228
 30
0.0
 11
99.3500063272
 21
27.0197657228
 31
0.0
  0
LINE
  5
27F
  8
0
  6
CONTINUOUS
 62
     7
 10
104.6500047745
 20
32.3197641701
 30
0.0
 11
104.6500047745
 21
36.819765839
 31
0.0
  0
ARC
  5
280
  8
0
  6
CONTINUOUS
 62
     7
 10
49.950005445
 20
81.7197650522
 30
0.0
 40
5.300000000000011
 50
90.0
 51
180.0
  0
CIRCLE
  5
281
  8
0
  6
CONTINUOUS
 62
     7
 10
49.650005445
 20
82.0197650522
 30
0.0
 40
2.249999999999993
  0
LINE
  5
282
  8
0
  6
CONTINUOUS
 62
     7
 10
44.6500061156
 20
81.7197659344
 30
0.0
 11
44.6500061156
 21
77.2197642655
 31
0.0
  0
LINE
  5
283
  8
0
  6
CONTINUOUS
 62
     7
 10
54.4500062318
 20
87.0197643817
 30
0.0
 11
49.9500045629
 21
87.0197643817
 31
0.0
  0
ARC
  5
284
  8
0
  6
CONTINUOUS
 62
     7
 10
74.650005445
 20
57.0197650522
 30
0.0
 40
25.74999999999996
 50
300.9682569075
 51
239.0317430925
  0
ARC
  5
285
  8
0
  6
CONTINUOUS
 62
     7
 10
74.650005445
 20
57.0197650522
 30
0.0
 40
28.34807621135331
 50
297.8659064481
 51
242.1340935519
  0
LINE
  5
286
  8
0
  6
CONTINUOUS
 62
     7
 10
61.4000056015
 20
27.0197657228
 30
0.0
 11
87.9000052886
 21
27.0197657228
 31
0.0
  0
LINE
  5
287
  8
0
  6
CONTINUOUS
 62
     7
 10
61.4000056015
 20
27.0197657228
 30
0.0
 11
61.4000056015
 21
34.9403624714
 31
0.0
  0
LINE
  5
288
  8
0
  6
CONTINUOUS
 62
     7
 10
87.9000052886
 20
27.0197657228
 30
0.0
 11
87.9000052886
 21
34.9403624714
 31
0.0
  0
LINE
  5
289
  8
0
  6
CONTINUOUS
 62
     7
 10
54.4500062318
 20
32.0197646797
 30
0.0
 11
54.4500062318
 21
27.0197657228
 31
0.0
  0
ARC
  5
28A
  8
0
  6
CONTINUOUS
 62
     7
 10
49.6500032198
 20
32.019762827
 30
0.0
 40
4.80000301197025
 50
0.0000221145
 51
89.9999778855
  0
LINE
  5
28B
  8
0
  6
CONTINUOUS
 62
     7
 10
44.6500061156
 20
36.819765839
 30
0.0
 11
49.6500050725
 21
36.819765839
 31
0.0
  0
LINE
  5
28C
  8
0
  6
CONTINUOUS
 62
     7
 10
44.6500061156
 20
77.2197642655
 30
0.0
 11
44.6500061156
 21
36.819765839
 31
0.0
  0
LINE
  5
28D
  8
0
  6
CONTINUOUS
 62
     7
 10
49.6500050725
 20
77.2197642655
 30
0.0
 11
44.6500061156
 21
77.2197642655
 31
0.0
  0
ARC
  5
28E
  8
0
  6
CONTINUOUS
 62
     7
 10
49.6500032198
 20
82.0197672774
 30
0.0
 40
4.800003011970263
 50
270.0000221145
 51
359.9999778855
  0
LINE
  5
28F
  8
0
  6
CONTINUOUS
 62
     7
 10
54.4500062318
 20
87.0197643817
 30
0.0
 11
54.4500062318
 21
82.0197654248
 31
0.0
  0
LINE
  5
290
  8
0
  6
CONTINUOUS
 62
     7
 10
94.8500046582
 20
87.0197643817
 30
0.0
 11
54.4500062318
 21
87.0197643817
 31
0.0
  0
LINE
  5
291
  8
0
  6
CONTINUOUS
 62
     7
 10
94.8500046582
 20
82.0197654248
 30
0.0
 11
94.8500046582
 21
87.0197643817
 31
0.0
  0
ARC
  5
292
  8
0
  6
CONTINUOUS
 62
     7
 10
99.6500076702
 20
82.0197672774
 30
0.0
 40
4.800003011970263
 50
180.0000221145
 51
269.9999778855
  0
LINE
  5
293
  8
0
  6
CONTINUOUS
 62
     7
 10
104.6500047745
 20
77.2197642655
 30
0.0
 11
99.6500058176
 21
77.2197642655
 31
0.0
  0
LINE
  5
294
  8
0
  6
CONTINUOUS
 62
     7
 10
104.6500047745
 20
77.2197642655
 30
0.0
 11
104.6500047745
 21
36.819765839
 31
0.0
  0
LINE
  5
295
  8
0
  6
CONTINUOUS
 62
     7
 10
99.6500058176
 20
36.819765839
 30
0.0
 11
104.6500047745
 21
36.819765839
 31
0.0
  0
ARC
  5
296
  8
0
  6
CONTINUOUS
 62
     7
 10
99.6500076702
 20
32.019762827
 30
0.0
 40
4.800003011970263
 50
90.0000221145
 51
179.9999778855
  0
LINE
  5
297
  8
0
  6
CONTINUOUS
 62
     7
 10
94.8500046582
 20
27.0197657228
 30
0.0
 11
94.8500046582
 21
32.0197646797
 31
0.0
  0
LINE
  5
298
  8
0
  6
CONTINUOUS
 62
     7
 10
87.9000052886
 20
27.0197657228
 30
0.0
 11
94.8500046582
 21
27.0197657228
 31
0.0
  0
LINE
  5
299
  8
0
  6
CONTINUOUS
 62
     7
 10
54.4500062318
 20
27.0197657228
 30
0.0
 11
61.4000056015
 21
27.0197657228
 31
0.0
  0
LINE
  5
29A
  8
0
  6
CONTINUOUS
 62
     7
 10
61.1500050948
 20
17.5582380325
 30
0.0
 11
61.6500051768
 21
17.4450264603
 31
0.0
  0
LINE
  5
29B
  8
0
  6
CONTINUOUS
 62
     7
 10
87.6500057132
 20
17.4450264603
 30
0.0
 11
88.1500057952
 21
17.5582380325
 31
0.0
  0
LINE
  5
29C
  8
0
  6
CONTINUOUS
 62
     7
 10
61.1500050948
 20
17.5582380325
 30
0.0
 11
61.1500050948
 21
27.0197657228
 31
0.0
  0
LINE
  5
29D
  8
0
  6
CONTINUOUS
 62
     7
 10
88.1500057952
 20
17.5582380325
 30
0.0
 11
88.1500057952
 21
27.0197657228
 31
0.0
  0
LINE
  5
29E
  8
0
  6
CONTINUOUS
 62
     7
 10
90.7500060351
 20
25.7197642058
 30
0.0
 11
90.7500060351
 21
18.7197649211
 31
0.0
  0
LINE
  5
29F
  8
0
  6
CONTINUOUS
 62
     7
 10
79.6500053333
 20
14.0197635919
 30
0.0
 11
79.9000053742
 21
14.0197635919
 31
0.0
  0
LINE
  5
2A0
  8
0
  6
CONTINUOUS
 62
     7
 10
69.4000055158
 20
14.0197635919
 30
0.0
 11
69.6500055568
 21
14.0197635919
 31
0.0
  0
LINE
  5
2A1
  8
0
  6
CONTINUOUS
 62
     7
 10
88.4500052856
 20
25.9197657287
 30
0.0
 11
88.4500052856
 21
25.7197642058
 31
0.0
  0
LINE
  5
2A2
  8
0
  6
CONTINUOUS
 62
     7
 10
93.1500056834
 20
23.5885479778
 30
0.0
 11
93.1500056834
 21
20.0197645754
 31
0.0
  0
POLYLINE
  5
2A3
  8
0
  6
CONTINUOUS
 62
     7
 66
     1
 10
0.0
 20
0.0
 30
0.0
 70
   128
  0
VERTEX
  5
6AE
  8
0
  6
CONTINUOUS
 62
     7
 10
91.8500060291
 20
24.5115408033
 30
0.0
  0
VERTEX
  5
6AF
  8
0
  6
CONTINUOUS
 62
     7
 10
92.2793997528
 20
24.4598114223
 30
0.0
  0
VERTEX
  5
6B0
  8
0
  6
CONTINUOUS
 62
     7
 10
92.6603796036
 20
24.3105241388
 30
0.0
  0
VERTEX
  5
6B1
  8
0
  6
CONTINUOUS
 62
     7
 10
92.9504232557
 20
24.0803980559
 30
0.0
  0
VERTEX
  5
6B2
  8
0
  6
CONTINUOUS
 62
     7
 10
93.1172454806
 20
23.7947949499
 30
0.0
  0
VERTEX
  5
6B3
  8
0
  6
CONTINUOUS
 62
     7
 10
93.1500056834
 20
23.5885479778
 30
0.0
  0
SEQEND
  5
73B
  8
0
  6
CONTINUOUS
 62
     7
  0
LINE
  5
2A4
  8
0
  6
CONTINUOUS
 62
     7
 10
91.8500060291
 20
24.8650932044
 30
0.0
 11
91.8500060291
 21
24.5115408033
 31
0.0
  0
LINE
  5
2A5
  8
0
  6
CONTINUOUS
 62
     7
 10
93.1500056834
 20
24.4197645516
 30
0.0
 11
93.1500056834
 21
23.9421003789
 31
0.0
  0
POLYLINE
  5
2A6
  8
0
  6
CONTINUOUS
 62
     7
 66
     1
 10
0.0
 20
0.0
 30
0.0
 70
   128
  0
VERTEX
  5
6B4
  8
0
  6
CONTINUOUS
 62
     7
 10
93.1500056834
 20
23.9421003789
 30
0.0
  0
VERTEX
  5
6B5
  8
0
  6
CONTINUOUS
 62
     7
 10
93.0762393476
 20
24.2490084201
 30
0.0
  0
VERTEX
  5
6B6
  8
0
  6
CONTINUOUS
 62
     7
 10
92.8626330645
 20
24.5212824375
 30
0.0
  0
VERTEX
  5
6B7
  8
0
  6
CONTINUOUS
 62
     7
 10
92.5347516389
 20
24.7268663079
 30
0.0
  0
VERTEX
  5
6B8
  8
0
  6
CONTINUOUS
 62
     7
 10
92.1304216684
 20
24.8433971137
 30
0.0
  0
VERTEX
  5
6B9
  8
0
  6
CONTINUOUS
 62
     7
 10
91.8500060291
 20
24.8650932044
 30
0.0
  0
SEQEND
  5
73C
  8
0
  6
CONTINUOUS
 62
     7
  0
LINE
  5
2A7
  8
0
  6
CONTINUOUS
 62
     7
 10
93.1500056834
 20
23.9421003789
 30
0.0
 11
93.1500056834
 21
23.5885479778
 31
0.0
  0
LINE
  5
2A8
  8
0
  6
CONTINUOUS
 62
     7
 10
79.450005673
 20
-262.4802342325
 30
0.0
 11
79.450005673
 21
-264.0802315145
 31
0.0
  0
LINE
  5
2A9
  8
0
  6
CONTINUOUS
 62
     7
 10
79.450005673
 20
-264.0802315145
 30
0.0
 11
77.7500055341
 21
-264.0802315145
 31
0.0
  0
LINE
  5
2AA
  8
0
  6
CONTINUOUS
 62
     7
 10
71.550005356
 20
-264.0802315145
 30
0.0
 11
69.850005217
 21
-264.0802315145
 31
0.0
  0
LINE
  5
2AB
  8
0
  6
CONTINUOUS
 62
     7
 10
69.850005217
 20
-264.0802315145
 30
0.0
 11
69.850005217
 21
-262.4802342325
 31
0.0
  0
LINE
  5
2AC
  8
0
  6
CONTINUOUS
 62
     7
 10
78.3500054461
 20
-272.9802480608
 30
0.0
 11
78.3500054461
 21
-264.0802315145
 31
0.0
  0
LINE
  5
2AD
  8
0
  6
CONTINUOUS
 62
     7
 10
78.3500054461
 20
-272.9802480608
 30
0.0
 11
77.7500055341
 21
-272.9802480608
 31
0.0
  0
LINE
  5
2AE
  8
0
  6
CONTINUOUS
 62
     7
 10
70.7500055508
 20
-272.9802480608
 30
0.0
 11
70.7500055508
 21
-264.0802315145
 31
0.0
  0
LINE
  5
2AF
  8
0
  6
CONTINUOUS
 62
     7
 10
71.550005356
 20
-272.9802480608
 30
0.0
 11
70.7500055508
 21
-272.9802480608
 31
0.0
  0
LINE
  5
2B0
  8
0
  6
CONTINUOUS
 62
     7
 10
77.6500054711
 20
-218.3802476793
 30
0.0
 11
78.650005635
 21
-218.3802476793
 31
0.0
  0
LINE
  5
2B1
  8
0
  6
CONTINUOUS
 62
     7
 10
70.650005255
 20
-218.3802476793
 30
0.0
 11
71.6500054189
 21
-218.3802476793
 31
0.0
  0
LINE
  5
2B2
  8
0
  6
CONTINUOUS
 62
     7
 10
77.6500054711
 20
-193.3802417189
 30
0.0
 11
79.1500052513
 21
-193.3802417189
 31
0.0
  0
LINE
  5
2B3
  8
0
  6
CONTINUOUS
 62
     7
 10
70.1500056387
 20
-193.3802417189
 30
0.0
 11
71.6500054189
 21
-193.3802417189
 31
0.0
  0
LINE
  5
2B4
  8
0
  6
CONTINUOUS
 62
     7
 10
69.6000056417
 20
-264.0802315145
 30
0.0
 11
69.850005217
 21
-264.0802315145
 31
0.0
  0
ARC
  5
2B5
  8
0
  6
CONTINUOUS
 62
     7
 10
79.750005445
 20
-263.1302349478
 30
0.0
 40
0.2999999999999972
 50
90.0
 51
180.0
  0
ARC
  5
2B6
  8
0
  6
CONTINUOUS
 62
     7
 10
80.650005445
 20
-261.1302349478
 30
0.0
 40
0.2000000000000266
 50
300.0000000055
 51
354.9999999999
  0
LINE
  5
2B7
  8
0
  6
CONTINUOUS
 62
     7
 10
80.8492442669
 20
-261.1476531893
 30
0.0
 11
81.3363315613
 21
-255.5802217394
 31
0.0
  0
LINE
  5
2B8
  8
0
  6
CONTINUOUS
 62
     7
 10
81.3363315613
 20
-255.5802217394
 30
0.0
 11
83.2500057371
 21
-255.5802217394
 31
0.0
  0
LINE
  5
2B9
  8
0
  6
CONTINUOUS
 62
     7
 10
83.2500057371
 20
-257.0802322298
 30
0.0
 11
83.2500057371
 21
-255.5802217394
 31
0.0
  0
LINE
  5
2BA
  8
0
  6
CONTINUOUS
 62
     7
 10
82.9500053154
 20
-257.0802322298
 30
0.0
 11
83.2500057371
 21
-257.0802322298
 31
0.0
  0
LINE
  5
2BB
  8
0
  6
CONTINUOUS
 62
     7
 10
82.9500053154
 20
-257.0802322298
 30
0.0
 11
82.2500055732
 21
-257.5802257925
 31
0.0
  0
LINE
  5
2BC
  8
0
  6
CONTINUOUS
 62
     7
 10
82.2500055732
 20
-257.5802257925
 30
0.0
 11
82.2500055732
 21
-262.8302327066
 31
0.0
  0
LINE
  5
2BD
  8
0
  6
CONTINUOUS
 62
     7
 10
82.2500055732
 20
-262.8302327066
 30
0.0
 11
79.7500056291
 21
-262.8302327066
 31
0.0
  0
LINE
  5
2BE
  8
0
  6
CONTINUOUS
 62
     7
 10
80.9500054532
 20
-270.380233851
 30
0.0
 11
82.2500055732
 21
-270.380233851
 31
0.0
  0
LINE
  5
2BF
  8
0
  6
CONTINUOUS
 62
     7
 10
80.9500054532
 20
-270.380233851
 30
0.0
 11
79.450005673
 21
-268.8802233606
 31
0.0
  0
LINE
  5
2C0
  8
0
  6
CONTINUOUS
 62
     7
 10
80.9500054532
 20
-267.511462298
 30
0.0
 11
79.450005673
 21
-267.3802426725
 31
0.0
  0
LINE
  5
2C1
  8
0
  6
CONTINUOUS
 62
     7
 10
79.450005673
 20
-268.8802233606
 30
0.0
 11
79.450005673
 21
-267.3802426725
 31
0.0
  0
LINE
  5
2C2
  8
0
  6
CONTINUOUS
 62
     7
 10
80.9500054532
 20
-262.8302327066
 30
0.0
 11
80.9500054532
 21
-267.511462298
 31
0.0
  0
LINE
  5
2C3
  8
0
  6
CONTINUOUS
 62
     7
 10
82.9500053154
 20
-257.0802322298
 30
0.0
 11
82.9500053154
 21
-269.6802369028
 31
0.0
  0
LINE
  5
2C4
  8
0
  6
CONTINUOUS
 62
     7
 10
82.2500055732
 20
-270.380233851
 30
0.0
 11
82.9500053154
 21
-269.6802369028
 31
0.0
  0
LINE
  5
2C5
  8
0
  6
CONTINUOUS
 62
     7
 10
87.6500057132
 20
17.4450264603
 30
0.0
 11
87.6500057132
 21
27.0197657228
 31
0.0
  0
ARC
  5
2C6
  8
0
  6
CONTINUOUS
 62
     7
 10
74.650005445
 20
76.0197650522
 30
0.0
 40
60.00000000000001
 50
257.4866746371
 51
282.5133253629
  0
LINE
  5
2C7
  8
0
  6
CONTINUOUS
 62
     7
 10
61.6500051768
 20
17.4450264603
 30
0.0
 11
61.6500051768
 21
27.0197657228
 31
0.0
  0
LINE
  5
2C8
  8
0
  6
CONTINUOUS
 62
     7
 10
74.650005445
 20
14.0197635919
 30
0.0
 11
79.6500053333
 21
14.0197635919
 31
0.0
  0
LINE
  5
2C9
  8
0
  6
CONTINUOUS
 62
     7
 10
69.6500055568
 20
14.0197635919
 30
0.0
 11
74.650005445
 21
14.0197635919
 31
0.0
  0
LINE
  5
2CA
  8
0
  6
CONTINUOUS
 62
     7
 10
80.7500053273
 20
-245.9802380472
 30
0.0
 11
68.5500055627
 21
-245.9802380472
 31
0.0
  0
LINE
  5
2CB
  8
0
  6
CONTINUOUS
 62
     7
 10
80.7500053273
 20
-245.9802380472
 30
0.0
 11
80.7500053273
 21
-262.4802342325
 31
0.0
  0
LINE
  5
2CC
  8
0
  6
CONTINUOUS
 62
     7
 10
77.1500053891
 20
-262.4802342325
 30
0.0
 11
80.7500053273
 21
-262.4802342325
 31
0.0
  0
LINE
  5
2CD
  8
0
  6
CONTINUOUS
 62
     7
 10
77.1500053891
 20
-266.8802491098
 30
0.0
 11
77.1500053891
 21
-262.4802342325
 31
0.0
  0
LINE
  5
2CE
  8
0
  6
CONTINUOUS
 62
     7
 10
74.6750054444
 20
-266.8802491098
 30
0.0
 11
77.1500053891
 21
-266.8802491098
 31
0.0
  0
LINE
  5
2CF
  8
0
  6
CONTINUOUS
 62
     7
 10
74.6750054444
 20
-262.4802342325
 30
0.0
 11
74.6750054444
 21
-266.8802491098
 31
0.0
  0
LINE
  5
2D0
  8
0
  6
CONTINUOUS
 62
     7
 10
74.6750054444
 20
-262.4802342325
 30
0.0
 11
74.6250054457
 21
-262.4802342325
 31
0.0
  0
LINE
  5
2D1
  8
0
  6
CONTINUOUS
 62
     7
 10
72.1500055009
 20
-266.8802491098
 30
0.0
 11
74.6250054457
 21
-266.8802491098
 31
0.0
  0
LINE
  5
2D2
  8
0
  6
CONTINUOUS
 62
     7
 10
72.1500055009
 20
-262.4802342325
 30
0.0
 11
72.1500055009
 21
-266.8802491098
 31
0.0
  0
LINE
  5
2D3
  8
0
  6
CONTINUOUS
 62
     7
 10
68.5500055627
 20
-262.4802342325
 30
0.0
 11
72.1500055009
 21
-262.4802342325
 31
0.0
  0
LINE
  5
2D4
  8
0
  6
CONTINUOUS
 62
     7
 10
68.5500055627
 20
-245.9802380472
 30
0.0
 11
68.5500055627
 21
-262.4802342325
 31
0.0
  0
LINE
  5
2D5
  8
0
  6
CONTINUOUS
 62
     7
 10
74.6250054457
 20
-266.8802491098
 30
0.0
 11
74.6250054457
 21
-262.4802342325
 31
0.0
  0
LINE
  5
2D6
  8
0
  6
CONTINUOUS
 62
     7
 10
78.6250056775
 20
-243.63023552
 30
0.0
 11
72.6250053925
 21
-243.63023552
 31
0.0
  0
LINE
  5
2D7
  8
0
  6
CONTINUOUS
 62
     7
 10
72.6250053925
 20
-243.63023552
 30
0.0
 11
72.6250053925
 21
-245.9802380472
 31
0.0
  0
LINE
  5
2D8
  8
0
  6
CONTINUOUS
 62
     7
 10
78.6250056775
 20
-245.9802380472
 30
0.0
 11
78.6250056775
 21
-243.63023552
 31
0.0
  0
LINE
  5
2D9
  8
0
  6
CONTINUOUS
 62
     7
 10
68.5500055627
 20
-237.9739335447
 30
0.0
 11
80.7500053273
 21
-237.9739335447
 31
0.0
  0
LINE
  5
2DA
  8
0
  6
CONTINUOUS
 62
     7
 10
68.5500055627
 20
-234.2151454359
 30
0.0
 11
80.7500053273
 21
-234.2151454359
 31
0.0
  0
LINE
  5
2DB
  8
0
  6
CONTINUOUS
 62
     7
 10
80.7500053273
 20
-234.2151454359
 30
0.0
 11
80.7500053273
 21
-237.9739335447
 31
0.0
  0
LINE
  5
2DC
  8
0
  6
CONTINUOUS
 62
     7
 10
68.5500055627
 20
-234.2151454359
 30
0.0
 11
68.5500055627
 21
-237.9739335447
 31
0.0
  0
LINE
  5
2DD
  8
0
  6
CONTINUOUS
 62
     7
 10
80.7500053273
 20
-229.9802354246
 30
0.0
 11
68.5500055627
 21
-229.9802354246
 31
0.0
  0
LINE
  5
2DE
  8
0
  6
CONTINUOUS
 62
     7
 10
80.7500053273
 20
-229.9802354246
 30
0.0
 11
80.7500053273
 21
-234.2151454359
 31
0.0
  0
LINE
  5
2DF
  8
0
  6
CONTINUOUS
 62
     7
 10
68.5500055627
 20
-229.9802354246
 30
0.0
 11
68.5500055627
 21
-234.2151454359
 31
0.0
  0
LINE
  5
2E0
  8
0
  6
CONTINUOUS
 62
     7
 10
68.5500055627
 20
-229.4802418619
 30
0.0
 11
80.7500053273
 21
-229.4802418619
 31
0.0
  0
LINE
  5
2E1
  8
0
  6
CONTINUOUS
 62
     7
 10
80.7500053273
 20
-229.4802418619
 30
0.0
 11
80.7500053273
 21
-229.9802354246
 31
0.0
  0
LINE
  5
2E2
  8
0
  6
CONTINUOUS
 62
     7
 10
68.5500055627
 20
-229.4802418619
 30
0.0
 11
68.5500055627
 21
-229.9802354246
 31
0.0
  0
LINE
  5
2E3
  8
0
  6
CONTINUOUS
 62
     7
 10
77.6750054286
 20
-239.2802289396
 30
0.0
 11
77.6750054286
 21
-238.9802387625
 31
0.0
  0
LINE
  5
2E4
  8
0
  6
CONTINUOUS
 62
     7
 10
73.6750054715
 20
-239.2802289396
 30
0.0
 11
77.6750054286
 21
-239.2802289396
 31
0.0
  0
LINE
  5
2E5
  8
0
  6
CONTINUOUS
 62
     7
 10
73.6750054715
 20
-238.9802387625
 30
0.0
 11
73.6750054715
 21
-239.2802289396
 31
0.0
  0
LINE
  5
2E6
  8
0
  6
CONTINUOUS
 62
     7
 10
73.6750054715
 20
-238.9802387625
 30
0.0
 11
77.6750054286
 21
-238.9802387625
 31
0.0
  0
LINE
  5
2E7
  8
0
  6
CONTINUOUS
 62
     7
 10
77.6750054286
 20
-239.8302307993
 30
0.0
 11
77.6750054286
 21
-239.2802289396
 31
0.0
  0
LINE
  5
2E8
  8
0
  6
CONTINUOUS
 62
     7
 10
73.6750054715
 20
-239.8302307993
 30
0.0
 11
77.6750054286
 21
-239.8302307993
 31
0.0
  0
LINE
  5
2E9
  8
0
  6
CONTINUOUS
 62
     7
 10
73.6750054715
 20
-239.2802289396
 30
0.0
 11
73.6750054715
 21
-239.8302307993
 31
0.0
  0
LINE
  5
2EA
  8
0
  6
CONTINUOUS
 62
     7
 10
80.7500053273
 20
-243.9802339941
 30
0.0
 11
78.6250056775
 21
-243.9802339941
 31
0.0
  0
LINE
  5
2EB
  8
0
  6
CONTINUOUS
 62
     7
 10
80.7500053273
 20
-243.9802339941
 30
0.0
 11
80.7500053273
 21
-245.9802380472
 31
0.0
  0
LINE
  5
2EC
  8
0
  6
CONTINUOUS
 62
     7
 10
72.6250053925
 20
-243.9802339941
 30
0.0
 11
68.5500055627
 21
-243.9802339941
 31
0.0
  0
LINE
  5
2ED
  8
0
  6
CONTINUOUS
 62
     7
 10
68.5500055627
 20
-243.9802339941
 30
0.0
 11
68.5500055627
 21
-245.9802380472
 31
0.0
  0
LINE
  5
2EE
  8
0
  6
CONTINUOUS
 62
     7
 10
78.6250056775
 20
-239.8302307993
 30
0.0
 11
77.6750054286
 21
-239.8302307993
 31
0.0
  0
LINE
  5
2EF
  8
0
  6
CONTINUOUS
 62
     7
 10
77.6750054286
 20
-243.1302419573
 30
0.0
 11
78.6250056775
 21
-243.1302419573
 31
0.0
  0
LINE
  5
2F0
  8
0
  6
CONTINUOUS
 62
     7
 10
78.6250056775
 20
-239.8302307993
 30
0.0
 11
78.6250056775
 21
-243.1302419573
 31
0.0
  0
LINE
  5
2F1
  8
0
  6
CONTINUOUS
 62
     7
 10
73.6750054715
 20
-240.6802228361
 30
0.0
 11
77.6750054286
 21
-240.6802228361
 31
0.0
  0
LINE
  5
2F2
  8
0
  6
CONTINUOUS
 62
     7
 10
73.6750054715
 20
-239.8302307993
 30
0.0
 11
73.6750054715
 21
-240.6802228361
 31
0.0
  0
LINE
  5
2F3
  8
0
  6
CONTINUOUS
 62
     7
 10
77.6750054286
 20
-240.6802228361
 30
0.0
 11
77.6750054286
 21
-239.8302307993
 31
0.0
  0
LINE
  5
2F4
  8
0
  6
CONTINUOUS
 62
     7
 10
78.6250056775
 20
-239.2802289396
 30
0.0
 11
77.6750054286
 21
-239.2802289396
 31
0.0
  0
LINE
  5
2F5
  8
0
  6
CONTINUOUS
 62
     7
 10
78.6250056775
 20
-239.2802289396
 30
0.0
 11
78.6250056775
 21
-239.8302307993
 31
0.0
  0
LINE
  5
2F6
  8
0
  6
CONTINUOUS
 62
     7
 10
73.6750054715
 20
-239.2802289396
 30
0.0
 11
72.6250053925
 21
-239.2802289396
 31
0.0
  0
LINE
  5
2F7
  8
0
  6
CONTINUOUS
 62
     7
 10
72.6250053925
 20
-238.9802387625
 30
0.0
 11
73.6750054715
 21
-238.9802387625
 31
0.0
  0
LINE
  5
2F8
  8
0
  6
CONTINUOUS
 62
     7
 10
72.6250053925
 20
-238.9802387625
 30
0.0
 11
72.6250053925
 21
-239.2802289396
 31
0.0
  0
LINE
  5
2F9
  8
0
  6
CONTINUOUS
 62
     7
 10
73.6750054715
 20
-239.8302307993
 30
0.0
 11
72.6250053925
 21
-239.8302307993
 31
0.0
  0
LINE
  5
2FA
  8
0
  6
CONTINUOUS
 62
     7
 10
72.6250053925
 20
-239.2802289396
 30
0.0
 11
72.6250053925
 21
-239.8302307993
 31
0.0
  0
LINE
  5
2FB
  8
0
  6
CONTINUOUS
 62
     7
 10
73.6750054715
 20
-243.1302419573
 30
0.0
 11
72.6250053925
 21
-243.1302419573
 31
0.0
  0
LINE
  5
2FC
  8
0
  6
CONTINUOUS
 62
     7
 10
72.6250053925
 20
-239.8302307993
 30
0.0
 11
72.6250053925
 21
-243.1302419573
 31
0.0
  0
LINE
  5
2FD
  8
0
  6
CONTINUOUS
 62
     7
 10
77.6750054286
 20
-238.9802387625
 30
0.0
 11
78.6250056775
 21
-238.9802387625
 31
0.0
  0
LINE
  5
2FE
  8
0
  6
CONTINUOUS
 62
     7
 10
78.6250056775
 20
-238.9802387625
 30
0.0
 11
78.6250056775
 21
-239.2802289396
 31
0.0
  0
LINE
  5
2FF
  8
0
  6
CONTINUOUS
 62
     7
 10
73.6750054715
 20
-240.6802228361
 30
0.0
 11
73.6750054715
 21
-241.5302446752
 31
0.0
  0
LINE
  5
300
  8
0
  6
CONTINUOUS
 62
     7
 10
77.6750054286
 20
-241.5302446752
 30
0.0
 11
77.6750054286
 21
-240.6802228361
 31
0.0
  0
LINE
  5
301
  8
0
  6
CONTINUOUS
 62
     7
 10
77.6750054286
 20
-241.5302446752
 30
0.0
 11
73.6750054715
 21
-241.5302446752
 31
0.0
  0
LINE
  5
302
  8
0
  6
CONTINUOUS
 62
     7
 10
77.6750054286
 20
-242.3802367121
 30
0.0
 11
77.6750054286
 21
-241.5302446752
 31
0.0
  0
LINE
  5
303
  8
0
  6
CONTINUOUS
 62
     7
 10
77.6750054286
 20
-242.3802367121
 30
0.0
 11
73.6750054715
 21
-242.3802367121
 31
0.0
  0
LINE
  5
304
  8
0
  6
CONTINUOUS
 62
     7
 10
73.6750054715
 20
-241.5302446752
 30
0.0
 11
73.6750054715
 21
-242.3802367121
 31
0.0
  0
LINE
  5
305
  8
0
  6
CONTINUOUS
 62
     7
 10
80.7500053273
 20
-238.8561716944
 30
0.0
 11
68.5500055627
 21
-238.8561716944
 31
0.0
  0
LINE
  5
306
  8
0
  6
CONTINUOUS
 62
     7
 10
80.7500053273
 20
-237.9739335447
 30
0.0
 11
80.7500053273
 21
-238.8561716944
 31
0.0
  0
LINE
  5
307
  8
0
  6
CONTINUOUS
 62
     7
 10
68.5500055627
 20
-237.9739335447
 30
0.0
 11
68.5500055627
 21
-238.8561716944
 31
0.0
  0
LINE
  5
308
  8
0
  6
CONTINUOUS
 62
     7
 10
77.6750054286
 20
-243.1302419573
 30
0.0
 11
77.6750054286
 21
-242.3802367121
 31
0.0
  0
LINE
  5
309
  8
0
  6
CONTINUOUS
 62
     7
 10
77.6750054286
 20
-243.1302419573
 30
0.0
 11
73.6750054715
 21
-243.1302419573
 31
0.0
  0
LINE
  5
30A
  8
0
  6
CONTINUOUS
 62
     7
 10
73.6750054715
 20
-243.1302419573
 30
0.0
 11
73.6750054715
 21
-242.3802367121
 31
0.0
  0
LINE
  5
30B
  8
0
  6
CONTINUOUS
 62
     7
 10
72.6250053925
 20
-243.1302419573
 30
0.0
 11
72.6250053925
 21
-243.63023552
 31
0.0
  0
LINE
  5
30C
  8
0
  6
CONTINUOUS
 62
     7
 10
78.6250056775
 20
-243.63023552
 30
0.0
 11
78.6250056775
 21
-243.1302419573
 31
0.0
  0
LINE
  5
30D
  8
0
  6
CONTINUOUS
 62
     7
 10
80.7500053273
 20
-238.8561716944
 30
0.0
 11
80.7500053273
 21
-243.9802339941
 31
0.0
  0
LINE
  5
30E
  8
0
  6
CONTINUOUS
 62
     7
 10
68.5500055627
 20
-238.8561716944
 30
0.0
 11
68.5500055627
 21
-243.9802339941
 31
0.0
  0
LINE
  5
30F
  8
0
  6
CONTINUOUS
 62
     7
 10
77.7500055341
 20
-272.9802480608
 30
0.0
 11
77.7500055341
 21
-262.4802342325
 31
0.0
  0
LINE
  5
310
  8
0
  6
CONTINUOUS
 62
     7
 10
77.7500055341
 20
-272.9802480608
 30
0.0
 11
77.3500055151
 21
-272.9802480608
 31
0.0
  0
LINE
  5
311
  8
0
  6
CONTINUOUS
 62
     7
 10
77.3500055151
 20
-272.9802480608
 30
0.0
 11
77.3500055151
 21
-262.4802342325
 31
0.0
  0
LINE
  5
312
  8
0
  6
CONTINUOUS
 62
     7
 10
71.950005375
 20
-272.9802480608
 30
0.0
 11
71.950005375
 21
-262.4802342325
 31
0.0
  0
LINE
  5
313
  8
0
  6
CONTINUOUS
 62
     7
 10
77.3500055151
 20
-272.9802480608
 30
0.0
 11
71.950005375
 21
-272.9802480608
 31
0.0
  0
LINE
  5
314
  8
0
  6
CONTINUOUS
 62
     7
 10
71.550005356
 20
-272.9802480608
 30
0.0
 11
71.550005356
 21
-262.4802342325
 31
0.0
  0
LINE
  5
315
  8
0
  6
CONTINUOUS
 62
     7
 10
71.950005375
 20
-272.9802480608
 30
0.0
 11
71.550005356
 21
-272.9802480608
 31
0.0
  0
LINE
  5
316
  8
0
  6
CONTINUOUS
 62
     8
 10
91.8500060291
 20
18.7197649211
 30
0.0
 11
91.8500060291
 21
24.5115408033
 31
0.0
  0
LINE
  5
317
  8
0
  6
CONTINUOUS
 62
     8
 10
91.8500060291
 20
24.8650932044
 30
0.0
 11
91.8500060291
 21
25.7197642058
 31
0.0
  0
LINE
  5
318
  8
0
  6
CONTINUOUS
 62
     8
 10
77.6500054711
 20
-217.8802243143
 30
0.0
 11
79.1500052513
 21
-217.8802243143
 31
0.0
  0
LINE
  5
319
  8
0
  6
CONTINUOUS
 62
     8
 10
70.1500056387
 20
-217.8802243143
 30
0.0
 11
71.6500054189
 21
-217.8802243143
 31
0.0
  0
LINE
  5
31A
  8
0
  6
CONTINUOUS
 62
     8
 10
71.6500054189
 20
-218.880241242
 30
0.0
 11
71.150005337
 21
-218.880241242
 31
0.0
  0
LINE
  5
31B
  8
0
  6
CONTINUOUS
 62
     8
 10
78.1500055531
 20
-218.880241242
 30
0.0
 11
77.6500054711
 21
-218.880241242
 31
0.0
  0
LINE
  5
31C
  8
0
  6
CONTINUOUS
 62
     7
 10
267.5424272987
 20
158.342352636
 30
0.0
 11
265.5424272037
 21
158.342352636
 31
0.0
  0
LINE
  5
31D
  8
0
  6
CONTINUOUS
 62
     7
 10
265.5424272037
 20
122.3423541857
 30
0.0
 11
267.5424272987
 21
122.3423541857
 31
0.0
  0
LINE
  5
31E
  8
0
  6
CONTINUOUS
 62
     7
 10
289.5424274123
 20
145.3423532991
 30
0.0
 11
267.5424272987
 21
145.3423532991
 31
0.0
  0
LINE
  5
31F
  8
0
  6
CONTINUOUS
 62
     7
 10
267.5424272987
 20
135.3423535226
 30
0.0
 11
289.5424274123
 21
135.3423535226
 31
0.0
  0
ARC
  5
320
  8
0
  6
CONTINUOUS
 62
     7
 10
316.8393605564
 20
140.3423534109
 30
0.0
 40
150.0
 50
190.8936827814
 51
191.5369590328
  0
ARC
  5
321
  8
0
  6
CONTINUOUS
 62
     7
 10
316.8393605564
 20
140.3423534109
 30
0.0
 40
150.0
 50
168.4630409672
 51
169.1063172186
  0
LINE
  5
322
  8
0
  6
CONTINUOUS
 62
     7
 10
169.5424263692
 20
168.6904304995
 30
0.0
 11
168.04243078
 21
166.0923534407
 31
0.0
  0
LINE
  5
323
  8
0
  6
CONTINUOUS
 62
     7
 10
168.04243078
 20
114.5923533811
 30
0.0
 11
169.5424263692
 21
111.9942763223
 31
0.0
  0
LINE
  5
324
  8
0
  6
CONTINUOUS
 62
     7
 10
265.5424272037
 20
165.042354293
 30
0.0
 11
258.5424269876
 21
165.042354293
 31
0.0
  0
LINE
  5
325
  8
0
  6
CONTINUOUS
 62
     7
 10
258.5424269876
 20
165.042354293
 30
0.0
 11
258.5424269876
 21
170.3423527403
 31
0.0
  0
LINE
  5
326
  8
0
  6
CONTINUOUS
 62
     7
 10
258.5424269876
 20
170.3423527403
 30
0.0
 11
265.5424272037
 21
170.3423527403
 31
0.0
  0
LINE
  5
327
  8
0
  6
CONTINUOUS
 62
     7
 10
265.5424272037
 20
170.3423527403
 30
0.0
 11
265.5424272037
 21
165.042354293
 31
0.0
  0
LINE
  5
328
  8
0
  6
CONTINUOUS
 62
     7
 10
258.5424269876
 20
115.6423525287
 30
0.0
 11
265.5424272037
 21
115.6423525287
 31
0.0
  0
LINE
  5
329
  8
0
  6
CONTINUOUS
 62
     7
 10
258.5424269876
 20
126.3423529788
 30
0.0
 11
258.5424269876
 21
115.6423525287
 31
0.0
  0
LINE
  5
32A
  8
0
  6
CONTINUOUS
 62
     7
 10
258.5424269876
 20
126.3423529788
 30
0.0
 11
255.0424273452
 21
126.3423529788
 31
0.0
  0
LINE
  5
32B
  8
0
  6
CONTINUOUS
 62
     7
 10
258.5424269876
 20
154.342353843
 30
0.0
 11
255.0424273452
 21
154.342353843
 31
0.0
  0
LINE
  5
32C
  8
0
  6
CONTINUOUS
 62
     7
 10
258.5424269876
 20
154.342353843
 30
0.0
 11
258.5424269876
 21
165.042354293
 31
0.0
  0
LINE
  5
32D
  8
0
  6
CONTINUOUS
 62
     7
 10
255.0424273452
 20
126.3423529788
 30
0.0
 11
255.0424273452
 21
154.342353843
 31
0.0
  0
LINE
  5
32E
  8
0
  6
CONTINUOUS
 62
     7
 10
265.5424272037
 20
115.6423525287
 30
0.0
 11
265.5424272037
 21
165.042354293
 31
0.0
  0
LINE
  5
32F
  8
0
  6
CONTINUOUS
 62
     7
 10
258.5424269876
 20
160.5423526241
 30
0.0
 11
255.0424273452
 21
160.5423526241
 31
0.0
  0
LINE
  5
330
  8
0
  6
CONTINUOUS
 62
     7
 10
255.0424273452
 20
160.5423526241
 30
0.0
 11
255.0424273452
 21
154.342353843
 31
0.0
  0
LINE
  5
331
  8
0
  6
CONTINUOUS
 62
     7
 10
258.5424269876
 20
120.1423541977
 30
0.0
 11
255.0424273452
 21
120.1423541977
 31
0.0
  0
LINE
  5
332
  8
0
  6
CONTINUOUS
 62
     7
 10
255.0424273452
 20
120.1423541977
 30
0.0
 11
255.0424273452
 21
126.3423529788
 31
0.0
  0
LINE
  5
333
  8
0
  6
CONTINUOUS
 62
     7
 10
265.5424272037
 20
110.3423540814
 30
0.0
 11
258.5424269876
 21
110.3423540814
 31
0.0
  0
LINE
  5
334
  8
0
  6
CONTINUOUS
 62
     7
 10
258.5424269876
 20
110.3423540814
 30
0.0
 11
258.5424269876
 21
115.6423525287
 31
0.0
  0
LINE
  5
335
  8
0
  6
CONTINUOUS
 62
     7
 10
265.5424272037
 20
115.6423525287
 30
0.0
 11
265.5424272037
 21
110.3423540814
 31
0.0
  0
LINE
  5
336
  8
0
  6
CONTINUOUS
 62
     7
 10
258.5424269876
 20
165.3423537834
 30
0.0
 11
255.0424273452
 21
165.3423537834
 31
0.0
  0
LINE
  5
337
  8
0
  6
CONTINUOUS
 62
     7
 10
255.0424273452
 20
165.3423537834
 30
0.0
 11
255.0424273452
 21
160.5423526241
 31
0.0
  0
LINE
  5
338
  8
0
  6
CONTINUOUS
 62
     7
 10
258.5424269876
 20
115.3423530384
 30
0.0
 11
255.0424273452
 21
115.3423530384
 31
0.0
  0
LINE
  5
339
  8
0
  6
CONTINUOUS
 62
     7
 10
255.0424273452
 20
115.3423530384
 30
0.0
 11
255.0424273452
 21
120.1423541977
 31
0.0
  0
LINE
  5
33A
  8
0
  6
CONTINUOUS
 62
     7
 10
258.5424269876
 20
169.3603699429
 30
0.0
 11
255.0424273452
 21
169.3603699429
 31
0.0
  0
LINE
  5
33B
  8
0
  6
CONTINUOUS
 62
     7
 10
258.5424269876
 20
170.3423527403
 30
0.0
 11
255.0424273452
 21
170.3423527403
 31
0.0
  0
LINE
  5
33C
  8
0
  6
CONTINUOUS
 62
     7
 10
255.0424273452
 20
170.3423527403
 30
0.0
 11
255.0424273452
 21
169.3603699429
 31
0.0
  0
LINE
  5
33D
  8
0
  6
CONTINUOUS
 62
     7
 10
255.0424273452
 20
169.3603699429
 30
0.0
 11
255.0424273452
 21
165.3423537834
 31
0.0
  0
LINE
  5
33E
  8
0
  6
CONTINUOUS
 62
     7
 10
258.5424269876
 20
111.3243368788
 30
0.0
 11
255.0424273452
 21
111.3243368788
 31
0.0
  0
LINE
  5
33F
  8
0
  6
CONTINUOUS
 62
     7
 10
255.0424273452
 20
111.3243368788
 30
0.0
 11
255.0424273452
 21
115.3423530384
 31
0.0
  0
LINE
  5
340
  8
0
  6
CONTINUOUS
 62
     7
 10
258.5424269876
 20
110.3423540814
 30
0.0
 11
255.0424273452
 21
110.3423540814
 31
0.0
  0
LINE
  5
341
  8
0
  6
CONTINUOUS
 62
     7
 10
255.0424273452
 20
110.3423540814
 30
0.0
 11
255.0424273452
 21
111.3243368788
 31
0.0
  0
LINE
  5
342
  8
0
  6
CONTINUOUS
 62
     7
 10
267.5424272987
 20
158.342352636
 30
0.0
 11
267.5424272987
 21
122.3423541857
 31
0.0
  0
LINE
  5
343
  8
0
  6
CONTINUOUS
 62
     7
 10
289.5424274123
 20
145.3423532991
 30
0.0
 11
289.5424274123
 21
135.3423535226
 31
0.0
  0
LINE
  5
344
  8
0
  6
CONTINUOUS
 62
     7
 10
255.0424273452
 20
154.342353843
 30
0.0
 11
201.3424282289
 21
154.342353843
 31
0.0
  0
LINE
  5
345
  8
0
  6
CONTINUOUS
 62
     7
 10
255.0424273452
 20
160.5423526241
 30
0.0
 11
201.3424282289
 21
160.5423526241
 31
0.0
  0
LINE
  5
346
  8
0
  6
CONTINUOUS
 62
     7
 10
201.3424282289
 20
154.342353843
 30
0.0
 11
201.3424282289
 21
160.5423526241
 31
0.0
  0
LINE
  5
347
  8
0
  6
CONTINUOUS
 62
     7
 10
255.0424273452
 20
126.3423529788
 30
0.0
 11
201.3424282289
 21
126.3423529788
 31
0.0
  0
LINE
  5
348
  8
0
  6
CONTINUOUS
 62
     7
 10
201.3424282289
 20
126.3423529788
 30
0.0
 11
201.3424282289
 21
154.342353843
 31
0.0
  0
LINE
  5
349
  8
0
  6
CONTINUOUS
 62
     7
 10
255.0424273452
 20
120.1423541977
 30
0.0
 11
201.3424282289
 21
120.1423541977
 31
0.0
  0
LINE
  5
34A
  8
0
  6
CONTINUOUS
 62
     7
 10
201.3424282289
 20
126.3423529788
 30
0.0
 11
201.3424282289
 21
120.1423541977
 31
0.0
  0
LINE
  5
34B
  8
0
  6
CONTINUOUS
 62
     7
 10
255.0424273452
 20
165.3423537834
 30
0.0
 11
201.3424282289
 21
165.3423537834
 31
0.0
  0
LINE
  5
34C
  8
0
  6
CONTINUOUS
 62
     7
 10
201.3424282289
 20
160.5423526241
 30
0.0
 11
201.3424282289
 21
165.3423537834
 31
0.0
  0
LINE
  5
34D
  8
0
  6
CONTINUOUS
 62
     7
 10
255.0424273452
 20
115.3423530384
 30
0.0
 11
201.3424282289
 21
115.3423530384
 31
0.0
  0
LINE
  5
34E
  8
0
  6
CONTINUOUS
 62
     7
 10
201.3424282289
 20
120.1423541977
 30
0.0
 11
201.3424282289
 21
115.3423530384
 31
0.0
  0
LINE
  5
34F
  8
0
  6
CONTINUOUS
 62
     7
 10
255.0424273452
 20
169.3603699429
 30
0.0
 11
201.3424282289
 21
169.3603699429
 31
0.0
  0
LINE
  5
350
  8
0
  6
CONTINUOUS
 62
     7
 10
201.3424282289
 20
170.3423527403
 30
0.0
 11
255.0424273452
 21
170.3423527403
 31
0.0
  0
LINE
  5
351
  8
0
  6
CONTINUOUS
 62
     7
 10
201.3424282289
 20
169.3603699429
 30
0.0
 11
201.3424282289
 21
170.3423527403
 31
0.0
  0
LINE
  5
352
  8
0
  6
CONTINUOUS
 62
     7
 10
201.3424282289
 20
165.3423537834
 30
0.0
 11
201.3424282289
 21
169.3603699429
 31
0.0
  0
LINE
  5
353
  8
0
  6
CONTINUOUS
 62
     7
 10
255.0424273452
 20
111.3243368788
 30
0.0
 11
201.3424282289
 21
111.3243368788
 31
0.0
  0
LINE
  5
354
  8
0
  6
CONTINUOUS
 62
     7
 10
201.3424282289
 20
115.3423530384
 30
0.0
 11
201.3424282289
 21
111.3243368788
 31
0.0
  0
LINE
  5
355
  8
0
  6
CONTINUOUS
 62
     7
 10
201.3424282289
 20
110.3423540814
 30
0.0
 11
255.0424273452
 21
110.3423540814
 31
0.0
  0
LINE
  5
356
  8
0
  6
CONTINUOUS
 62
     7
 10
201.3424282289
 20
111.3243368788
 30
0.0
 11
201.3424282289
 21
110.3423540814
 31
0.0
  0
LINE
  5
357
  8
0
  6
CONTINUOUS
 62
     7
 10
185.3424256063
 20
160.5423526241
 30
0.0
 11
201.3424282289
 21
160.5423526241
 31
0.0
  0
LINE
  5
358
  8
0
  6
CONTINUOUS
 62
     7
 10
185.3424256063
 20
160.5423526241
 30
0.0
 11
201.3424282289
 21
154.342353843
 31
0.0
  0
LINE
  5
359
  8
0
  6
CONTINUOUS
 62
     7
 10
181.8424259639
 20
160.5423526241
 30
0.0
 11
185.3424256063
 21
160.5423526241
 31
0.0
  0
LINE
  5
35A
  8
0
  6
CONTINUOUS
 62
     7
 10
185.3424256063
 20
120.1423541977
 30
0.0
 11
201.3424282289
 21
126.3423529788
 31
0.0
  0
LINE
  5
35B
  8
0
  6
CONTINUOUS
 62
     7
 10
181.8424259639
 20
120.1423541977
 30
0.0
 11
185.3424256063
 21
120.1423541977
 31
0.0
  0
LINE
  5
35C
  8
0
  6
CONTINUOUS
 62
     7
 10
181.8424259639
 20
120.1423541977
 30
0.0
 11
181.8424259639
 21
160.5423526241
 31
0.0
  0
LINE
  5
35D
  8
0
  6
CONTINUOUS
 62
     7
 10
185.3424256063
 20
120.1423541977
 30
0.0
 11
201.3424282289
 21
120.1423541977
 31
0.0
  0
LINE
  5
35E
  8
0
  6
CONTINUOUS
 62
     7
 10
181.8424259639
 20
165.3423537834
 30
0.0
 11
201.3424282289
 21
165.3423537834
 31
0.0
  0
LINE
  5
35F
  8
0
  6
CONTINUOUS
 62
     7
 10
181.8424259639
 20
160.5423526241
 30
0.0
 11
181.8424259639
 21
165.3423537834
 31
0.0
  0
LINE
  5
360
  8
0
  6
CONTINUOUS
 62
     7
 10
181.8424259639
 20
115.3423530384
 30
0.0
 11
201.3424282289
 21
115.3423530384
 31
0.0
  0
LINE
  5
361
  8
0
  6
CONTINUOUS
 62
     7
 10
181.8424259639
 20
120.1423541977
 30
0.0
 11
181.8424259639
 21
115.3423530384
 31
0.0
  0
LINE
  5
362
  8
0
  6
CONTINUOUS
 62
     7
 10
201.3424282289
 20
169.3603699429
 30
0.0
 11
185.3424256063
 21
170.3423527403
 31
0.0
  0
LINE
  5
363
  8
0
  6
CONTINUOUS
 62
     7
 10
185.3424256063
 20
170.3423527403
 30
0.0
 11
201.3424282289
 21
170.3423527403
 31
0.0
  0
LINE
  5
364
  8
0
  6
CONTINUOUS
 62
     7
 10
185.3424256063
 20
170.3423527403
 30
0.0
 11
181.8424259639
 21
170.3423527403
 31
0.0
  0
LINE
  5
365
  8
0
  6
CONTINUOUS
 62
     7
 10
181.8424259639
 20
165.3423537834
 30
0.0
 11
181.8424259639
 21
170.3423527403
 31
0.0
  0
LINE
  5
366
  8
0
  6
CONTINUOUS
 62
     7
 10
201.3424282289
 20
111.3243368788
 30
0.0
 11
185.3424256063
 21
110.3423540814
 31
0.0
  0
LINE
  5
367
  8
0
  6
CONTINUOUS
 62
     7
 10
185.3424256063
 20
110.3423540814
 30
0.0
 11
181.8424259639
 21
110.3423540814
 31
0.0
  0
LINE
  5
368
  8
0
  6
CONTINUOUS
 62
     7
 10
181.8424259639
 20
115.3423530384
 30
0.0
 11
181.8424259639
 21
110.3423540814
 31
0.0
  0
LINE
  5
369
  8
0
  6
CONTINUOUS
 62
     7
 10
185.3424256063
 20
110.3423540814
 30
0.0
 11
201.3424282289
 21
110.3423540814
 31
0.0
  0
LINE
  5
36A
  8
0
  6
CONTINUOUS
 62
     7
 10
169.5424263692
 20
168.6904304995
 30
0.0
 11
169.5424263692
 21
111.9942763223
 31
0.0
  0
LINE
  5
36B
  8
0
  6
CONTINUOUS
 62
     7
 10
171.2647770858
 20
170.3423527403
 30
0.0
 11
169.869976244
 21
170.3423527403
 31
0.0
  0
ARC
  5
36C
  8
0
  6
CONTINUOUS
 62
     7
 10
316.8393605564
 20
140.3423534109
 30
0.0
 40
148.6336435669933
 50
168.3555065844
 51
170.316890223
  0
POLYLINE
  5
36D
  8
0
  6
CONTINUOUS
 62
     7
 66
     1
 10
0.0
 20
0.0
 30
0.0
 70
   128
  0
VERTEX
  5
6BA
  8
0
  6
CONTINUOUS
 62
     7
 10
170.3232844687
 20
160.5423526241
 30
0.0
  0
VERTEX
  5
6BB
  8
0
  6
CONTINUOUS
 62
     7
 10
170.1011379576
 20
160.8047527595
 30
0.0
  0
VERTEX
  5
6BC
  8
0
  6
CONTINUOUS
 62
     7
 10
169.9925010419
 20
161.5714789702
 30
0.0
  0
VERTEX
  5
6BD
  8
0
  6
CONTINUOUS
 62
     7
 10
170.010352633
 20
162.7392699345
 30
0.0
  0
VERTEX
  5
6BE
  8
0
  6
CONTINUOUS
 62
     7
 10
170.1484044409
 20
164.1719309016
 30
0.0
  0
VERTEX
  5
6BF
  8
0
  6
CONTINUOUS
 62
     7
 10
170.3232844687
 20
165.3423537834
 30
0.0
  0
SEQEND
  5
73D
  8
0
  6
CONTINUOUS
 62
     7
  0
LINE
  5
36E
  8
0
  6
CONTINUOUS
 62
     7
 10
171.2647770858
 20
160.5423526241
 30
0.0
 11
170.3232844687
 21
160.5423526241
 31
0.0
  0
ARC
  5
36F
  8
0
  6
CONTINUOUS
 62
     7
 10
316.8393605564
 20
140.3423534109
 30
0.0
 40
146.9693845669907
 50
172.1000552368
 51
187.8999447632
  0
LINE
  5
370
  8
0
  6
CONTINUOUS
 62
     7
 10
170.3232844687
 20
120.1423541977
 30
0.0
 11
171.2647770858
 21
120.1423541977
 31
0.0
  0
POLYLINE
  5
371
  8
0
  6
CONTINUOUS
 62
     7
 66
     1
 10
0.0
 20
0.0
 30
0.0
 70
   128
  0
VERTEX
  5
6C0
  8
0
  6
CONTINUOUS
 62
     7
 10
170.3232844687
 20
115.3423530384
 30
0.0
  0
VERTEX
  5
6C1
  8
0
  6
CONTINUOUS
 62
     7
 10
170.1011379576
 20
116.9076604171
 30
0.0
  0
VERTEX
  5
6C2
  8
0
  6
CONTINUOUS
 62
     7
 10
169.9925010419
 20
118.3122867121
 30
0.0
  0
VERTEX
  5
6C3
  8
0
  6
CONTINUOUS
 62
     7
 10
170.010352633
 20
119.3752126171
 30
0.0
  0
VERTEX
  5
6C4
  8
0
  6
CONTINUOUS
 62
     7
 10
170.1484044409
 20
119.9974702074
 30
0.0
  0
VERTEX
  5
6C5
  8
0
  6
CONTINUOUS
 62
     7
 10
170.3232844687
 20
120.1423541977
 30
0.0
  0
SEQEND
  5
73E
  8
0
  6
CONTINUOUS
 62
     7
  0
ARC
  5
372
  8
0
  6
CONTINUOUS
 62
     7
 10
316.8393605564
 20
140.3423534109
 30
0.0
 40
148.6336435669933
 50
189.683109777
 51
191.6444934156
  0
LINE
  5
373
  8
0
  6
CONTINUOUS
 62
     7
 10
171.2647770858
 20
110.3423540814
 30
0.0
 11
169.869976244
 21
110.3423540814
 31
0.0
  0
LINE
  5
374
  8
0
  6
CONTINUOUS
 62
     7
 10
171.2647770858
 20
120.1423541977
 30
0.0
 11
181.8424259639
 21
120.1423541977
 31
0.0
  0
LINE
  5
375
  8
0
  6
CONTINUOUS
 62
     7
 10
171.2647770858
 20
160.5423526241
 30
0.0
 11
181.8424259639
 21
160.5423526241
 31
0.0
  0
LINE
  5
376
  8
0
  6
CONTINUOUS
 62
     7
 10
168.04243078
 20
166.0923534407
 30
0.0
 11
168.04243078
 21
114.5923533811
 31
0.0
  0
LINE
  5
377
  8
0
  6
CONTINUOUS
 62
     7
 10
170.3232844687
 20
165.3423537834
 30
0.0
 11
181.8424259639
 21
165.3423537834
 31
0.0
  0
LINE
  5
378
  8
0
  6
CONTINUOUS
 62
     7
 10
170.3232844687
 20
115.3423530384
 30
0.0
 11
181.8424259639
 21
115.3423530384
 31
0.0
  0
LINE
  5
379
  8
0
  6
CONTINUOUS
 62
     7
 10
171.2647770858
 20
170.3423527403
 30
0.0
 11
181.8424259639
 21
170.3423527403
 31
0.0
  0
LINE
  5
37A
  8
0
  6
CONTINUOUS
 62
     7
 10
171.2647770858
 20
110.3423540814
 30
0.0
 11
181.8424259639
 21
110.3423540814
 31
0.0
  0
LINE
  5
37B
  8
0
  6
CONTINUOUS
 62
     7
 10
165.8424307919
 20
146.4423532932
 30
0.0
 11
165.3424297786
 21
146.4423532932
 31
0.0
  0
LINE
  5
37C
  8
0
  6
CONTINUOUS
 62
     7
 10
165.8424307919
 20
146.4423532932
 30
0.0
 11
165.8424307919
 21
134.2423535286
 31
0.0
  0
LINE
  5
37D
  8
0
  6
CONTINUOUS
 62
     7
 10
165.3424297786
 20
134.2423535286
 30
0.0
 11
165.3424297786
 21
146.4423532932
 31
0.0
  0
LINE
  5
37E
  8
0
  6
CONTINUOUS
 62
     7
 10
165.8424307919
 20
134.2423535286
 30
0.0
 11
165.3424297786
 21
134.2423535286
 31
0.0
  0
LINE
  5
37F
  8
0
  6
CONTINUOUS
 62
     7
 10
168.04243078
 20
146.4423532932
 30
0.0
 11
165.8424307919
 21
146.4423532932
 31
0.0
  0
LINE
  5
380
  8
0
  6
CONTINUOUS
 62
     7
 10
168.04243078
 20
134.2423535286
 30
0.0
 11
165.8424307919
 21
134.2423535286
 31
0.0
  0
LINE
  5
381
  8
0
  6
CONTINUOUS
 62
     7
 10
165.2010028577
 20
136.3673531784
 30
0.0
 11
165.2010028577
 21
142.3673534634
 31
0.0
  0
LINE
  5
382
  8
0
  6
CONTINUOUS
 62
     7
 10
165.3424297786
 20
142.3673534634
 30
0.0
 11
165.2010028577
 21
142.3673534634
 31
0.0
  0
LINE
  5
383
  8
0
  6
CONTINUOUS
 62
     7
 10
165.2010028577
 20
136.3673531784
 30
0.0
 11
165.3424297786
 21
136.3673531784
 31
0.0
  0
LINE
  5
384
  8
0
  6
CONTINUOUS
 62
     7
 10
165.1424263931
 20
134.2423535286
 30
0.0
 11
165.1424263931
 21
146.4423532932
 31
0.0
  0
LINE
  5
385
  8
0
  6
CONTINUOUS
 62
     7
 10
165.3424297786
 20
146.4423532932
 30
0.0
 11
165.1424263931
 21
146.4423532932
 31
0.0
  0
LINE
  5
386
  8
0
  6
CONTINUOUS
 62
     7
 10
165.3424297786
 20
134.2423535286
 30
0.0
 11
165.1424263931
 21
134.2423535286
 31
0.0
  0
LINE
  5
387
  8
0
  6
CONTINUOUS
 62
     7
 10
267.5424272987
 20
237.2279868554
 30
0.0
 11
265.5424272037
 21
237.2279868554
 31
0.0
  0
LINE
  5
388
  8
0
  6
CONTINUOUS
 62
     7
 10
265.5424272037
 20
201.2279884051
 30
0.0
 11
267.5424272987
 21
201.2279884051
 31
0.0
  0
LINE
  5
389
  8
0
  6
CONTINUOUS
 62
     7
 10
289.5424274123
 20
224.2279875185
 30
0.0
 11
267.5424272987
 21
224.2279875185
 31
0.0
  0
LINE
  5
38A
  8
0
  6
CONTINUOUS
 62
     7
 10
267.5424272987
 20
214.227987742
 30
0.0
 11
289.5424274123
 21
214.227987742
 31
0.0
  0
LINE
  5
38B
  8
0
  6
CONTINUOUS
 62
     7
 10
196.2424238539
 20
262.2279890906
 30
0.0
 11
196.2424238539
 21
469.6279944013
 31
0.0
  0
LINE
  5
38C
  8
0
  6
CONTINUOUS
 62
     7
 10
188.2424299932
 20
469.6279944013
 30
0.0
 11
188.2424299932
 21
262.2279890906
 31
0.0
  0
ARC
  5
38D
  8
0
  6
CONTINUOUS
 62
     7
 10
316.8393605564
 20
219.2279876303
 30
0.0
 40
150.0
 50
190.8936827814
 51
191.5369590328
  0
LINE
  5
38E
  8
0
  6
CONTINUOUS
 62
     7
 10
168.04243078
 20
193.4779876005
 30
0.0
 11
169.5424263692
 21
190.8799105417
 31
0.0
  0
LINE
  5
38F
  8
0
  6
CONTINUOUS
 62
     7
 10
177.5424276805
 20
262.2279890906
 30
0.0
 11
177.5424276805
 21
505.7279945444
 31
0.0
  0
LINE
  5
390
  8
0
  6
CONTINUOUS
 62
     7
 10
171.5424304223
 20
505.7279945444
 30
0.0
 11
171.5424304223
 21
262.2279890906
 31
0.0
  0
LINE
  5
391
  8
0
  6
CONTINUOUS
 62
     7
 10
211.755255363
 20
254.2217292916
 30
0.0
 11
199.4848494744
 21
260.2072947751
 31
0.0
  0
LINE
  5
392
  8
0
  6
CONTINUOUS
 62
     7
 10
186.9924237347
 20
260.2279887628
 30
0.0
 11
183.242427311
 21
260.2279887628
 31
0.0
  0
LINE
  5
393
  8
0
  6
CONTINUOUS
 62
     7
 10
199.4424258685
 20
260.2279887628
 30
0.0
 11
197.4273418403
 21
260.2279887628
 31
0.0
  0
LINE
  5
394
  8
0
  6
CONTINUOUS
 62
     7
 10
197.4924301124
 20
260.2223672997
 30
0.0
 11
197.4924301124
 21
262.2279890906
 31
0.0
  0
LINE
  5
395
  8
0
  6
CONTINUOUS
 62
     7
 10
186.9924237347
 20
262.2279890906
 30
0.0
 11
186.9924237347
 21
260.2279887628
 31
0.0
  0
ARC
  5
396
  8
0
  6
CONTINUOUS
 62
     7
 10
196.2424272037
 20
494.1279876303
 30
0.0
 40
0.5
 50
0.0
 51
90.0
  0
ARC
  5
397
  8
0
  6
CONTINUOUS
 62
     7
 10
188.2424272037
 20
494.1279876303
 30
0.0
 40
0.5
 50
90.0
 51
180.0
  0
LINE
  5
398
  8
0
  6
CONTINUOUS
 62
     7
 10
196.7424248672
 20
469.6279944013
 30
0.0
 11
196.7424248672
 21
494.1279769968
 31
0.0
  0
LINE
  5
399
  8
0
  6
CONTINUOUS
 62
     7
 10
187.7424289799
 20
494.1279769968
 30
0.0
 11
187.7424289799
 21
469.6279944013
 31
0.0
  0
ARC
  5
39A
  8
0
  6
CONTINUOUS
 62
     7
 10
196.2424272037
 20
495.1279876303
 30
0.0
 40
0.5000000000000568
 50
180.0
 51
270.0
  0
ARC
  5
39B
  8
0
  6
CONTINUOUS
 62
     7
 10
188.2424272037
 20
495.1279876303
 30
0.0
 40
0.5000000000000568
 50
270.0
 51
0.0
  0
LINE
  5
39C
  8
0
  6
CONTINUOUS
 62
     7
 10
195.7424302912
 20
495.1279939245
 30
0.0
 11
195.7424302912
 21
509.6279860567
 31
0.0
  0
LINE
  5
39D
  8
0
  6
CONTINUOUS
 62
     7
 10
188.7424235559
 20
509.6279860567
 30
0.0
 11
188.7424235559
 21
495.1279939245
 31
0.0
  0
POLYLINE
  5
39E
  8
0
  6
CONTINUOUS
 62
     7
 66
     1
 10
0.0
 20
0.0
 30
0.0
 70
   128
  0
VERTEX
  5
6C6
  8
0
  6
CONTINUOUS
 62
     7
 10
187.9129951215
 20
529.6279967855
 30
0.0
  0
VERTEX
  5
6C7
  8
0
  6
CONTINUOUS
 62
     7
 10
188.9372711396
 20
521.1259306501
 30
0.0
  0
VERTEX
  5
6C8
  8
0
  6
CONTINUOUS
 62
     7
 10
190.3168951488
 20
509.6279860567
 30
0.0
  0
SEQEND
  5
73F
  8
0
  6
CONTINUOUS
 62
     7
  0
POLYLINE
  5
39F
  8
0
  6
CONTINUOUS
 62
     7
 66
     1
 10
0.0
 20
0.0
 30
0.0
 70
   128
  0
VERTEX
  5
6C9
  8
0
  6
CONTINUOUS
 62
     7
 10
191.8168236828
 20
509.6279860567
 30
0.0
  0
VERTEX
  5
6CA
  8
0
  6
CONTINUOUS
 62
     7
 10
190.6720121718
 20
519.1300393175
 30
0.0
  0
VERTEX
  5
6CB
  8
0
  6
CONTINUOUS
 62
     7
 10
189.4123276091
 20
529.6279967855
 30
0.0
  0
SEQEND
  5
740
  8
0
  6
CONTINUOUS
 62
     7
  0
POLYLINE
  5
3A0
  8
0
  6
CONTINUOUS
 62
     7
 66
     1
 10
0.0
 20
0.0
 30
0.0
 70
   128
  0
VERTEX
  5
6CC
  8
0
  6
CONTINUOUS
 62
     7
 10
194.1679959512
 20
509.6279860567
 30
0.0
  0
VERTEX
  5
6CD
  8
0
  6
CONTINUOUS
 62
     7
 10
195.7612206555
 20
519.1300393175
 30
0.0
  0
VERTEX
  5
6CE
  8
0
  6
CONTINUOUS
 62
     7
 10
197.5243409491
 20
529.6279967855
 30
0.0
  0
SEQEND
  5
741
  8
0
  6
CONTINUOUS
 62
     7
  0
POLYLINE
  5
3A1
  8
0
  6
CONTINUOUS
 62
     7
 66
     1
 10
0.0
 20
0.0
 30
0.0
 70
   128
  0
VERTEX
  5
6CF
  8
0
  6
CONTINUOUS
 62
     7
 10
196.0248818016
 20
529.6279967855
 30
0.0
  0
VERTEX
  5
6D0
  8
0
  6
CONTINUOUS
 62
     7
 10
194.599220655
 20
521.1259306501
 30
0.0
  0
VERTEX
  5
6D1
  8
0
  6
CONTINUOUS
 62
     7
 10
192.6680003619
 20
509.6279860567
 30
0.0
  0
SEQEND
  5
742
  8
0
  6
CONTINUOUS
 62
     7
  0
POLYLINE
  5
3A2
  8
0
  6
CONTINUOUS
 62
     7
 66
     1
 10
0.0
 20
0.0
 30
0.0
 70
   128
  0
VERTEX
  5
6D2
  8
0
  6
CONTINUOUS
 62
     7
 10
187.8811215377
 20
529.6279967855
 30
0.0
  0
VERTEX
  5
6D3
  8
0
  6
CONTINUOUS
 62
     7
 10
188.7699012971
 20
519.6010650228
 30
0.0
  0
VERTEX
  5
6D4
  8
0
  6
CONTINUOUS
 62
     7
 10
189.010473094
 20
516.7532445024
 30
0.0
  0
VERTEX
  5
6D5
  8
0
  6
CONTINUOUS
 62
     7
 10
189.5904486394
 20
509.6279860567
 30
0.0
  0
SEQEND
  5
743
  8
0
  6
CONTINUOUS
 62
     7
  0
POLYLINE
  5
3A3
  8
0
  6
CONTINUOUS
 62
     7
 66
     1
 10
0.0
 20
0.0
 30
0.0
 70
   128
  0
VERTEX
  5
6D6
  8
0
  6
CONTINUOUS
 62
     7
 10
194.8945393181
 20
509.6279860567
 30
0.0
  0
VERTEX
  5
6D7
  8
0
  6
CONTINUOUS
 62
     7
 10
196.159744761
 20
519.1300393175
 30
0.0
  0
VERTEX
  5
6D8
  8
0
  6
CONTINUOUS
 62
     7
 10
197.5590606547
 20
529.6279967855
 30
0.0
  0
SEQEND
  5
744
  8
0
  6
CONTINUOUS
 62
     7
  0
POLYLINE
  5
3A4
  8
0
  6
CONTINUOUS
 62
     7
 66
     1
 10
0.0
 20
0.0
 30
0.0
 70
   128
  0
VERTEX
  5
6D9
  8
0
  6
CONTINUOUS
 62
     7
 10
193.0435692287
 20
511.8640245031
 30
0.0
  0
VERTEX
  5
6DA
  8
0
  6
CONTINUOUS
 62
     7
 10
193.2112966991
 20
519.1300393175
 30
0.0
  0
VERTEX
  5
6DB
  8
0
  6
CONTINUOUS
 62
     7
 10
193.4679766512
 20
529.6279967855
 30
0.0
  0
SEQEND
  5
745
  8
0
  6
CONTINUOUS
 62
     7
  0
POLYLINE
  5
3A5
  8
0
  6
CONTINUOUS
 62
     7
 66
     1
 10
0.0
 20
0.0
 30
0.0
 70
   128
  0
VERTEX
  5
6DC
  8
0
  6
CONTINUOUS
 62
     7
 10
191.9693966723
 20
529.6279967855
 30
0.0
  0
VERTEX
  5
6DD
  8
0
  6
CONTINUOUS
 62
     7
 10
191.7735656119
 20
521.1259306501
 30
0.0
  0
VERTEX
  5
6DE
  8
0
  6
CONTINUOUS
 62
     7
 10
191.5474777436
 20
511.8636072706
 30
0.0
  0
SEQEND
  5
746
  8
0
  6
CONTINUOUS
 62
     7
  0
LINE
  5
3A6
  8
0
  6
CONTINUOUS
 62
     7
 10
169.5424263692
 20
260.2279887628
 30
0.0
 11
168.5424243427
 21
260.2279887628
 31
0.0
  0
LINE
  5
3A7
  8
0
  6
CONTINUOUS
 62
     7
 10
180.5424263096
 20
260.2279887628
 30
0.0
 11
179.48053231
 21
260.2279887628
 31
0.0
  0
LINE
  5
3A8
  8
0
  6
CONTINUOUS
 62
     7
 10
179.542424283
 20
260.2228962909
 30
0.0
 11
179.542424283
 21
262.2279890906
 31
0.0
  0
LINE
  5
3A9
  8
0
  6
CONTINUOUS
 62
     7
 10
169.5424263692
 20
262.2279890906
 30
0.0
 11
169.5424263692
 21
260.2279887628
 31
0.0
  0
LINE
  5
3AA
  8
0
  6
CONTINUOUS
 62
     7
 10
258.5424269876
 20
249.2279869597
 30
0.0
 11
265.5424272037
 21
249.2279869597
 31
0.0
  0
LINE
  5
3AB
  8
0
  6
CONTINUOUS
 62
     7
 10
265.5424272037
 20
249.2279869597
 30
0.0
 11
265.5424272037
 21
243.9279885124
 31
0.0
  0
LINE
  5
3AC
  8
0
  6
CONTINUOUS
 62
     7
 10
265.5424272037
 20
243.9279885124
 30
0.0
 11
258.5424269876
 21
243.9279885124
 31
0.0
  0
LINE
  5
3AD
  8
0
  6
CONTINUOUS
 62
     7
 10
258.5424269876
 20
243.9279885124
 30
0.0
 11
258.5424269876
 21
249.2279869597
 31
0.0
  0
LINE
  5
3AE
  8
0
  6
CONTINUOUS
 62
     7
 10
258.5424269876
 20
194.5279867481
 30
0.0
 11
265.5424272037
 21
194.5279867481
 31
0.0
  0
LINE
  5
3AF
  8
0
  6
CONTINUOUS
 62
     7
 10
258.5424269876
 20
194.5279867481
 30
0.0
 11
258.5424269876
 21
205.2279871981
 31
0.0
  0
LINE
  5
3B0
  8
0
  6
CONTINUOUS
 62
     7
 10
258.5424269876
 20
205.2279871981
 30
0.0
 11
255.0424273452
 21
205.2279871981
 31
0.0
  0
LINE
  5
3B1
  8
0
  6
CONTINUOUS
 62
     7
 10
258.5424269876
 20
233.2279880624
 30
0.0
 11
255.0424273452
 21
233.2279880624
 31
0.0
  0
LINE
  5
3B2
  8
0
  6
CONTINUOUS
 62
     7
 10
265.5424272037
 20
243.9279885124
 30
0.0
 11
265.5424272037
 21
194.5279867481
 31
0.0
  0
LINE
  5
3B3
  8
0
  6
CONTINUOUS
 62
     7
 10
255.0424273452
 20
205.2279871981
 30
0.0
 11
255.0424273452
 21
233.2279880624
 31
0.0
  0
LINE
  5
3B4
  8
0
  6
CONTINUOUS
 62
     7
 10
258.5424269876
 20
243.9279885124
 30
0.0
 11
258.5424269876
 21
233.2279880624
 31
0.0
  0
LINE
  5
3B5
  8
0
  6
CONTINUOUS
 62
     7
 10
258.5424269876
 20
239.4279868435
 30
0.0
 11
255.0424273452
 21
239.4279868435
 31
0.0
  0
LINE
  5
3B6
  8
0
  6
CONTINUOUS
 62
     7
 10
255.0424273452
 20
233.2279880624
 30
0.0
 11
255.0424273452
 21
239.4279868435
 31
0.0
  0
LINE
  5
3B7
  8
0
  6
CONTINUOUS
 62
     7
 10
258.5424269876
 20
199.027988417
 30
0.0
 11
255.0424273452
 21
199.027988417
 31
0.0
  0
LINE
  5
3B8
  8
0
  6
CONTINUOUS
 62
     7
 10
255.0424273452
 20
205.2279871981
 30
0.0
 11
255.0424273452
 21
199.027988417
 31
0.0
  0
LINE
  5
3B9
  8
0
  6
CONTINUOUS
 62
     7
 10
265.5424272037
 20
189.2279883008
 30
0.0
 11
258.5424269876
 21
189.2279883008
 31
0.0
  0
LINE
  5
3BA
  8
0
  6
CONTINUOUS
 62
     7
 10
258.5424269876
 20
189.2279883008
 30
0.0
 11
258.5424269876
 21
194.5279867481
 31
0.0
  0
LINE
  5
3BB
  8
0
  6
CONTINUOUS
 62
     7
 10
265.5424272037
 20
194.5279867481
 30
0.0
 11
265.5424272037
 21
189.2279883008
 31
0.0
  0
LINE
  5
3BC
  8
0
  6
CONTINUOUS
 62
     7
 10
258.5424269876
 20
244.2279880028
 30
0.0
 11
255.0424273452
 21
244.2279880028
 31
0.0
  0
LINE
  5
3BD
  8
0
  6
CONTINUOUS
 62
     7
 10
255.0424273452
 20
239.4279868435
 30
0.0
 11
255.0424273452
 21
244.2279880028
 31
0.0
  0
LINE
  5
3BE
  8
0
  6
CONTINUOUS
 62
     7
 10
258.5424269876
 20
194.2279872577
 30
0.0
 11
255.0424273452
 21
194.2279872577
 31
0.0
  0
LINE
  5
3BF
  8
0
  6
CONTINUOUS
 62
     7
 10
255.0424273452
 20
199.027988417
 30
0.0
 11
255.0424273452
 21
194.2279872577
 31
0.0
  0
LINE
  5
3C0
  8
0
  6
CONTINUOUS
 62
     7
 10
258.5424269876
 20
248.2460041623
 30
0.0
 11
255.0424273452
 21
248.2460041623
 31
0.0
  0
LINE
  5
3C1
  8
0
  6
CONTINUOUS
 62
     7
 10
258.5424269876
 20
249.2279869597
 30
0.0
 11
255.0424273452
 21
249.2279869597
 31
0.0
  0
LINE
  5
3C2
  8
0
  6
CONTINUOUS
 62
     7
 10
255.0424273452
 20
248.2460041623
 30
0.0
 11
255.0424273452
 21
249.2279869597
 31
0.0
  0
LINE
  5
3C3
  8
0
  6
CONTINUOUS
 62
     7
 10
255.0424273452
 20
244.2279880028
 30
0.0
 11
255.0424273452
 21
248.2460041623
 31
0.0
  0
LINE
  5
3C4
  8
0
  6
CONTINUOUS
 62
     7
 10
258.5424269876
 20
190.2099710982
 30
0.0
 11
255.0424273452
 21
190.2099710982
 31
0.0
  0
LINE
  5
3C5
  8
0
  6
CONTINUOUS
 62
     7
 10
255.0424273452
 20
194.2279872577
 30
0.0
 11
255.0424273452
 21
190.2099710982
 31
0.0
  0
LINE
  5
3C6
  8
0
  6
CONTINUOUS
 62
     7
 10
258.5424269876
 20
189.2279883008
 30
0.0
 11
255.0424273452
 21
189.2279883008
 31
0.0
  0
LINE
  5
3C7
  8
0
  6
CONTINUOUS
 62
     7
 10
255.0424273452
 20
190.2099710982
 30
0.0
 11
255.0424273452
 21
189.2279883008
 31
0.0
  0
LINE
  5
3C8
  8
0
  6
CONTINUOUS
 62
     7
 10
267.5424272987
 20
219.2279876303
 30
0.0
 11
267.5424272987
 21
201.2279884051
 31
0.0
  0
LINE
  5
3C9
  8
0
  6
CONTINUOUS
 62
     7
 10
267.5424272987
 20
237.2279868554
 30
0.0
 11
267.5424272987
 21
219.2279876303
 31
0.0
  0
LINE
  5
3CA
  8
0
  6
CONTINUOUS
 62
     7
 10
289.5424274123
 20
219.2279876303
 30
0.0
 11
289.5424274123
 21
214.227987742
 31
0.0
  0
LINE
  5
3CB
  8
0
  6
CONTINUOUS
 62
     7
 10
289.5424274123
 20
224.2279875185
 30
0.0
 11
289.5424274123
 21
219.2279876303
 31
0.0
  0
LINE
  5
3CC
  8
0
  6
CONTINUOUS
 62
     7
 10
201.3424282289
 20
233.2279880624
 30
0.0
 11
255.0424273452
 21
233.2279880624
 31
0.0
  0
LINE
  5
3CD
  8
0
  6
CONTINUOUS
 62
     7
 10
255.0424273452
 20
239.4279868435
 30
0.0
 11
201.3424282289
 21
239.4279868435
 31
0.0
  0
LINE
  5
3CE
  8
0
  6
CONTINUOUS
 62
     7
 10
201.3424282289
 20
239.4279868435
 30
0.0
 11
201.3424282289
 21
233.2279880624
 31
0.0
  0
LINE
  5
3CF
  8
0
  6
CONTINUOUS
 62
     7
 10
201.3424282289
 20
205.2279871981
 30
0.0
 11
255.0424273452
 21
205.2279871981
 31
0.0
  0
LINE
  5
3D0
  8
0
  6
CONTINUOUS
 62
     7
 10
201.3424282289
 20
205.2279871981
 30
0.0
 11
201.3424282289
 21
233.2279880624
 31
0.0
  0
LINE
  5
3D1
  8
0
  6
CONTINUOUS
 62
     7
 10
255.0424273452
 20
199.027988417
 30
0.0
 11
201.3424282289
 21
199.027988417
 31
0.0
  0
LINE
  5
3D2
  8
0
  6
CONTINUOUS
 62
     7
 10
201.3424282289
 20
199.027988417
 30
0.0
 11
201.3424282289
 21
205.2279871981
 31
0.0
  0
LINE
  5
3D3
  8
0
  6
CONTINUOUS
 62
     7
 10
255.0424273452
 20
244.2279880028
 30
0.0
 11
201.3424282289
 21
244.2279880028
 31
0.0
  0
LINE
  5
3D4
  8
0
  6
CONTINUOUS
 62
     7
 10
201.3424282289
 20
244.2279880028
 30
0.0
 11
201.3424282289
 21
239.4279868435
 31
0.0
  0
LINE
  5
3D5
  8
0
  6
CONTINUOUS
 62
     7
 10
255.0424273452
 20
194.2279872577
 30
0.0
 11
201.3424282289
 21
194.2279872577
 31
0.0
  0
LINE
  5
3D6
  8
0
  6
CONTINUOUS
 62
     7
 10
201.3424282289
 20
194.2279872577
 30
0.0
 11
201.3424282289
 21
199.027988417
 31
0.0
  0
LINE
  5
3D7
  8
0
  6
CONTINUOUS
 62
     7
 10
255.0424273452
 20
248.2460041623
 30
0.0
 11
201.3424282289
 21
248.2460041623
 31
0.0
  0
LINE
  5
3D8
  8
0
  6
CONTINUOUS
 62
     7
 10
255.0424273452
 20
249.2279869597
 30
0.0
 11
201.3424282289
 21
249.2279869597
 31
0.0
  0
LINE
  5
3D9
  8
0
  6
CONTINUOUS
 62
     7
 10
201.3424282289
 20
249.2279869597
 30
0.0
 11
201.3424282289
 21
248.2460041623
 31
0.0
  0
LINE
  5
3DA
  8
0
  6
CONTINUOUS
 62
     7
 10
201.3424282289
 20
248.2460041623
 30
0.0
 11
201.3424282289
 21
244.2279880028
 31
0.0
  0
LINE
  5
3DB
  8
0
  6
CONTINUOUS
 62
     7
 10
255.0424273452
 20
190.2099710982
 30
0.0
 11
201.3424282289
 21
190.2099710982
 31
0.0
  0
LINE
  5
3DC
  8
0
  6
CONTINUOUS
 62
     7
 10
201.3424282289
 20
190.2099710982
 30
0.0
 11
201.3424282289
 21
194.2279872577
 31
0.0
  0
LINE
  5
3DD
  8
0
  6
CONTINUOUS
 62
     7
 10
255.0424273452
 20
189.2279883008
 30
0.0
 11
201.3424282289
 21
189.2279883008
 31
0.0
  0
LINE
  5
3DE
  8
0
  6
CONTINUOUS
 62
     7
 10
201.3424282289
 20
189.2279883008
 30
0.0
 11
201.3424282289
 21
190.2099710982
 31
0.0
  0
LINE
  5
3DF
  8
0
  6
CONTINUOUS
 62
     7
 10
185.3424256063
 20
239.4279868435
 30
0.0
 11
201.3424282289
 21
233.2279880624
 31
0.0
  0
LINE
  5
3E0
  8
0
  6
CONTINUOUS
 62
     7
 10
201.3424282289
 20
239.4279868435
 30
0.0
 11
185.3424256063
 21
239.4279868435
 31
0.0
  0
LINE
  5
3E1
  8
0
  6
CONTINUOUS
 62
     7
 10
185.3424256063
 20
199.027988417
 30
0.0
 11
201.3424282289
 21
205.2279871981
 31
0.0
  0
LINE
  5
3E2
  8
0
  6
CONTINUOUS
 62
     7
 10
185.3424256063
 20
199.027988417
 30
0.0
 11
181.8424259639
 21
199.027988417
 31
0.0
  0
LINE
  5
3E3
  8
0
  6
CONTINUOUS
 62
     7
 10
185.3424256063
 20
239.4279868435
 30
0.0
 11
181.8424259639
 21
239.4279868435
 31
0.0
  0
LINE
  5
3E4
  8
0
  6
CONTINUOUS
 62
     7
 10
181.8424259639
 20
199.027988417
 30
0.0
 11
181.8424259639
 21
239.4279868435
 31
0.0
  0
LINE
  5
3E5
  8
0
  6
CONTINUOUS
 62
     7
 10
201.3424282289
 20
199.027988417
 30
0.0
 11
185.3424256063
 21
199.027988417
 31
0.0
  0
LINE
  5
3E6
  8
0
  6
CONTINUOUS
 62
     7
 10
181.8424259639
 20
244.2279880028
 30
0.0
 11
201.3424282289
 21
244.2279880028
 31
0.0
  0
LINE
  5
3E7
  8
0
  6
CONTINUOUS
 62
     7
 10
181.8424259639
 20
244.2279880028
 30
0.0
 11
181.8424259639
 21
239.4279868435
 31
0.0
  0
LINE
  5
3E8
  8
0
  6
CONTINUOUS
 62
     7
 10
181.8424259639
 20
194.2279872577
 30
0.0
 11
201.3424282289
 21
194.2279872577
 31
0.0
  0
LINE
  5
3E9
  8
0
  6
CONTINUOUS
 62
     7
 10
181.8424259639
 20
194.2279872577
 30
0.0
 11
181.8424259639
 21
199.027988417
 31
0.0
  0
LINE
  5
3EA
  8
0
  6
CONTINUOUS
 62
     7
 10
185.3424256063
 20
249.2279869597
 30
0.0
 11
201.3424282289
 21
248.2460041623
 31
0.0
  0
LINE
  5
3EB
  8
0
  6
CONTINUOUS
 62
     7
 10
185.3424256063
 20
249.2279869597
 30
0.0
 11
201.3424282289
 21
249.2279869597
 31
0.0
  0
LINE
  5
3EC
  8
0
  6
CONTINUOUS
 62
     7
 10
181.8424259639
 20
249.2279869597
 30
0.0
 11
185.3424256063
 21
249.2279869597
 31
0.0
  0
LINE
  5
3ED
  8
0
  6
CONTINUOUS
 62
     7
 10
181.8424259639
 20
249.2279869597
 30
0.0
 11
181.8424259639
 21
244.2279880028
 31
0.0
  0
LINE
  5
3EE
  8
0
  6
CONTINUOUS
 62
     7
 10
185.3424256063
 20
189.2279883008
 30
0.0
 11
201.3424282289
 21
190.2099710982
 31
0.0
  0
LINE
  5
3EF
  8
0
  6
CONTINUOUS
 62
     7
 10
181.8424259639
 20
189.2279883008
 30
0.0
 11
185.3424256063
 21
189.2279883008
 31
0.0
  0
LINE
  5
3F0
  8
0
  6
CONTINUOUS
 62
     7
 10
181.8424259639
 20
189.2279883008
 30
0.0
 11
181.8424259639
 21
194.2279872577
 31
0.0
  0
LINE
  5
3F1
  8
0
  6
CONTINUOUS
 62
     7
 10
185.3424256063
 20
189.2279883008
 30
0.0
 11
201.3424282289
 21
189.2279883008
 31
0.0
  0
LINE
  5
3F2
  8
0
  6
CONTINUOUS
 62
     7
 10
169.5424263692
 20
244.2889318894
 30
0.0
 11
169.5424263692
 21
190.8799105417
 31
0.0
  0
ARC
  5
3F3
  8
0
  6
CONTINUOUS
 62
     7
 10
316.8393605564
 20
219.2279876303
 30
0.0
 40
149.4136456285034
 50
168.4171399326
 51
170.3442177466
  0
LINE
  5
3F4
  8
0
  6
CONTINUOUS
 62
     7
 10
171.2647770858
 20
249.2279869597
 30
0.0
 11
170.4684739328
 21
249.2279869597
 31
0.0
  0
ARC
  5
3F5
  8
0
  6
CONTINUOUS
 62
     7
 10
316.8393605564
 20
219.2279876303
 30
0.0
 40
148.6336435669933
 50
168.3555065844
 51
170.316890223
  0
POLYLINE
  5
3F6
  8
0
  6
CONTINUOUS
 62
     7
 66
     1
 10
0.0
 20
0.0
 30
0.0
 70
   128
  0
VERTEX
  5
6DF
  8
0
  6
CONTINUOUS
 62
     7
 10
170.3232844687
 20
239.4279868435
 30
0.0
  0
VERTEX
  5
6E0
  8
0
  6
CONTINUOUS
 62
     7
 10
170.1011379576
 20
239.6903869789
 30
0.0
  0
VERTEX
  5
6E1
  8
0
  6
CONTINUOUS
 62
     7
 10
169.9925010419
 20
240.4571131896
 30
0.0
  0
VERTEX
  5
6E2
  8
0
  6
CONTINUOUS
 62
     7
 10
170.010352633
 20
241.6249041538
 30
0.0
  0
VERTEX
  5
6E3
  8
0
  6
CONTINUOUS
 62
     7
 10
170.1484044409
 20
243.0575651209
 30
0.0
  0
VERTEX
  5
6E4
  8
0
  6
CONTINUOUS
 62
     7
 10
170.3232844687
 20
244.2279880028
 30
0.0
  0
SEQEND
  5
747
  8
0
  6
CONTINUOUS
 62
     7
  0
LINE
  5
3F7
  8
0
  6
CONTINUOUS
 62
     7
 10
171.2647770858
 20
239.4279868435
 30
0.0
 11
170.3232844687
 21
239.4279868435
 31
0.0
  0
ARC
  5
3F8
  8
0
  6
CONTINUOUS
 62
     7
 10
316.8393605564
 20
219.2279876303
 30
0.0
 40
146.9693845669907
 50
172.1000552368
 51
187.8999447632
  0
LINE
  5
3F9
  8
0
  6
CONTINUOUS
 62
     7
 10
170.3232844687
 20
199.027988417
 30
0.0
 11
171.2647770858
 21
199.027988417
 31
0.0
  0
POLYLINE
  5
3FA
  8
0
  6
CONTINUOUS
 62
     7
 66
     1
 10
0.0
 20
0.0
 30
0.0
 70
   128
  0
VERTEX
  5
6E5
  8
0
  6
CONTINUOUS
 62
     7
 10
170.3232844687
 20
194.2279872577
 30
0.0
  0
VERTEX
  5
6E6
  8
0
  6
CONTINUOUS
 62
     7
 10
170.1011379576
 20
195.7932946365
 30
0.0
  0
VERTEX
  5
6E7
  8
0
  6
CONTINUOUS
 62
     7
 10
169.9925010419
 20
197.1979209315
 30
0.0
  0
VERTEX
  5
6E8
  8
0
  6
CONTINUOUS
 62
     7
 10
170.010352633
 20
198.2608468365
 30
0.0
  0
VERTEX
  5
6E9
  8
0
  6
CONTINUOUS
 62
     7
 10
170.1484044409
 20
198.8831044268
 30
0.0
  0
VERTEX
  5
6EA
  8
0
  6
CONTINUOUS
 62
     7
 10
170.3232844687
 20
199.027988417
 30
0.0
  0
SEQEND
  5
748
  8
0
  6
CONTINUOUS
 62
     7
  0
ARC
  5
3FB
  8
0
  6
CONTINUOUS
 62
     7
 10
316.8393605564
 20
219.2279876303
 30
0.0
 40
148.6336435669933
 50
189.683109777
 51
191.6444934156
  0
LINE
  5
3FC
  8
0
  6
CONTINUOUS
 62
     7
 10
169.869976244
 20
189.2279883008
 30
0.0
 11
171.2647770858
 21
189.2279883008
 31
0.0
  0
LINE
  5
3FD
  8
0
  6
CONTINUOUS
 62
     7
 10
171.2647770858
 20
199.027988417
 30
0.0
 11
181.8424259639
 21
199.027988417
 31
0.0
  0
LINE
  5
3FE
  8
0
  6
CONTINUOUS
 62
     7
 10
171.2647770858
 20
239.4279868435
 30
0.0
 11
181.8424259639
 21
239.4279868435
 31
0.0
  0
LINE
  5
3FF
  8
0
  6
CONTINUOUS
 62
     7
 10
168.04243078
 20
241.3073902111
 30
0.0
 11
168.04243078
 21
193.4779876005
 31
0.0
  0
POLYLINE
  5
400
  8
0
  6
CONTINUOUS
 62
     7
 66
     1
 10
0.0
 20
0.0
 30
0.0
 70
   128
  0
VERTEX
  5
6EB
  8
0
  6
CONTINUOUS
 62
     7
 10
168.04243078
 20
241.3073902111
 30
0.0
  0
VERTEX
  5
6EC
  8
0
  6
CONTINUOUS
 62
     7
 10
169.133575759
 20
243.4850049298
 30
0.0
  0
VERTEX
  5
6ED
  8
0
  6
CONTINUOUS
 62
     7
 10
169.5424263692
 20
244.2889318894
 30
0.0
  0
SEQEND
  5
749
  8
0
  6
CONTINUOUS
 62
     7
  0
LINE
  5
401
  8
0
  6
CONTINUOUS
 62
     7
 10
170.3232844687
 20
244.2279880028
 30
0.0
 11
181.8424259639
 21
244.2279880028
 31
0.0
  0
LINE
  5
402
  8
0
  6
CONTINUOUS
 62
     7
 10
170.3232844687
 20
194.2279872577
 30
0.0
 11
181.8424259639
 21
194.2279872577
 31
0.0
  0
LINE
  5
403
  8
0
  6
CONTINUOUS
 62
     7
 10
171.2647770858
 20
249.2279869597
 30
0.0
 11
181.8424259639
 21
249.2279869597
 31
0.0
  0
LINE
  5
404
  8
0
  6
CONTINUOUS
 62
     7
 10
171.2647770858
 20
189.2279883008
 30
0.0
 11
181.8424259639
 21
189.2279883008
 31
0.0
  0
LINE
  5
405
  8
0
  6
CONTINUOUS
 62
     7
 10
170.4684739328
 20
249.2279869597
 30
0.0
 11
168.04243078
 21
249.2279869597
 31
0.0
  0
LINE
  5
406
  8
0
  6
CONTINUOUS
 62
     7
 10
168.04243078
 20
249.2279869597
 30
0.0
 11
168.04243078
 21
241.3073902111
 31
0.0
  0
LINE
  5
407
  8
0
  6
CONTINUOUS
 62
     7
 10
199.4424258685
 20
260.2279887628
 30
0.0
 11
199.4424258685
 21
258.68951465
 31
0.0
  0
LINE
  5
408
  8
0
  6
CONTINUOUS
 62
     7
 10
211.7424254632
 20
254.1954324674
 30
0.0
 11
211.7424254632
 21
253.4711317252
 31
0.0
  0
POLYLINE
  5
409
  8
0
  6
CONTINUOUS
 62
     7
 66
     1
 10
0.0
 20
0.0
 30
0.0
 70
   128
  0
VERTEX
  5
6EE
  8
0
  6
CONTINUOUS
 62
     7
 10
207.7424285329
 20
254.6407313179
 30
0.0
  0
VERTEX
  5
6EF
  8
0
  6
CONTINUOUS
 62
     7
 10
209.1015895224
 20
254.0321753453
 30
0.0
  0
VERTEX
  5
6F0
  8
0
  6
CONTINUOUS
 62
     7
 10
210.3501056647
 20
253.583568437
 30
0.0
  0
VERTEX
  5
6F1
  8
0
  6
CONTINUOUS
 62
     7
 10
211.2142389035
 20
253.3758648764
 30
0.0
  0
VERTEX
  5
6F2
  8
0
  6
CONTINUOUS
 62
     7
 10
211.6586809373
 20
253.3756637107
 30
0.0
  0
VERTEX
  5
6F3
  8
0
  6
CONTINUOUS
 62
     7
 10
211.7424254632
 20
253.4711317252
 30
0.0
  0
SEQEND
  5
74A
  8
0
  6
CONTINUOUS
 62
     7
  0
LINE
  5
40A
  8
0
  6
CONTINUOUS
 62
     7
 10
207.7424285329
 20
254.6407313179
 30
0.0
 11
199.4424258685
 21
258.68951465
 31
0.0
  0
LINE
  5
40B
  8
0
  6
CONTINUOUS
 62
     7
 10
199.4424258685
 20
258.68951465
 30
0.0
 11
183.242427311
 21
258.68951465
 31
0.0
  0
LINE
  5
40C
  8
0
  6
CONTINUOUS
 62
     7
 10
183.242427311
 20
258.68951465
 30
0.0
 11
183.242427311
 21
260.2279887628
 31
0.0
  0
POLYLINE
  5
40D
  8
0
  6
CONTINUOUS
 62
     7
 66
     1
 10
0.0
 20
0.0
 30
0.0
 70
   128
  0
VERTEX
  5
6F4
  8
0
  6
CONTINUOUS
 62
     7
 10
186.9924237347
 20
260.2279887628
 30
0.0
  0
VERTEX
  5
6F5
  8
0
  6
CONTINUOUS
 62
     7
 10
187.2870569444
 20
260.2029250096
 30
0.0
  0
VERTEX
  5
6F6
  8
0
  6
CONTINUOUS
 62
     7
 10
188.1371532893
 20
260.1386786531
 30
0.0
  0
VERTEX
  5
6F7
  8
0
  6
CONTINUOUS
 62
     7
 10
189.4506459451
 20
260.0630217325
 30
0.0
  0
VERTEX
  5
6F8
  8
0
  6
CONTINUOUS
 62
     7
 10
191.0819878197
 20
260.0091242324
 30
0.0
  0
VERTEX
  5
6F9
  8
0
  6
CONTINUOUS
 62
     7
 10
192.8406824684
 20
260.000854088
 30
0.0
  0
VERTEX
  5
6FA
  8
0
  6
CONTINUOUS
 62
     7
 10
194.5272256947
 20
260.0415119063
 30
0.0
  0
VERTEX
  5
6FB
  8
0
  6
CONTINUOUS
 62
     7
 10
195.9592049337
 20
260.1133094262
 30
0.0
  0
VERTEX
  5
6FC
  8
0
  6
CONTINUOUS
 62
     7
 10
196.977259717
 20
260.1851069461
 30
0.0
  0
VERTEX
  5
6FD
  8
0
  6
CONTINUOUS
 62
     7
 10
197.4612717843
 20
260.2252693008
 30
0.0
  0
VERTEX
  5
6FE
  8
0
  6
CONTINUOUS
 62
     7
 10
197.4273418403
 20
260.2223486732
 30
0.0
  0
SEQEND
  5
74B
  8
0
  6
CONTINUOUS
 62
     7
  0
LINE
  5
40E
  8
0
  6
CONTINUOUS
 62
     7
 10
183.242427311
 20
258.68951465
 30
0.0
 11
183.242427311
 21
249.2279869597
 31
0.0
  0
LINE
  5
40F
  8
0
  6
CONTINUOUS
 62
     7
 10
207.7424285329
 20
249.2279869597
 30
0.0
 11
207.7424285329
 21
254.6407313179
 31
0.0
  0
LINE
  5
410
  8
0
  6
CONTINUOUS
 62
     7
 10
211.7424254632
 20
253.4711317252
 30
0.0
 11
211.7424254632
 21
249.2279869597
 31
0.0
  0
LINE
  5
411
  8
0
  6
CONTINUOUS
 62
     7
 10
197.4924301124
 20
262.2279890906
 30
0.0
 11
186.9924237347
 21
262.2279890906
 31
0.0
  0
LINE
  5
412
  8
0
  6
CONTINUOUS
 62
     7
 10
185.8424266195
 20
529.6279967855
 30
0.0
 11
199.6424292541
 21
529.6279967855
 31
0.0
  0
LINE
  5
413
  8
0
  6
CONTINUOUS
 62
     7
 10
199.6424292541
 20
530.6279839109
 30
0.0
 11
185.8424266195
 21
530.6279839109
 31
0.0
  0
LINE
  5
414
  8
0
  6
CONTINUOUS
 62
     7
 10
185.8424266195
 20
529.6279967855
 30
0.0
 11
185.8424266195
 21
530.6279839109
 31
0.0
  0
LINE
  5
415
  8
0
  6
CONTINUOUS
 62
     7
 10
199.6424292541
 20
529.6279967855
 30
0.0
 11
199.6424292541
 21
530.6279839109
 31
0.0
  0
LINE
  5
416
  8
0
  6
CONTINUOUS
 62
     7
 10
197.1924250341
 20
530.6279839109
 30
0.0
 11
197.1924250341
 21
540.327984197
 31
0.0
  0
LINE
  5
417
  8
0
  6
CONTINUOUS
 62
     7
 10
196.6924240208
 20
540.327984197
 30
0.0
 11
196.6924240208
 21
530.6279839109
 31
0.0
  0
LINE
  5
418
  8
0
  6
CONTINUOUS
 62
     7
 10
196.6924240208
 20
540.327984197
 30
0.0
 11
197.1924250341
 21
540.327984197
 31
0.0
  0
LINE
  5
419
  8
0
  6
CONTINUOUS
 62
     7
 10
196.642430625
 20
540.327984197
 30
0.0
 11
196.642430625
 21
530.6279839109
 31
0.0
  0
LINE
  5
41A
  8
0
  6
CONTINUOUS
 62
     7
 10
196.1424296117
 20
540.327984197
 30
0.0
 11
196.1424296117
 21
530.6279839109
 31
0.0
  0
LINE
  5
41B
  8
0
  6
CONTINUOUS
 62
     7
 10
196.1424296117
 20
540.327984197
 30
0.0
 11
196.642430625
 21
540.327984197
 31
0.0
  0
LINE
  5
41C
  8
0
  6
CONTINUOUS
 62
     7
 10
192.7174275136
 20
540.327984197
 30
0.0
 11
192.7174275136
 21
530.6279839109
 31
0.0
  0
LINE
  5
41D
  8
0
  6
CONTINUOUS
 62
     7
 10
192.2174265003
 20
540.327984197
 30
0.0
 11
192.2174265003
 21
530.6279839109
 31
0.0
  0
LINE
  5
41E
  8
0
  6
CONTINUOUS
 62
     7
 10
192.2174265003
 20
540.327984197
 30
0.0
 11
192.7174275136
 21
540.327984197
 31
0.0
  0
LINE
  5
41F
  8
0
  6
CONTINUOUS
 62
     7
 10
193.2674293733
 20
530.6279839109
 30
0.0
 11
193.2674293733
 21
540.327984197
 31
0.0
  0
LINE
  5
420
  8
0
  6
CONTINUOUS
 62
     7
 10
192.76742836
 20
530.6279839109
 30
0.0
 11
192.76742836
 21
540.327984197
 31
0.0
  0
LINE
  5
421
  8
0
  6
CONTINUOUS
 62
     7
 10
192.76742836
 20
540.327984197
 30
0.0
 11
193.2674293733
 21
540.327984197
 31
0.0
  0
LINE
  5
422
  8
0
  6
CONTINUOUS
 62
     7
 10
197.7424268937
 20
530.6279839109
 30
0.0
 11
197.7424268937
 21
540.327984197
 31
0.0
  0
LINE
  5
423
  8
0
  6
CONTINUOUS
 62
     7
 10
197.2424258805
 20
530.6279839109
 30
0.0
 11
197.2424258805
 21
540.327984197
 31
0.0
  0
LINE
  5
424
  8
0
  6
CONTINUOUS
 62
     7
 10
197.2424258805
 20
540.327984197
 30
0.0
 11
197.7424268937
 21
540.327984197
 31
0.0
  0
LINE
  5
425
  8
0
  6
CONTINUOUS
 62
     7
 10
188.7924244023
 20
540.327984197
 30
0.0
 11
188.7924244023
 21
530.6279839109
 31
0.0
  0
LINE
  5
426
  8
0
  6
CONTINUOUS
 62
     7
 10
188.2924308396
 20
540.327984197
 30
0.0
 11
188.2924308396
 21
530.6279839109
 31
0.0
  0
LINE
  5
427
  8
0
  6
CONTINUOUS
 62
     7
 10
188.7924244023
 20
540.327984197
 30
0.0
 11
188.2924308396
 21
540.327984197
 31
0.0
  0
LINE
  5
428
  8
0
  6
CONTINUOUS
 62
     7
 10
192.2174265003
 20
540.327984197
 30
0.0
 11
188.7924244023
 21
540.327984197
 31
0.0
  0
LINE
  5
429
  8
0
  6
CONTINUOUS
 62
     7
 10
199.6424292541
 20
540.327984197
 30
0.0
 11
197.7424268937
 21
540.327984197
 31
0.0
  0
LINE
  5
42A
  8
0
  6
CONTINUOUS
 62
     7
 10
199.6424292541
 20
540.327984197
 30
0.0
 11
199.6424292541
 21
530.6279839109
 31
0.0
  0
LINE
  5
42B
  8
0
  6
CONTINUOUS
 62
     7
 10
197.1924250341
 20
540.327984197
 30
0.0
 11
197.2424258805
 21
540.327984197
 31
0.0
  0
LINE
  5
42C
  8
0
  6
CONTINUOUS
 62
     7
 10
196.642430625
 20
540.327984197
 30
0.0
 11
196.6924240208
 21
540.327984197
 31
0.0
  0
LINE
  5
42D
  8
0
  6
CONTINUOUS
 62
     7
 10
196.1424296117
 20
540.327984197
 30
0.0
 11
193.2674293733
 21
540.327984197
 31
0.0
  0
LINE
  5
42E
  8
0
  6
CONTINUOUS
 62
     7
 10
192.7174275136
 20
540.327984197
 30
0.0
 11
192.76742836
 21
540.327984197
 31
0.0
  0
LINE
  5
42F
  8
0
  6
CONTINUOUS
 62
     7
 10
185.8424266195
 20
540.327984197
 30
0.0
 11
188.2924308396
 21
540.327984197
 31
0.0
  0
LINE
  5
430
  8
0
  6
CONTINUOUS
 62
     7
 10
185.8424266195
 20
540.327984197
 30
0.0
 11
185.8424266195
 21
530.6279839109
 31
0.0
  0
LINE
  5
431
  8
0
  6
CONTINUOUS
 62
     7
 10
196.2424238539
 20
494.6280003618
 30
0.0
 11
188.2424299932
 21
494.6280003618
 31
0.0
  0
LINE
  5
432
  8
0
  6
CONTINUOUS
 62
     7
 10
196.7424248672
 20
469.6279944013
 30
0.0
 11
187.7424289799
 21
469.6279944013
 31
0.0
  0
LINE
  5
433
  8
0
  6
CONTINUOUS
 62
     7
 10
190.2424265957
 20
540.327984197
 30
0.0
 11
190.2424265957
 21
549.2280007433
 31
0.0
  0
LINE
  5
434
  8
0
  6
CONTINUOUS
 62
     7
 10
186.8424286461
 20
549.2280007433
 30
0.0
 11
186.8424286461
 21
540.327984197
 31
0.0
  0
LINE
  5
435
  8
0
  6
CONTINUOUS
 62
     7
 10
186.8424286461
 20
549.2280007433
 30
0.0
 11
190.2424265957
 21
549.2280007433
 31
0.0
  0
LINE
  5
436
  8
0
  6
CONTINUOUS
 62
     7
 10
195.9924270725
 20
540.327984197
 30
0.0
 11
195.9924270725
 21
549.2280007433
 31
0.0
  0
LINE
  5
437
  8
0
  6
CONTINUOUS
 62
     7
 10
195.2424292779
 20
549.2280007433
 30
0.0
 11
195.2424292779
 21
540.327984197
 31
0.0
  0
LINE
  5
438
  8
0
  6
CONTINUOUS
 62
     7
 10
195.9924270725
 20
549.2280007433
 30
0.0
 11
195.2424292779
 21
549.2280007433
 31
0.0
  0
LINE
  5
439
  8
0
  6
CONTINUOUS
 62
     7
 10
198.6424272275
 20
540.327984197
 30
0.0
 11
198.6424272275
 21
549.2280007433
 31
0.0
  0
LINE
  5
43A
  8
0
  6
CONTINUOUS
 62
     7
 10
197.8924294329
 20
549.2280007433
 30
0.0
 11
197.8924294329
 21
540.327984197
 31
0.0
  0
LINE
  5
43B
  8
0
  6
CONTINUOUS
 62
     7
 10
197.8924294329
 20
549.2280007433
 30
0.0
 11
198.6424272275
 21
549.2280007433
 31
0.0
  0
LINE
  5
43C
  8
0
  6
CONTINUOUS
 62
     7
 10
195.9924270725
 20
549.2280007433
 30
0.0
 11
197.8924294329
 21
549.2280007433
 31
0.0
  0
LINE
  5
43D
  8
0
  6
CONTINUOUS
 62
     7
 10
191.7924304819
 20
540.327984197
 30
0.0
 11
191.7924304819
 21
549.2280007433
 31
0.0
  0
LINE
  5
43E
  8
0
  6
CONTINUOUS
 62
     7
 10
191.0424252367
 20
549.2280007433
 30
0.0
 11
191.0424252367
 21
540.327984197
 31
0.0
  0
LINE
  5
43F
  8
0
  6
CONTINUOUS
 62
     7
 10
191.7924304819
 20
549.2280007433
 30
0.0
 11
191.0424252367
 21
549.2280007433
 31
0.0
  0
LINE
  5
440
  8
0
  6
CONTINUOUS
 62
     7
 10
193.6924253917
 20
549.2280007433
 30
0.0
 11
193.6924253917
 21
540.327984197
 31
0.0
  0
LINE
  5
441
  8
0
  6
CONTINUOUS
 62
     7
 10
191.7924304819
 20
549.2280007433
 30
0.0
 11
193.6924253917
 21
549.2280007433
 31
0.0
  0
LINE
  5
442
  8
0
  6
CONTINUOUS
 62
     7
 10
194.4424306369
 20
540.327984197
 30
0.0
 11
194.4424306369
 21
549.2280007433
 31
0.0
  0
LINE
  5
443
  8
0
  6
CONTINUOUS
 62
     7
 10
193.6924253917
 20
549.2280007433
 30
0.0
 11
194.4424306369
 21
549.2280007433
 31
0.0
  0
LINE
  5
444
  8
0
  6
CONTINUOUS
 62
     7
 10
188.7424235559
 20
509.6279860567
 30
0.0
 11
195.7424302912
 21
509.6279860567
 31
0.0
  0
LINE
  5
445
  8
0
  6
CONTINUOUS
 62
     7
 10
180.5424263096
 20
258.8027262222
 30
0.0
 11
168.5424243427
 21
258.8027262222
 31
0.0
  0
LINE
  5
446
  8
0
  6
CONTINUOUS
 62
     7
 10
168.5424243427
 20
258.8027262222
 30
0.0
 11
168.5424243427
 21
260.2279887628
 31
0.0
  0
LINE
  5
447
  8
0
  6
CONTINUOUS
 62
     7
 10
180.5424263096
 20
258.8027262222
 30
0.0
 11
180.5424263096
 21
260.2279887628
 31
0.0
  0
POLYLINE
  5
448
  8
0
  6
CONTINUOUS
 62
     7
 66
     1
 10
0.0
 20
0.0
 30
0.0
 70
   128
  0
VERTEX
  5
6FF
  8
0
  6
CONTINUOUS
 62
     7
 10
169.5424263692
 20
260.2279887628
 30
0.0
  0
VERTEX
  5
700
  8
0
  6
CONTINUOUS
 62
     7
 10
169.8231493449
 20
260.2052458655
 30
0.0
  0
VERTEX
  5
701
  8
0
  6
CONTINUOUS
 62
     7
 10
170.6331466651
 20
260.1469525229
 30
0.0
  0
VERTEX
  5
702
  8
0
  6
CONTINUOUS
 62
     7
 10
171.8843748188
 20
260.0783438515
 30
0.0
  0
VERTEX
  5
703
  8
0
  6
CONTINUOUS
 62
     7
 10
173.4379549837
 20
260.0294903945
 30
0.0
  0
VERTEX
  5
704
  8
0
  6
CONTINUOUS
 62
     7
 10
175.1130466676
 20
260.0220137369
 30
0.0
  0
VERTEX
  5
705
  8
0
  6
CONTINUOUS
 62
     7
 10
176.7197420216
 20
260.0589201878
 30
0.0
  0
VERTEX
  5
706
  8
0
  6
CONTINUOUS
 62
     7
 10
178.083585701
 20
260.1240643393
 30
0.0
  0
VERTEX
  5
707
  8
0
  6
CONTINUOUS
 62
     7
 10
179.052615664
 20
260.1891563367
 30
0.0
  0
VERTEX
  5
708
  8
0
  6
CONTINUOUS
 62
     7
 10
179.5129423356
 20
260.2255375217
 30
0.0
  0
VERTEX
  5
709
  8
0
  6
CONTINUOUS
 62
     7
 10
179.48053231
 20
260.2228776645
 30
0.0
  0
SEQEND
  5
74C
  8
0
  6
CONTINUOUS
 62
     7
  0
LINE
  5
449
  8
0
  6
CONTINUOUS
 62
     7
 10
168.5424243427
 20
258.8027262222
 30
0.0
 11
168.5424243427
 21
249.2279869597
 31
0.0
  0
LINE
  5
44A
  8
0
  6
CONTINUOUS
 62
     7
 10
180.5424263096
 20
258.8027262222
 30
0.0
 11
180.5424263096
 21
249.2279869597
 31
0.0
  0
LINE
  5
44B
  8
0
  6
CONTINUOUS
 62
     7
 10
179.542424283
 20
262.2279890906
 30
0.0
 11
169.5424263692
 21
262.2279890906
 31
0.0
  0
LINE
  5
44C
  8
0
  6
CONTINUOUS
 62
     7
 10
165.3424297786
 20
506.2279881071
 30
0.0
 11
165.3424297786
 21
510.4628981184
 31
0.0
  0
ARC
  5
44D
  8
0
  6
CONTINUOUS
 62
     7
 10
170.3424272037
 20
510.4628858453
 30
0.0
 40
5.0000000000006
 50
131.2570117043
 51
180.0
  0
LINE
  5
44E
  8
0
  6
CONTINUOUS
 62
     7
 10
167.0452376223
 20
514.2216862272
 30
0.0
 11
168.0510063982
 21
515.1039243769
 31
0.0
  0
LINE
  5
44F
  8
0
  6
CONTINUOUS
 62
     7
 10
168.0510063982
 20
515.1039243769
 30
0.0
 11
168.0510063982
 21
520.2279866766
 31
0.0
  0
LINE
  5
450
  8
0
  6
CONTINUOUS
 62
     7
 10
168.0510063982
 20
520.2279866766
 30
0.0
 11
166.0510023451
 21
522.2279907297
 31
0.0
  0
LINE
  5
451
  8
0
  6
CONTINUOUS
 62
     7
 10
166.0510023451
 20
522.2279907297
 30
0.0
 11
165.1424263931
 21
522.2279907297
 31
0.0
  0
LINE
  5
452
  8
0
  6
CONTINUOUS
 62
     7
 10
165.1424263931
 20
522.2279907297
 30
0.0
 11
165.1424263931
 21
538.727986915
 31
0.0
  0
LINE
  5
453
  8
0
  6
CONTINUOUS
 62
     7
 10
165.1424263931
 20
538.727986915
 30
0.0
 11
183.9424242592
 21
538.727986915
 31
0.0
  0
LINE
  5
454
  8
0
  6
CONTINUOUS
 62
     7
 10
183.9424242592
 20
538.727986915
 30
0.0
 11
183.9424242592
 21
522.2279907297
 31
0.0
  0
LINE
  5
455
  8
0
  6
CONTINUOUS
 62
     7
 10
183.9424242592
 20
522.2279907297
 30
0.0
 11
183.0338483072
 21
522.2279907297
 31
0.0
  0
LINE
  5
456
  8
0
  6
CONTINUOUS
 62
     7
 10
183.0338483072
 20
522.2279907297
 30
0.0
 11
181.0338517046
 21
520.2279866766
 31
0.0
  0
LINE
  5
457
  8
0
  6
CONTINUOUS
 62
     7
 10
181.0338517046
 20
520.2279866766
 30
0.0
 11
181.0338517046
 21
515.1039243769
 31
0.0
  0
LINE
  5
458
  8
0
  6
CONTINUOUS
 62
     7
 10
181.0338517046
 20
515.1039243769
 30
0.0
 11
182.03961303
 21
514.2216862272
 31
0.0
  0
ARC
  5
459
  8
0
  6
CONTINUOUS
 62
     7
 10
178.7424272037
 20
510.4628858453
 30
0.0
 40
5.000000000001129
 50
0.0
 51
48.7429882957
  0
LINE
  5
45A
  8
0
  6
CONTINUOUS
 62
     7
 10
183.7424283242
 20
510.4628981184
 30
0.0
 11
183.7424283242
 21
506.2279881071
 31
0.0
  0
ARC
  5
45B
  8
0
  6
CONTINUOUS
 62
     7
 10
183.2424272037
 20
506.2279876303
 30
0.0
 40
0.5000000000000568
 50
270.0
 51
0.0
  0
LINE
  5
45C
  8
0
  6
CONTINUOUS
 62
     7
 10
183.242427311
 20
505.7279945444
 30
0.0
 11
165.8424307919
 21
505.7279945444
 31
0.0
  0
ARC
  5
45D
  8
0
  6
CONTINUOUS
 62
     7
 10
165.8424272037
 20
506.2279876303
 30
0.0
 40
0.5000000000000568
 50
180.0
 51
270.0
  0
LINE
  5
45E
  8
0
  6
CONTINUOUS
 62
     7
 10
168.8924302674
 20
549.2280007433
 30
0.0
 11
168.8924302674
 21
538.727986915
 31
0.0
  0
LINE
  5
45F
  8
0
  6
CONTINUOUS
 62
     7
 10
168.8924302674
 20
549.2280007433
 30
0.0
 11
169.2924295879
 21
549.2280007433
 31
0.0
  0
LINE
  5
460
  8
0
  6
CONTINUOUS
 62
     7
 10
169.2924295879
 20
549.2280007433
 30
0.0
 11
169.2924295879
 21
538.727986915
 31
0.0
  0
LINE
  5
461
  8
0
  6
CONTINUOUS
 62
     7
 10
169.2924295879
 20
549.2280007433
 30
0.0
 11
178.1924237824
 21
549.2280007433
 31
0.0
  0
LINE
  5
462
  8
0
  6
CONTINUOUS
 62
     7
 10
178.1924237824
 20
549.2280007433
 30
0.0
 11
178.1924237824
 21
538.727986915
 31
0.0
  0
LINE
  5
463
  8
0
  6
CONTINUOUS
 62
     7
 10
178.1924237824
 20
549.2280007433
 30
0.0
 11
178.8960640645
 21
549.2280007433
 31
0.0
  0
LINE
  5
464
  8
0
  6
CONTINUOUS
 62
     7
 10
178.8960640645
 20
549.2280007433
 30
0.0
 11
178.8960640645
 21
538.727986915
 31
0.0
  0
LINE
  5
465
  8
0
  6
CONTINUOUS
 62
     7
 10
180.0738816476
 20
549.2280007433
 30
0.0
 11
180.0738816476
 21
538.727986915
 31
0.0
  0
LINE
  5
466
  8
0
  6
CONTINUOUS
 62
     7
 10
178.8960640645
 20
549.2280007433
 30
0.0
 11
180.0738816476
 21
549.2280007433
 31
0.0
  0
LINE
  5
467
  8
0
  6
CONTINUOUS
 62
     7
 10
165.1424263931
 20
543.1280017923
 30
0.0
 11
167.6424240089
 21
543.1280017923
 31
0.0
  0
LINE
  5
468
  8
0
  6
CONTINUOUS
 62
     7
 10
167.6424240089
 20
543.1280017923
 30
0.0
 11
167.6424240089
 21
538.727986915
 31
0.0
  0
LINE
  5
469
  8
0
  6
CONTINUOUS
 62
     7
 10
165.1424263931
 20
538.727986915
 30
0.0
 11
165.1424263931
 21
543.1280017923
 31
0.0
  0
LINE
  5
46A
  8
0
  6
CONTINUOUS
 62
     7
 10
181.4424266434
 20
538.727986915
 30
0.0
 11
181.4424266434
 21
543.1280017923
 31
0.0
  0
LINE
  5
46B
  8
0
  6
CONTINUOUS
 62
     7
 10
181.4424266434
 20
543.1280017923
 30
0.0
 11
183.9424242592
 21
543.1280017923
 31
0.0
  0
LINE
  5
46C
  8
0
  6
CONTINUOUS
 62
     7
 10
183.9424242592
 20
543.1280017923
 30
0.0
 11
183.9424242592
 21
538.727986915
 31
0.0
  0
LINE
  5
46D
  8
0
  6
CONTINUOUS
 62
     7
 10
168.0510063982
 20
515.627998216
 30
0.0
 11
167.6510070777
 21
515.227991445
 31
0.0
  0
LINE
  5
46E
  8
0
  6
CONTINUOUS
 62
     7
 10
167.6510070777
 20
515.227991445
 30
0.0
 11
166.6010042048
 21
515.227991445
 31
0.0
  0
ARC
  5
46F
  8
0
  6
CONTINUOUS
 62
     7
 10
166.6010058474
 20
515.5279876303
 30
0.0
 40
0.3000000000000682
 50
180.0
 51
270.0
  0
LINE
  5
470
  8
0
  6
CONTINUOUS
 62
     7
 10
166.301006577
 20
515.5279816221
 30
0.0
 11
166.301006577
 21
516.0779834818
 31
0.0
  0
LINE
  5
471
  8
0
  6
CONTINUOUS
 62
     7
 10
166.301006577
 20
516.0779834818
 30
0.0
 11
167.5510053849
 21
519.3779946398
 31
0.0
  0
LINE
  5
472
  8
0
  6
CONTINUOUS
 62
     7
 10
167.5510053849
 20
519.3779946398
 30
0.0
 11
167.5510053849
 21
519.8779882025
 31
0.0
  0
LINE
  5
473
  8
0
  6
CONTINUOUS
 62
     7
 10
167.5510053849
 20
519.8779882025
 30
0.0
 11
165.2010028577
 21
522.2279907297
 31
0.0
  0
LINE
  5
474
  8
0
  6
CONTINUOUS
 62
     7
 10
181.5338452673
 20
519.3779946398
 30
0.0
 11
182.7838515258
 21
516.0779834818
 31
0.0
  0
LINE
  5
475
  8
0
  6
CONTINUOUS
 62
     7
 10
182.7838515258
 20
516.0779834818
 30
0.0
 11
182.7838515258
 21
515.5279816221
 31
0.0
  0
ARC
  5
476
  8
0
  6
CONTINUOUS
 62
     7
 10
182.4838485599
 20
515.5279876303
 30
0.0
 40
0.3000000000000682
 50
270.0
 51
0.0
  0
LINE
  5
477
  8
0
  6
CONTINUOUS
 62
     7
 10
182.4838464475
 20
515.227991445
 30
0.0
 11
181.4338510251
 21
515.227991445
 31
0.0
  0
LINE
  5
478
  8
0
  6
CONTINUOUS
 62
     7
 10
181.4338510251
 20
515.227991445
 30
0.0
 11
181.0338517046
 21
515.627998216
 31
0.0
  0
LINE
  5
479
  8
0
  6
CONTINUOUS
 62
     7
 10
183.8838477946
 20
522.2279907297
 30
0.0
 11
181.5338452673
 21
519.8779882025
 31
0.0
  0
LINE
  5
47A
  8
0
  6
CONTINUOUS
 62
     7
 10
181.5338452673
 20
519.8779882025
 30
0.0
 11
181.5338452673
 21
519.3779946398
 31
0.0
  0
LINE
  5
47B
  8
0
  6
CONTINUOUS
 62
     7
 10
180.1924278355
 20
549.2280007433
 30
0.0
 11
180.1924278355
 21
538.727986915
 31
0.0
  0
LINE
  5
47C
  8
0
  6
CONTINUOUS
 62
     7
 10
180.0738816476
 20
549.2280007433
 30
0.0
 11
180.1924278355
 21
549.2280007433
 31
0.0
  0
LINE
  5
47D
  8
0
  6
CONTINUOUS
 62
     7
 10
183.1058209157
 20
516.0779834818
 30
0.0
 11
183.1058209157
 21
515.5279816221
 31
0.0
  0
ARC
  5
47E
  8
0
  6
CONTINUOUS
 62
     7
 10
182.8058182569
 20
515.5279876303
 30
0.0
 40
0.3000000000000114
 50
270.0
 51
0.0
  0
LINE
  5
47F
  8
0
  6
CONTINUOUS
 62
     7
 10
182.7838515258
 20
516.0779834818
 30
0.0
 11
183.1058209157
 21
516.0779834818
 31
0.0
  0
LINE
  5
480
  8
0
  6
CONTINUOUS
 62
     7
 10
182.4838464475
 20
515.227991445
 30
0.0
 11
182.8058158374
 21
515.227991445
 31
0.0
  0
LINE
  5
481
  8
0
  6
CONTINUOUS
 62
     7
 10
165.9790371871
 20
515.5279816221
 30
0.0
 11
165.9790371871
 21
516.0779834818
 31
0.0
  0
LINE
  5
482
  8
0
  6
CONTINUOUS
 62
     7
 10
165.9790371871
 20
516.0779834818
 30
0.0
 11
166.301006577
 21
516.0779834818
 31
0.0
  0
ARC
  5
483
  8
0
  6
CONTINUOUS
 62
     7
 10
166.2790361505
 20
515.5279876303
 30
0.0
 40
0.3000000000000114
 50
180.0
 51
270.0
  0
LINE
  5
484
  8
0
  6
CONTINUOUS
 62
     7
 10
166.2790348149
 20
515.227991445
 30
0.0
 11
166.6010042048
 21
515.227991445
 31
0.0
  0
LINE
  5
485
  8
0
  6
CONTINUOUS
 62
     7
 10
182.4618821359
 20
516.9279755186
 30
0.0
 11
182.7838515258
 21
516.9279755186
 31
0.0
  0
LINE
  5
486
  8
0
  6
CONTINUOUS
 62
     7
 10
182.7838515258
 20
516.9279755186
 30
0.0
 11
182.7838515258
 21
516.0779834818
 31
0.0
  0
LINE
  5
487
  8
0
  6
CONTINUOUS
 62
     7
 10
166.301006577
 20
516.9279755186
 30
0.0
 11
166.6229759669
 21
516.9279755186
 31
0.0
  0
LINE
  5
488
  8
0
  6
CONTINUOUS
 62
     7
 10
166.301006577
 20
516.0779834818
 30
0.0
 11
166.301006577
 21
516.9279755186
 31
0.0
  0
LINE
  5
489
  8
0
  6
CONTINUOUS
 62
     7
 10
182.139912746
 20
517.7779973577
 30
0.0
 11
182.4618821359
 21
517.7779973577
 31
0.0
  0
LINE
  5
48A
  8
0
  6
CONTINUOUS
 62
     7
 10
182.4618821359
 20
517.7779973577
 30
0.0
 11
182.4618821359
 21
516.9279755186
 31
0.0
  0
LINE
  5
48B
  8
0
  6
CONTINUOUS
 62
     7
 10
166.6229759669
 20
517.7779973577
 30
0.0
 11
166.9449453569
 21
517.7779973577
 31
0.0
  0
LINE
  5
48C
  8
0
  6
CONTINUOUS
 62
     7
 10
166.6229759669
 20
516.9279755186
 30
0.0
 11
166.6229759669
 21
517.7779973577
 31
0.0
  0
LINE
  5
48D
  8
0
  6
CONTINUOUS
 62
     7
 10
181.8179359055
 20
518.6279893946
 30
0.0
 11
182.139912746
 21
518.6279893946
 31
0.0
  0
LINE
  5
48E
  8
0
  6
CONTINUOUS
 62
     7
 10
182.139912746
 20
518.6279893946
 30
0.0
 11
182.139912746
 21
517.7779973577
 31
0.0
  0
LINE
  5
48F
  8
0
  6
CONTINUOUS
 62
     7
 10
166.9449453569
 20
518.6279893946
 30
0.0
 11
167.2669147468
 21
518.6279893946
 31
0.0
  0
LINE
  5
490
  8
0
  6
CONTINUOUS
 62
     7
 10
166.9449453569
 20
517.7779973577
 30
0.0
 11
166.9449453569
 21
518.6279893946
 31
0.0
  0
LINE
  5
491
  8
0
  6
CONTINUOUS
 62
     7
 10
181.5338452673
 20
519.3779946398
 30
0.0
 11
181.8179359055
 21
519.3779946398
 31
0.0
  0
LINE
  5
492
  8
0
  6
CONTINUOUS
 62
     7
 10
181.8179359055
 20
518.6279893946
 30
0.0
 11
181.8179359055
 21
519.3779946398
 31
0.0
  0
LINE
  5
493
  8
0
  6
CONTINUOUS
 62
     7
 10
167.2669147468
 20
519.3779946398
 30
0.0
 11
167.2669147468
 21
518.6279893946
 31
0.0
  0
LINE
  5
494
  8
0
  6
CONTINUOUS
 62
     7
 10
167.2669147468
 20
519.3779946398
 30
0.0
 11
167.5510053849
 21
519.3779946398
 31
0.0
  0
LINE
  5
495
  8
0
  6
CONTINUOUS
 62
     8
 10
196.7424248672
 20
494.1279769968
 30
0.0
 11
187.7424289799
 21
494.1279769968
 31
0.0
  0
LINE
  5
496
  8
0
  6
CONTINUOUS
 62
     8
 10
188.7424235559
 20
495.1279939245
 30
0.0
 11
195.7424302912
 21
495.1279939245
 31
0.0
  0
LINE
  5
497
  8
0
  6
CONTINUOUS
 62
     7
 10
267.5424272987
 20
624.403109666
 30
0.0
 11
265.5424272037
 21
624.403109666
 31
0.0
  0
LINE
  5
498
  8
0
  6
CONTINUOUS
 62
     7
 10
265.5424272037
 20
588.4031112157
 30
0.0
 11
267.5424272987
 21
588.4031112157
 31
0.0
  0
LINE
  5
499
  8
0
  6
CONTINUOUS
 62
     7
 10
289.5424274123
 20
611.4031103291
 30
0.0
 11
267.5424272987
 21
611.4031103291
 31
0.0
  0
LINE
  5
49A
  8
0
  6
CONTINUOUS
 62
     7
 10
267.5424272987
 20
601.4031105526
 30
0.0
 11
289.5424274123
 21
601.4031105526
 31
0.0
  0
ARC
  5
49B
  8
0
  6
CONTINUOUS
 62
     7
 10
316.8393605564
 20
606.4031104408
 30
0.0
 40
150.0
 50
190.8936827814
 51
191.5369590328
  0
ARC
  5
49C
  8
0
  6
CONTINUOUS
 62
     7
 10
316.8393605564
 20
606.4031104408
 30
0.0
 40
150.0
 50
168.4630409672
 51
169.1063172186
  0
LINE
  5
49D
  8
0
  6
CONTINUOUS
 62
     7
 10
169.5424263692
 20
634.7511875294
 30
0.0
 11
168.04243078
 21
632.1531104706
 31
0.0
  0
LINE
  5
49E
  8
0
  6
CONTINUOUS
 62
     7
 10
168.04243078
 20
580.653110411
 30
0.0
 11
169.5424263692
 21
578.0550333522
 31
0.0
  0
LINE
  5
49F
  8
0
  6
CONTINUOUS
 62
     7
 10
191.7424296355
 20
619.903110791
 30
0.0
 11
191.7424296355
 21
622.5031110309
 31
0.0
  0
LINE
  5
4A0
  8
0
  6
CONTINUOUS
 62
     7
 10
184.7424303508
 20
622.5031110309
 30
0.0
 11
184.7424303508
 21
619.903110791
 31
0.0
  0
LINE
  5
4A1
  8
0
  6
CONTINUOUS
 62
     7
 10
201.1424248433
 20
619.903110791
 30
0.0
 11
201.1424248433
 21
620.2031102814
 31
0.0
  0
LINE
  5
4A2
  8
0
  6
CONTINUOUS
 62
     7
 10
195.3424235201
 20
620.2031102814
 30
0.0
 11
195.3424235201
 21
619.903110791
 31
0.0
  0
ARC
  5
4A3
  8
0
  6
CONTINUOUS
 62
     7
 10
186.0424272037
 20
623.6031104408
 30
0.0
 40
1.300000000000011
 50
90.0
 51
180.0
  0
LINE
  5
4A4
  8
0
  6
CONTINUOUS
 62
     7
 10
191.7424296355
 20
622.5031110309
 30
0.0
 11
191.7424296355
 21
623.6031110249
 31
0.0
  0
LINE
  5
4A5
  8
0
  6
CONTINUOUS
 62
     7
 10
184.7424303508
 20
623.6031110249
 30
0.0
 11
184.7424303508
 21
622.5031110309
 31
0.0
  0
ARC
  5
4A6
  8
0
  6
CONTINUOUS
 62
     7
 10
190.4424272037
 20
623.6031104408
 30
0.0
 40
1.299999999999983
 50
0.0
 51
90.0
  0
LINE
  5
4A7
  8
0
  6
CONTINUOUS
 62
     7
 10
258.5424269876
 20
636.4031097703
 30
0.0
 11
265.5424272037
 21
636.4031097703
 31
0.0
  0
LINE
  5
4A8
  8
0
  6
CONTINUOUS
 62
     7
 10
265.5424272037
 20
636.4031097703
 30
0.0
 11
265.5424272037
 21
631.103111323
 31
0.0
  0
LINE
  5
4A9
  8
0
  6
CONTINUOUS
 62
     7
 10
265.5424272037
 20
631.103111323
 30
0.0
 11
258.5424269876
 21
631.103111323
 31
0.0
  0
LINE
  5
4AA
  8
0
  6
CONTINUOUS
 62
     7
 10
258.5424269876
 20
631.103111323
 30
0.0
 11
258.5424269876
 21
636.4031097703
 31
0.0
  0
LINE
  5
4AB
  8
0
  6
CONTINUOUS
 62
     7
 10
258.5424269876
 20
581.7031095587
 30
0.0
 11
265.5424272037
 21
581.7031095587
 31
0.0
  0
LINE
  5
4AC
  8
0
  6
CONTINUOUS
 62
     7
 10
258.5424269876
 20
592.4031100087
 30
0.0
 11
258.5424269876
 21
581.7031095587
 31
0.0
  0
LINE
  5
4AD
  8
0
  6
CONTINUOUS
 62
     7
 10
258.5424269876
 20
592.4031100087
 30
0.0
 11
255.0424273452
 21
592.4031100087
 31
0.0
  0
LINE
  5
4AE
  8
0
  6
CONTINUOUS
 62
     7
 10
258.5424269876
 20
620.4031108729
 30
0.0
 11
255.0424273452
 21
620.4031108729
 31
0.0
  0
LINE
  5
4AF
  8
0
  6
CONTINUOUS
 62
     7
 10
265.5424272037
 20
631.103111323
 30
0.0
 11
265.5424272037
 21
581.7031095587
 31
0.0
  0
LINE
  5
4B0
  8
0
  6
CONTINUOUS
 62
     7
 10
258.5424269876
 20
620.4031108729
 30
0.0
 11
258.5424269876
 21
631.103111323
 31
0.0
  0
LINE
  5
4B1
  8
0
  6
CONTINUOUS
 62
     7
 10
255.0424273452
 20
620.4031108729
 30
0.0
 11
255.0424273452
 21
592.4031100087
 31
0.0
  0
LINE
  5
4B2
  8
0
  6
CONTINUOUS
 62
     7
 10
258.5424269876
 20
626.603109654
 30
0.0
 11
255.0424273452
 21
626.603109654
 31
0.0
  0
LINE
  5
4B3
  8
0
  6
CONTINUOUS
 62
     7
 10
255.0424273452
 20
626.603109654
 30
0.0
 11
255.0424273452
 21
620.4031108729
 31
0.0
  0
LINE
  5
4B4
  8
0
  6
CONTINUOUS
 62
     7
 10
258.5424269876
 20
586.2031112276
 30
0.0
 11
255.0424273452
 21
586.2031112276
 31
0.0
  0
LINE
  5
4B5
  8
0
  6
CONTINUOUS
 62
     7
 10
255.0424273452
 20
586.2031112276
 30
0.0
 11
255.0424273452
 21
592.4031100087
 31
0.0
  0
LINE
  5
4B6
  8
0
  6
CONTINUOUS
 62
     7
 10
265.5424272037
 20
576.4031111114
 30
0.0
 11
258.5424269876
 21
576.4031111114
 31
0.0
  0
LINE
  5
4B7
  8
0
  6
CONTINUOUS
 62
     7
 10
258.5424269876
 20
576.4031111114
 30
0.0
 11
258.5424269876
 21
581.7031095587
 31
0.0
  0
LINE
  5
4B8
  8
0
  6
CONTINUOUS
 62
     7
 10
265.5424272037
 20
581.7031095587
 30
0.0
 11
265.5424272037
 21
576.4031111114
 31
0.0
  0
LINE
  5
4B9
  8
0
  6
CONTINUOUS
 62
     7
 10
258.5424269876
 20
631.4031108133
 30
0.0
 11
255.0424273452
 21
631.4031108133
 31
0.0
  0
LINE
  5
4BA
  8
0
  6
CONTINUOUS
 62
     7
 10
255.0424273452
 20
631.4031108133
 30
0.0
 11
255.0424273452
 21
626.603109654
 31
0.0
  0
LINE
  5
4BB
  8
0
  6
CONTINUOUS
 62
     7
 10
258.5424269876
 20
581.4031100683
 30
0.0
 11
255.0424273452
 21
581.4031100683
 31
0.0
  0
LINE
  5
4BC
  8
0
  6
CONTINUOUS
 62
     7
 10
255.0424273452
 20
581.4031100683
 30
0.0
 11
255.0424273452
 21
586.2031112276
 31
0.0
  0
LINE
  5
4BD
  8
0
  6
CONTINUOUS
 62
     7
 10
258.5424269876
 20
635.4211269729
 30
0.0
 11
255.0424273452
 21
635.4211269729
 31
0.0
  0
LINE
  5
4BE
  8
0
  6
CONTINUOUS
 62
     7
 10
258.5424269876
 20
636.4031097703
 30
0.0
 11
255.0424273452
 21
636.4031097703
 31
0.0
  0
LINE
  5
4BF
  8
0
  6
CONTINUOUS
 62
     7
 10
255.0424273452
 20
636.4031097703
 30
0.0
 11
255.0424273452
 21
635.4211269729
 31
0.0
  0
LINE
  5
4C0
  8
0
  6
CONTINUOUS
 62
     7
 10
255.0424273452
 20
635.4211269729
 30
0.0
 11
255.0424273452
 21
631.4031108133
 31
0.0
  0
LINE
  5
4C1
  8
0
  6
CONTINUOUS
 62
     7
 10
258.5424269876
 20
577.3850939087
 30
0.0
 11
255.0424273452
 21
577.3850939087
 31
0.0
  0
LINE
  5
4C2
  8
0
  6
CONTINUOUS
 62
     7
 10
255.0424273452
 20
577.3850939087
 30
0.0
 11
255.0424273452
 21
581.4031100683
 31
0.0
  0
LINE
  5
4C3
  8
0
  6
CONTINUOUS
 62
     7
 10
258.5424269876
 20
576.4031111114
 30
0.0
 11
255.0424273452
 21
576.4031111114
 31
0.0
  0
LINE
  5
4C4
  8
0
  6
CONTINUOUS
 62
     7
 10
255.0424273452
 20
576.4031111114
 30
0.0
 11
255.0424273452
 21
577.3850939087
 31
0.0
  0
LINE
  5
4C5
  8
0
  6
CONTINUOUS
 62
     7
 10
267.5424272987
 20
624.403109666
 30
0.0
 11
267.5424272987
 21
588.4031112157
 31
0.0
  0
LINE
  5
4C6
  8
0
  6
CONTINUOUS
 62
     7
 10
289.5424274123
 20
611.4031103291
 30
0.0
 11
289.5424274123
 21
601.4031105526
 31
0.0
  0
LINE
  5
4C7
  8
0
  6
CONTINUOUS
 62
     7
 10
255.0424273452
 20
620.4031108729
 30
0.0
 11
201.3424282289
 21
620.4031108729
 31
0.0
  0
LINE
  5
4C8
  8
0
  6
CONTINUOUS
 62
     7
 10
255.0424273452
 20
626.603109654
 30
0.0
 11
201.3424282289
 21
626.603109654
 31
0.0
  0
LINE
  5
4C9
  8
0
  6
CONTINUOUS
 62
     7
 10
201.3424282289
 20
620.4031108729
 30
0.0
 11
201.3424282289
 21
626.603109654
 31
0.0
  0
LINE
  5
4CA
  8
0
  6
CONTINUOUS
 62
     7
 10
255.0424273452
 20
592.4031100087
 30
0.0
 11
201.3424282289
 21
592.4031100087
 31
0.0
  0
LINE
  5
4CB
  8
0
  6
CONTINUOUS
 62
     7
 10
201.3424282289
 20
620.4031108729
 30
0.0
 11
201.3424282289
 21
619.903110791
 31
0.0
  0
LINE
  5
4CC
  8
0
  6
CONTINUOUS
 62
     7
 10
201.3424282289
 20
592.9031100906
 30
0.0
 11
201.3424282289
 21
592.4031100087
 31
0.0
  0
LINE
  5
4CD
  8
0
  6
CONTINUOUS
 62
     7
 10
255.0424273452
 20
586.2031112276
 30
0.0
 11
201.3424282289
 21
586.2031112276
 31
0.0
  0
LINE
  5
4CE
  8
0
  6
CONTINUOUS
 62
     7
 10
201.3424282289
 20
592.4031100087
 30
0.0
 11
201.3424282289
 21
586.2031112276
 31
0.0
  0
LINE
  5
4CF
  8
0
  6
CONTINUOUS
 62
     7
 10
255.0424273452
 20
631.4031108133
 30
0.0
 11
201.3424282289
 21
631.4031108133
 31
0.0
  0
LINE
  5
4D0
  8
0
  6
CONTINUOUS
 62
     7
 10
201.3424282289
 20
626.603109654
 30
0.0
 11
201.3424282289
 21
631.4031108133
 31
0.0
  0
LINE
  5
4D1
  8
0
  6
CONTINUOUS
 62
     7
 10
255.0424273452
 20
581.4031100683
 30
0.0
 11
201.3424282289
 21
581.4031100683
 31
0.0
  0
LINE
  5
4D2
  8
0
  6
CONTINUOUS
 62
     7
 10
201.3424282289
 20
586.2031112276
 30
0.0
 11
201.3424282289
 21
581.4031100683
 31
0.0
  0
LINE
  5
4D3
  8
0
  6
CONTINUOUS
 62
     7
 10
255.0424273452
 20
635.4211269729
 30
0.0
 11
201.3424282289
 21
635.4211269729
 31
0.0
  0
LINE
  5
4D4
  8
0
  6
CONTINUOUS
 62
     7
 10
201.3424282289
 20
636.4031097703
 30
0.0
 11
255.0424273452
 21
636.4031097703
 31
0.0
  0
LINE
  5
4D5
  8
0
  6
CONTINUOUS
 62
     7
 10
201.3424282289
 20
635.4211269729
 30
0.0
 11
201.3424282289
 21
636.4031097703
 31
0.0
  0
LINE
  5
4D6
  8
0
  6
CONTINUOUS
 62
     7
 10
201.3424282289
 20
631.4031108133
 30
0.0
 11
201.3424282289
 21
635.4211269729
 31
0.0
  0
LINE
  5
4D7
  8
0
  6
CONTINUOUS
 62
     7
 10
255.0424273452
 20
577.3850939087
 30
0.0
 11
201.3424282289
 21
577.3850939087
 31
0.0
  0
LINE
  5
4D8
  8
0
  6
CONTINUOUS
 62
     7
 10
201.3424282289
 20
581.4031100683
 30
0.0
 11
201.3424282289
 21
577.3850939087
 31
0.0
  0
LINE
  5
4D9
  8
0
  6
CONTINUOUS
 62
     7
 10
201.3424282289
 20
576.4031111114
 30
0.0
 11
255.0424273452
 21
576.4031111114
 31
0.0
  0
LINE
  5
4DA
  8
0
  6
CONTINUOUS
 62
     7
 10
201.3424282289
 20
577.3850939087
 30
0.0
 11
201.3424282289
 21
576.4031111114
 31
0.0
  0
LINE
  5
4DB
  8
0
  6
CONTINUOUS
 62
     7
 10
185.3424256063
 20
586.2031112276
 30
0.0
 11
201.3424282289
 21
592.4031100087
 31
0.0
  0
LINE
  5
4DC
  8
0
  6
CONTINUOUS
 62
     7
 10
181.8424259639
 20
586.2031112276
 30
0.0
 11
185.3424256063
 21
586.2031112276
 31
0.0
  0
LINE
  5
4DD
  8
0
  6
CONTINUOUS
 62
     7
 10
181.8424259639
 20
626.603109654
 30
0.0
 11
185.3424256063
 21
626.603109654
 31
0.0
  0
LINE
  5
4DE
  8
0
  6
CONTINUOUS
 62
     7
 10
185.3424256063
 20
626.603109654
 30
0.0
 11
189.7295211768
 21
624.9031106792
 31
0.0
  0
LINE
  5
4DF
  8
0
  6
CONTINUOUS
 62
     7
 10
191.6101967311
 20
624.1743489019
 30
0.0
 11
201.3424282289
 21
620.4031108729
 31
0.0
  0
LINE
  5
4E0
  8
0
  6
CONTINUOUS
 62
     7
 10
181.8424259639
 20
626.603109654
 30
0.0
 11
181.8424259639
 21
612.5031103231
 31
0.0
  0
LINE
  5
4E1
  8
0
  6
CONTINUOUS
 62
     7
 10
181.8424259639
 20
600.3031105585
 30
0.0
 11
181.8424259639
 21
586.2031112276
 31
0.0
  0
LINE
  5
4E2
  8
0
  6
CONTINUOUS
 62
     7
 10
185.3424256063
 20
626.603109654
 30
0.0
 11
201.3424282289
 21
626.603109654
 31
0.0
  0
LINE
  5
4E3
  8
0
  6
CONTINUOUS
 62
     7
 10
185.3424256063
 20
586.2031112276
 30
0.0
 11
201.3424282289
 21
586.2031112276
 31
0.0
  0
LINE
  5
4E4
  8
0
  6
CONTINUOUS
 62
     7
 10
181.8424259639
 20
631.4031108133
 30
0.0
 11
201.3424282289
 21
631.4031108133
 31
0.0
  0
LINE
  5
4E5
  8
0
  6
CONTINUOUS
 62
     7
 10
181.8424259639
 20
626.603109654
 30
0.0
 11
181.8424259639
 21
631.4031108133
 31
0.0
  0
LINE
  5
4E6
  8
0
  6
CONTINUOUS
 62
     7
 10
181.8424259639
 20
581.4031100683
 30
0.0
 11
201.3424282289
 21
581.4031100683
 31
0.0
  0
LINE
  5
4E7
  8
0
  6
CONTINUOUS
 62
     7
 10
181.8424259639
 20
586.2031112276
 30
0.0
 11
181.8424259639
 21
581.4031100683
 31
0.0
  0
LINE
  5
4E8
  8
0
  6
CONTINUOUS
 62
     7
 10
201.3424282289
 20
635.4211269729
 30
0.0
 11
185.3424256063
 21
636.4031097703
 31
0.0
  0
LINE
  5
4E9
  8
0
  6
CONTINUOUS
 62
     7
 10
185.3424256063
 20
636.4031097703
 30
0.0
 11
201.3424282289
 21
636.4031097703
 31
0.0
  0
LINE
  5
4EA
  8
0
  6
CONTINUOUS
 62
     7
 10
185.3424256063
 20
636.4031097703
 30
0.0
 11
181.8424259639
 21
636.4031097703
 31
0.0
  0
LINE
  5
4EB
  8
0
  6
CONTINUOUS
 62
     7
 10
181.8424259639
 20
631.4031108133
 30
0.0
 11
181.8424259639
 21
636.4031097703
 31
0.0
  0
LINE
  5
4EC
  8
0
  6
CONTINUOUS
 62
     7
 10
201.3424282289
 20
577.3850939087
 30
0.0
 11
185.3424256063
 21
576.4031111114
 31
0.0
  0
LINE
  5
4ED
  8
0
  6
CONTINUOUS
 62
     7
 10
185.3424256063
 20
576.4031111114
 30
0.0
 11
181.8424259639
 21
576.4031111114
 31
0.0
  0
LINE
  5
4EE
  8
0
  6
CONTINUOUS
 62
     7
 10
181.8424259639
 20
581.4031100683
 30
0.0
 11
181.8424259639
 21
576.4031111114
 31
0.0
  0
LINE
  5
4EF
  8
0
  6
CONTINUOUS
 62
     7
 10
185.3424256063
 20
576.4031111114
 30
0.0
 11
201.3424282289
 21
576.4031111114
 31
0.0
  0
LINE
  5
4F0
  8
0
  6
CONTINUOUS
 62
     7
 10
169.5424263692
 20
593.1531105973
 30
0.0
 11
169.5424263692
 21
578.0550333522
 31
0.0
  0
LINE
  5
4F1
  8
0
  6
CONTINUOUS
 62
     7
 10
169.5424263692
 20
634.7511875294
 30
0.0
 11
169.5424263692
 21
619.6531102844
 31
0.0
  0
ARC
  5
4F2
  8
0
  6
CONTINUOUS
 62
     7
 10
316.8393605564
 20
606.4031104408
 30
0.0
 40
146.9693845669907
 50
185.1725144534
 51
187.8999447632
  0
LINE
  5
4F3
  8
0
  6
CONTINUOUS
 62
     7
 10
170.3232844687
 20
586.2031112276
 30
0.0
 11
171.2647770858
 21
586.2031112276
 31
0.0
  0
POLYLINE
  5
4F4
  8
0
  6
CONTINUOUS
 62
     7
 66
     1
 10
0.0
 20
0.0
 30
0.0
 70
   128
  0
VERTEX
  5
70A
  8
0
  6
CONTINUOUS
 62
     7
 10
170.3232844687
 20
581.4031100683
 30
0.0
  0
VERTEX
  5
70B
  8
0
  6
CONTINUOUS
 62
     7
 10
170.1011379576
 20
582.9684174471
 30
0.0
  0
VERTEX
  5
70C
  8
0
  6
CONTINUOUS
 62
     7
 10
169.9925010419
 20
584.373043742
 30
0.0
  0
VERTEX
  5
70D
  8
0
  6
CONTINUOUS
 62
     7
 10
170.010352633
 20
585.435969647
 30
0.0
  0
VERTEX
  5
70E
  8
0
  6
CONTINUOUS
 62
     7
 10
170.1484044409
 20
586.0582272373
 30
0.0
  0
VERTEX
  5
70F
  8
0
  6
CONTINUOUS
 62
     7
 10
170.3232844687
 20
586.2031112276
 30
0.0
  0
SEQEND
  5
74D
  8
0
  6
CONTINUOUS
 62
     7
  0
ARC
  5
4F5
  8
0
  6
CONTINUOUS
 62
     7
 10
316.8393605564
 20
606.4031104408
 30
0.0
 40
148.6336435669933
 50
189.683109777
 51
191.6444934156
  0
LINE
  5
4F6
  8
0
  6
CONTINUOUS
 62
     7
 10
169.869976244
 20
576.4031111114
 30
0.0
 11
171.2647770858
 21
576.4031111114
 31
0.0
  0
LINE
  5
4F7
  8
0
  6
CONTINUOUS
 62
     7
 10
169.869976244
 20
636.4031097703
 30
0.0
 11
171.2647770858
 21
636.4031097703
 31
0.0
  0
ARC
  5
4F8
  8
0
  6
CONTINUOUS
 62
     7
 10
316.8393605564
 20
606.4031104408
 30
0.0
 40
148.6336435669933
 50
168.3555065844
 51
170.316890223
  0
POLYLINE
  5
4F9
  8
0
  6
CONTINUOUS
 62
     7
 66
     1
 10
0.0
 20
0.0
 30
0.0
 70
   128
  0
VERTEX
  5
710
  8
0
  6
CONTINUOUS
 62
     7
 10
170.3232844687
 20
626.603109654
 30
0.0
  0
VERTEX
  5
711
  8
0
  6
CONTINUOUS
 62
     7
 10
170.1011379576
 20
626.8655097894
 30
0.0
  0
VERTEX
  5
712
  8
0
  6
CONTINUOUS
 62
     7
 10
169.9925010419
 20
627.6322360001
 30
0.0
  0
VERTEX
  5
713
  8
0
  6
CONTINUOUS
 62
     7
 10
170.010352633
 20
628.8000269644
 30
0.0
  0
VERTEX
  5
714
  8
0
  6
CONTINUOUS
 62
     7
 10
170.1484044409
 20
630.2326879315
 30
0.0
  0
VERTEX
  5
715
  8
0
  6
CONTINUOUS
 62
     7
 10
170.3232844687
 20
631.4031108133
 30
0.0
  0
SEQEND
  5
74E
  8
0
  6
CONTINUOUS
 62
     7
  0
LINE
  5
4FA
  8
0
  6
CONTINUOUS
 62
     7
 10
171.2647770858
 20
626.603109654
 30
0.0
 11
170.3232844687
 21
626.603109654
 31
0.0
  0
ARC
  5
4FB
  8
0
  6
CONTINUOUS
 62
     7
 10
316.8393605564
 20
606.4031104408
 30
0.0
 40
146.9693845669907
 50
172.1000552368
 51
174.8274855466
  0
LINE
  5
4FC
  8
0
  6
CONTINUOUS
 62
     7
 10
170.4684739328
 20
593.1531105973
 30
0.0
 11
168.04243078
 21
593.1531105973
 31
0.0
  0
LINE
  5
4FD
  8
0
  6
CONTINUOUS
 62
     7
 10
168.04243078
 20
593.1531105973
 30
0.0
 11
168.04243078
 21
600.3031105585
 31
0.0
  0
LINE
  5
4FE
  8
0
  6
CONTINUOUS
 62
     7
 10
168.04243078
 20
612.5031103231
 30
0.0
 11
168.04243078
 21
619.6531102844
 31
0.0
  0
LINE
  5
4FF
  8
0
  6
CONTINUOUS
 62
     7
 10
170.4684739328
 20
619.6531102844
 30
0.0
 11
168.04243078
 21
619.6531102844
 31
0.0
  0
LINE
  5
500
  8
0
  6
CONTINUOUS
 62
     7
 10
171.2647770858
 20
626.603109654
 30
0.0
 11
181.8424259639
 21
626.603109654
 31
0.0
  0
LINE
  5
501
  8
0
  6
CONTINUOUS
 62
     7
 10
171.2647770858
 20
586.2031112276
 30
0.0
 11
181.8424259639
 21
586.2031112276
 31
0.0
  0
LINE
  5
502
  8
0
  6
CONTINUOUS
 62
     7
 10
170.3232844687
 20
631.4031108133
 30
0.0
 11
181.8424259639
 21
631.4031108133
 31
0.0
  0
LINE
  5
503
  8
0
  6
CONTINUOUS
 62
     7
 10
170.3232844687
 20
581.4031100683
 30
0.0
 11
181.8424259639
 21
581.4031100683
 31
0.0
  0
LINE
  5
504
  8
0
  6
CONTINUOUS
 62
     7
 10
168.04243078
 20
593.1531105973
 30
0.0
 11
168.04243078
 21
580.653110411
 31
0.0
  0
LINE
  5
505
  8
0
  6
CONTINUOUS
 62
     7
 10
168.04243078
 20
632.1531104706
 30
0.0
 11
168.04243078
 21
619.6531102844
 31
0.0
  0
LINE
  5
506
  8
0
  6
CONTINUOUS
 62
     7
 10
171.2647770858
 20
636.4031097703
 30
0.0
 11
181.8424259639
 21
636.4031097703
 31
0.0
  0
LINE
  5
507
  8
0
  6
CONTINUOUS
 62
     7
 10
171.2647770858
 20
576.4031111114
 30
0.0
 11
181.8424259639
 21
576.4031111114
 31
0.0
  0
LINE
  5
508
  8
0
  6
CONTINUOUS
 62
     7
 10
199.4424258685
 20
592.9031100906
 30
0.0
 11
183.242427311
 21
592.9031100906
 31
0.0
  0
LINE
  5
509
  8
0
  6
CONTINUOUS
 62
     7
 10
183.242427311
 20
619.903110791
 30
0.0
 11
199.4424258685
 21
619.903110791
 31
0.0
  0
LINE
  5
50A
  8
0
  6
CONTINUOUS
 62
     7
 10
199.4424258685
 20
619.903110791
 30
0.0
 11
199.4424258685
 21
612.2031103671
 31
0.0
  0
LINE
  5
50B
  8
0
  6
CONTINUOUS
 62
     7
 10
199.4424258685
 20
600.6031105146
 30
0.0
 11
199.4424258685
 21
592.9031100906
 31
0.0
  0
LINE
  5
50C
  8
0
  6
CONTINUOUS
 62
     7
 10
183.242427311
 20
592.9031100906
 30
0.0
 11
183.242427311
 21
600.3031105585
 31
0.0
  0
LINE
  5
50D
  8
0
  6
CONTINUOUS
 62
     7
 10
183.242427311
 20
612.5031103231
 30
0.0
 11
183.242427311
 21
619.903110791
 31
0.0
  0
LINE
  5
50E
  8
0
  6
CONTINUOUS
 62
     7
 10
207.7424285329
 20
619.903110791
 30
0.0
 11
199.4424258685
 21
619.903110791
 31
0.0
  0
ARC
  5
50F
  8
0
  6
CONTINUOUS
 62
     7
 10
207.7424270635
 20
615.9031123913
 30
0.0
 40
3.999998399676497
 50
359.9999676855
 51
89.9999789536
  0
LINE
  5
510
  8
0
  6
CONTINUOUS
 62
     7
 10
211.7424254632
 20
615.9031101353
 30
0.0
 11
211.7424254632
 21
596.9031107463
 31
0.0
  0
ARC
  5
511
  8
0
  6
CONTINUOUS
 62
     7
 10
207.7424308233
 20
596.9031047306
 30
0.0
 40
3.999994639966732
 50
269.9999671924
 51
0.0000861685
  0
LINE
  5
512
  8
0
  6
CONTINUOUS
 62
     7
 10
207.7424285329
 20
592.9031100906
 30
0.0
 11
199.4424258685
 21
592.9031100906
 31
0.0
  0
LINE
  5
513
  8
0
  6
CONTINUOUS
 62
     7
 10
184.7424303508
 20
622.5031110309
 30
0.0
 11
191.7424296355
 21
622.5031110309
 31
0.0
  0
LINE
  5
514
  8
0
  6
CONTINUOUS
 62
     7
 10
195.3424235201
 20
620.2031102814
 30
0.0
 11
201.1424248433
 21
620.2031102814
 31
0.0
  0
LINE
  5
515
  8
0
  6
CONTINUOUS
 62
     7
 10
186.0424300051
 20
624.9031106792
 30
0.0
 11
189.611205957
 21
624.9031106792
 31
0.0
  0
POLYLINE
  5
516
  8
0
  6
CONTINUOUS
 62
     7
 66
     1
 10
0.0
 20
0.0
 30
0.0
 70
   128
  0
VERTEX
  5
716
  8
0
  6
CONTINUOUS
 62
     7
 10
189.611205957
 20
624.9031106792
 30
0.0
  0
VERTEX
  5
717
  8
0
  6
CONTINUOUS
 62
     7
 10
189.9181177235
 20
624.8293443434
 30
0.0
  0
VERTEX
  5
718
  8
0
  6
CONTINUOUS
 62
     7
 10
190.1903917408
 20
624.6157380603
 30
0.0
  0
VERTEX
  5
719
  8
0
  6
CONTINUOUS
 62
     7
 10
190.3959756112
 20
624.2878566347
 30
0.0
  0
VERTEX
  5
71A
  8
0
  6
CONTINUOUS
 62
     7
 10
190.5125101423
 20
623.8835266642
 30
0.0
  0
VERTEX
  5
71B
  8
0
  6
CONTINUOUS
 62
     7
 10
190.534206233
 20
623.6031110249
 30
0.0
  0
SEQEND
  5
74F
  8
0
  6
CONTINUOUS
 62
     7
  0
LINE
  5
517
  8
0
  6
CONTINUOUS
 62
     7
 10
190.534206233
 20
623.6031110249
 30
0.0
 11
190.8877586341
 21
623.6031110249
 31
0.0
  0
LINE
  5
518
  8
0
  6
CONTINUOUS
 62
     7
 10
189.611205957
 20
624.9031106792
 30
0.0
 11
189.964758358
 21
624.9031106792
 31
0.0
  0
POLYLINE
  5
519
  8
0
  6
CONTINUOUS
 62
     7
 66
     1
 10
0.0
 20
0.0
 30
0.0
 70
   128
  0
VERTEX
  5
71C
  8
0
  6
CONTINUOUS
 62
     7
 10
190.8877586341
 20
623.6031110249
 30
0.0
  0
VERTEX
  5
71D
  8
0
  6
CONTINUOUS
 62
     7
 10
190.836029253
 20
624.0325047485
 30
0.0
  0
VERTEX
  5
71E
  8
0
  6
CONTINUOUS
 62
     7
 10
190.6867419696
 20
624.4134845994
 30
0.0
  0
VERTEX
  5
71F
  8
0
  6
CONTINUOUS
 62
     7
 10
190.4566158867
 20
624.7035282515
 30
0.0
  0
VERTEX
  5
720
  8
0
  6
CONTINUOUS
 62
     7
 10
190.1710127807
 20
624.8703504763
 30
0.0
  0
VERTEX
  5
721
  8
0
  6
CONTINUOUS
 62
     7
 10
189.964758358
 20
624.9031106792
 30
0.0
  0
SEQEND
  5
750
  8
0
  6
CONTINUOUS
 62
     7
  0
LINE
  5
51A
  8
0
  6
CONTINUOUS
 62
     7
 10
189.964758358
 20
624.9031106792
 30
0.0
 11
190.4424299812
 21
624.9031106792
 31
0.0
  0
LINE
  5
51B
  8
0
  6
CONTINUOUS
 62
     7
 10
195.2424292779
 20
606.7031104551
 30
0.0
 11
198.6424272275
 21
606.7031104551
 31
0.0
  0
LINE
  5
51C
  8
0
  6
CONTINUOUS
 62
     7
 10
195.2424292779
 20
610.1031104419
 30
0.0
 11
195.2424292779
 21
606.7031104551
 31
0.0
  0
LINE
  5
51D
  8
0
  6
CONTINUOUS
 62
     7
 10
198.6424272275
 20
610.1031104419
 30
0.0
 11
195.2424292779
 21
610.1031104419
 31
0.0
  0
LINE
  5
51E
  8
0
  6
CONTINUOUS
 62
     7
 10
198.6424272275
 20
606.7031104551
 30
0.0
 11
198.6424272275
 21
610.1031104419
 31
0.0
  0
LINE
  5
51F
  8
0
  6
CONTINUOUS
 62
     7
 10
196.0424279189
 20
608.9531105328
 30
0.0
 11
196.1424296117
 21
608.9531105328
 31
0.0
  0
LINE
  5
520
  8
0
  6
CONTINUOUS
 62
     7
 10
196.0424279189
 20
608.4531104509
 30
0.0
 11
196.0424279189
 21
608.9531105328
 31
0.0
  0
LINE
  5
521
  8
0
  6
CONTINUOUS
 62
     7
 10
196.1424296117
 20
608.4531104509
 30
0.0
 11
196.0424279189
 21
608.4531104509
 31
0.0
  0
LINE
  5
522
  8
0
  6
CONTINUOUS
 62
     7
 10
196.1424296117
 20
607.8031103909
 30
0.0
 11
196.1424296117
 21
608.4531104509
 31
0.0
  0
LINE
  5
523
  8
0
  6
CONTINUOUS
 62
     7
 10
196.4674239373
 20
607.8031103909
 30
0.0
 11
196.1424296117
 21
607.8031103909
 31
0.0
  0
LINE
  5
524
  8
0
  6
CONTINUOUS
 62
     7
 10
196.5674256301
 20
607.7031104443
 30
0.0
 11
196.4674239373
 21
607.8031103909
 31
0.0
  0
LINE
  5
525
  8
0
  6
CONTINUOUS
 62
     7
 10
197.3174308753
 20
607.7031104443
 30
0.0
 11
196.5674256301
 21
607.7031104443
 31
0.0
  0
LINE
  5
526
  8
0
  6
CONTINUOUS
 62
     7
 10
197.4174251175
 20
607.8031103909
 30
0.0
 11
197.3174308753
 21
607.7031104443
 31
0.0
  0
LINE
  5
527
  8
0
  6
CONTINUOUS
 62
     7
 10
197.7424268937
 20
607.8031103909
 30
0.0
 11
197.4174251175
 21
607.8031103909
 31
0.0
  0
LINE
  5
528
  8
0
  6
CONTINUOUS
 62
     7
 10
197.7424268937
 20
608.4531104509
 30
0.0
 11
197.7424268937
 21
607.8031103909
 31
0.0
  0
LINE
  5
529
  8
0
  6
CONTINUOUS
 62
     7
 10
197.8424285865
 20
608.4531104509
 30
0.0
 11
197.7424268937
 21
608.4531104509
 31
0.0
  0
LINE
  5
52A
  8
0
  6
CONTINUOUS
 62
     7
 10
197.8424285865
 20
608.9531105328
 30
0.0
 11
197.8424285865
 21
608.4531104509
 31
0.0
  0
LINE
  5
52B
  8
0
  6
CONTINUOUS
 62
     7
 10
197.7424268937
 20
608.9531105328
 30
0.0
 11
197.8424285865
 21
608.9531105328
 31
0.0
  0
LINE
  5
52C
  8
0
  6
CONTINUOUS
 62
     7
 10
197.7424268937
 20
609.453110382
 30
0.0
 11
197.7424268937
 21
608.9531105328
 31
0.0
  0
LINE
  5
52D
  8
0
  6
CONTINUOUS
 62
     7
 10
197.7424268937
 20
609.453110382
 30
0.0
 11
196.1424296117
 21
609.453110382
 31
0.0
  0
LINE
  5
52E
  8
0
  6
CONTINUOUS
 62
     7
 10
196.1424296117
 20
608.9531105328
 30
0.0
 11
196.1424296117
 21
609.453110382
 31
0.0
  0
LINE
  5
52F
  8
0
  6
CONTINUOUS
 62
     7
 10
191.0424252367
 20
606.7031104551
 30
0.0
 11
194.4424306369
 21
606.7031104551
 31
0.0
  0
LINE
  5
530
  8
0
  6
CONTINUOUS
 62
     7
 10
191.0424252367
 20
610.1031104419
 30
0.0
 11
191.0424252367
 21
606.7031104551
 31
0.0
  0
LINE
  5
531
  8
0
  6
CONTINUOUS
 62
     7
 10
194.4424306369
 20
610.1031104419
 30
0.0
 11
191.0424252367
 21
610.1031104419
 31
0.0
  0
LINE
  5
532
  8
0
  6
CONTINUOUS
 62
     7
 10
194.4424306369
 20
606.7031104551
 30
0.0
 11
194.4424306369
 21
610.1031104419
 31
0.0
  0
LINE
  5
533
  8
0
  6
CONTINUOUS
 62
     7
 10
191.8424238777
 20
608.9531105328
 30
0.0
 11
191.9424255705
 21
608.9531105328
 31
0.0
  0
LINE
  5
534
  8
0
  6
CONTINUOUS
 62
     7
 10
191.8424238777
 20
608.4531104509
 30
0.0
 11
191.8424238777
 21
608.9531105328
 31
0.0
  0
LINE
  5
535
  8
0
  6
CONTINUOUS
 62
     7
 10
191.9424255705
 20
608.4531104509
 30
0.0
 11
191.8424238777
 21
608.4531104509
 31
0.0
  0
LINE
  5
536
  8
0
  6
CONTINUOUS
 62
     7
 10
191.9424255705
 20
607.8031103909
 30
0.0
 11
191.9424255705
 21
608.4531104509
 31
0.0
  0
LINE
  5
537
  8
0
  6
CONTINUOUS
 62
     7
 10
192.2674273467
 20
607.8031103909
 30
0.0
 11
191.9424255705
 21
607.8031103909
 31
0.0
  0
LINE
  5
538
  8
0
  6
CONTINUOUS
 62
     7
 10
192.3674290395
 20
607.7031104443
 30
0.0
 11
192.2674273467
 21
607.8031103909
 31
0.0
  0
LINE
  5
539
  8
0
  6
CONTINUOUS
 62
     7
 10
193.1174268341
 20
607.7031104443
 30
0.0
 11
192.3674290395
 21
607.7031104443
 31
0.0
  0
LINE
  5
53A
  8
0
  6
CONTINUOUS
 62
     7
 10
193.2174285269
 20
607.8031103909
 30
0.0
 11
193.1174268341
 21
607.7031104443
 31
0.0
  0
LINE
  5
53B
  8
0
  6
CONTINUOUS
 62
     7
 10
193.5424303031
 20
607.8031103909
 30
0.0
 11
193.2174285269
 21
607.8031103909
 31
0.0
  0
LINE
  5
53C
  8
0
  6
CONTINUOUS
 62
     7
 10
193.5424303031
 20
608.4531104509
 30
0.0
 11
193.5424303031
 21
607.8031103909
 31
0.0
  0
LINE
  5
53D
  8
0
  6
CONTINUOUS
 62
     7
 10
193.6424245453
 20
608.4531104509
 30
0.0
 11
193.5424303031
 21
608.4531104509
 31
0.0
  0
LINE
  5
53E
  8
0
  6
CONTINUOUS
 62
     7
 10
193.6424245453
 20
608.9531105328
 30
0.0
 11
193.6424245453
 21
608.4531104509
 31
0.0
  0
LINE
  5
53F
  8
0
  6
CONTINUOUS
 62
     7
 10
193.5424303031
 20
608.9531105328
 30
0.0
 11
193.6424245453
 21
608.9531105328
 31
0.0
  0
LINE
  5
540
  8
0
  6
CONTINUOUS
 62
     7
 10
193.5424303031
 20
609.453110382
 30
0.0
 11
191.9424255705
 21
609.453110382
 31
0.0
  0
LINE
  5
541
  8
0
  6
CONTINUOUS
 62
     7
 10
191.9424255705
 20
608.9531105328
 30
0.0
 11
191.9424255705
 21
609.453110382
 31
0.0
  0
LINE
  5
542
  8
0
  6
CONTINUOUS
 62
     7
 10
193.5424303031
 20
609.453110382
 30
0.0
 11
193.5424303031
 21
608.9531105328
 31
0.0
  0
LINE
  5
543
  8
0
  6
CONTINUOUS
 62
     7
 10
187.5924264407
 20
606.7031104551
 30
0.0
 11
186.8424286461
 21
607.4531104034
 31
0.0
  0
LINE
  5
544
  8
0
  6
CONTINUOUS
 62
     7
 10
186.8424286461
 20
610.1031104419
 30
0.0
 11
186.8424286461
 21
607.4531104034
 31
0.0
  0
LINE
  5
545
  8
0
  6
CONTINUOUS
 62
     7
 10
190.2424265957
 20
607.4531104034
 30
0.0
 11
190.2424265957
 21
610.1031104419
 31
0.0
  0
LINE
  5
546
  8
0
  6
CONTINUOUS
 62
     7
 10
190.2424265957
 20
607.4531104034
 30
0.0
 11
189.4924288011
 21
606.7031104551
 31
0.0
  0
LINE
  5
547
  8
0
  6
CONTINUOUS
 62
     7
 10
187.5924264407
 20
606.7031104551
 30
0.0
 11
189.4924288011
 21
606.7031104551
 31
0.0
  0
LINE
  5
548
  8
0
  6
CONTINUOUS
 62
     7
 10
187.6424272871
 20
608.9531105328
 30
0.0
 11
187.7424289799
 21
608.9531105328
 31
0.0
  0
LINE
  5
549
  8
0
  6
CONTINUOUS
 62
     7
 10
187.6424272871
 20
608.4531104509
 30
0.0
 11
187.6424272871
 21
608.9531105328
 31
0.0
  0
LINE
  5
54A
  8
0
  6
CONTINUOUS
 62
     7
 10
187.7424289799
 20
608.4531104509
 30
0.0
 11
187.6424272871
 21
608.4531104509
 31
0.0
  0
LINE
  5
54B
  8
0
  6
CONTINUOUS
 62
     7
 10
187.7424289799
 20
607.8031103909
 30
0.0
 11
187.7424289799
 21
608.4531104509
 31
0.0
  0
LINE
  5
54C
  8
0
  6
CONTINUOUS
 62
     7
 10
188.0674307561
 20
607.8031103909
 30
0.0
 11
187.7424289799
 21
607.8031103909
 31
0.0
  0
LINE
  5
54D
  8
0
  6
CONTINUOUS
 62
     7
 10
188.1674249983
 20
607.7031104443
 30
0.0
 11
188.0674307561
 21
607.8031103909
 31
0.0
  0
LINE
  5
54E
  8
0
  6
CONTINUOUS
 62
     7
 10
188.9174302435
 20
607.7031104443
 30
0.0
 11
188.1674249983
 21
607.7031104443
 31
0.0
  0
LINE
  5
54F
  8
0
  6
CONTINUOUS
 62
     7
 10
189.0174244857
 20
607.8031103909
 30
0.0
 11
188.9174302435
 21
607.7031104443
 31
0.0
  0
LINE
  5
550
  8
0
  6
CONTINUOUS
 62
     7
 10
189.3424262619
 20
607.8031103909
 30
0.0
 11
189.0174244857
 21
607.8031103909
 31
0.0
  0
LINE
  5
551
  8
0
  6
CONTINUOUS
 62
     7
 10
189.3424262619
 20
608.4531104509
 30
0.0
 11
189.3424262619
 21
607.8031103909
 31
0.0
  0
LINE
  5
552
  8
0
  6
CONTINUOUS
 62
     7
 10
189.4424279547
 20
608.4531104509
 30
0.0
 11
189.3424262619
 21
608.4531104509
 31
0.0
  0
LINE
  5
553
  8
0
  6
CONTINUOUS
 62
     7
 10
189.4424279547
 20
608.9531105328
 30
0.0
 11
189.4424279547
 21
608.4531104509
 31
0.0
  0
LINE
  5
554
  8
0
  6
CONTINUOUS
 62
     7
 10
189.3424262619
 20
608.9531105328
 30
0.0
 11
189.4424279547
 21
608.9531105328
 31
0.0
  0
LINE
  5
555
  8
0
  6
CONTINUOUS
 62
     7
 10
189.3424262619
 20
609.453110382
 30
0.0
 11
189.3424262619
 21
608.9531105328
 31
0.0
  0
LINE
  5
556
  8
0
  6
CONTINUOUS
 62
     7
 10
187.7424289799
 20
608.9531105328
 30
0.0
 11
187.7424289799
 21
609.453110382
 31
0.0
  0
LINE
  5
557
  8
0
  6
CONTINUOUS
 62
     7
 10
190.2424265957
 20
610.1031104419
 30
0.0
 11
186.8424286461
 21
610.1031104419
 31
0.0
  0
LINE
  5
558
  8
0
  6
CONTINUOUS
 62
     7
 10
189.3424262619
 20
609.453110382
 30
0.0
 11
187.7424289799
 21
609.453110382
 31
0.0
  0
LINE
  5
559
  8
0
  6
CONTINUOUS
 62
     7
 10
198.6424272275
 20
603.2531104367
 30
0.0
 11
198.6424272275
 21
605.9031104171
 31
0.0
  0
LINE
  5
55A
  8
0
  6
CONTINUOUS
 62
     7
 10
197.8924294329
 20
602.5031105466
 30
0.0
 11
198.6424272275
 21
603.2531104367
 31
0.0
  0
LINE
  5
55B
  8
0
  6
CONTINUOUS
 62
     7
 10
195.9924270725
 20
602.5031105466
 30
0.0
 11
197.8924294329
 21
602.5031105466
 31
0.0
  0
LINE
  5
55C
  8
0
  6
CONTINUOUS
 62
     7
 10
195.9924270725
 20
602.5031105466
 30
0.0
 11
195.2424292779
 21
603.2531104367
 31
0.0
  0
LINE
  5
55D
  8
0
  6
CONTINUOUS
 62
     7
 10
195.2424292779
 20
605.9031104171
 30
0.0
 11
195.2424292779
 21
603.2531104367
 31
0.0
  0
LINE
  5
55E
  8
0
  6
CONTINUOUS
 62
     7
 10
198.6424272275
 20
605.9031104171
 30
0.0
 11
195.2424292779
 21
605.9031104171
 31
0.0
  0
LINE
  5
55F
  8
0
  6
CONTINUOUS
 62
     7
 10
196.0424279189
 20
604.2531103678
 30
0.0
 11
196.0424279189
 21
604.7531104498
 31
0.0
  0
LINE
  5
560
  8
0
  6
CONTINUOUS
 62
     7
 10
196.1424296117
 20
604.2531103678
 30
0.0
 11
196.0424279189
 21
604.2531103678
 31
0.0
  0
LINE
  5
561
  8
0
  6
CONTINUOUS
 62
     7
 10
196.1424296117
 20
603.6031105406
 30
0.0
 11
196.1424296117
 21
604.2531103678
 31
0.0
  0
LINE
  5
562
  8
0
  6
CONTINUOUS
 62
     7
 10
196.4674239373
 20
603.6031105406
 30
0.0
 11
196.1424296117
 21
603.6031105406
 31
0.0
  0
LINE
  5
563
  8
0
  6
CONTINUOUS
 62
     7
 10
197.3174308753
 20
603.5031104777
 30
0.0
 11
196.5674256301
 21
603.5031104777
 31
0.0
  0
LINE
  5
564
  8
0
  6
CONTINUOUS
 62
     7
 10
197.4174251175
 20
603.6031105406
 30
0.0
 11
197.3174308753
 21
603.5031104777
 31
0.0
  0
LINE
  5
565
  8
0
  6
CONTINUOUS
 62
     7
 10
197.7424268937
 20
603.6031105406
 30
0.0
 11
197.4174251175
 21
603.6031105406
 31
0.0
  0
LINE
  5
566
  8
0
  6
CONTINUOUS
 62
     7
 10
197.7424268937
 20
604.2531103678
 30
0.0
 11
197.7424268937
 21
603.6031105406
 31
0.0
  0
LINE
  5
567
  8
0
  6
CONTINUOUS
 62
     7
 10
197.8424285865
 20
604.2531103678
 30
0.0
 11
197.7424268937
 21
604.2531103678
 31
0.0
  0
LINE
  5
568
  8
0
  6
CONTINUOUS
 62
     7
 10
197.7424268937
 20
605.2531104153
 30
0.0
 11
197.7424268937
 21
604.7531104498
 31
0.0
  0
LINE
  5
569
  8
0
  6
CONTINUOUS
 62
     7
 10
197.7424268937
 20
605.2531104153
 30
0.0
 11
196.1424296117
 21
605.2531104153
 31
0.0
  0
LINE
  5
56A
  8
0
  6
CONTINUOUS
 62
     7
 10
196.1424296117
 20
604.7531104498
 30
0.0
 11
196.1424296117
 21
605.2531104153
 31
0.0
  0
LINE
  5
56B
  8
0
  6
CONTINUOUS
 62
     7
 10
197.7424268937
 20
604.7531104498
 30
0.0
 11
197.8424285865
 21
604.7531104498
 31
0.0
  0
LINE
  5
56C
  8
0
  6
CONTINUOUS
 62
     7
 10
197.8424285865
 20
604.7531104498
 30
0.0
 11
197.8424285865
 21
604.2531103678
 31
0.0
  0
LINE
  5
56D
  8
0
  6
CONTINUOUS
 62
     7
 10
196.0424279189
 20
604.7531104498
 30
0.0
 11
196.1424296117
 21
604.7531104498
 31
0.0
  0
LINE
  5
56E
  8
0
  6
CONTINUOUS
 62
     7
 10
196.5674256301
 20
603.5031104777
 30
0.0
 11
196.4674239373
 21
603.6031105406
 31
0.0
  0
LINE
  5
56F
  8
0
  6
CONTINUOUS
 62
     7
 10
186.8424286461
 20
602.5031105466
 30
0.0
 11
190.2424265957
 21
602.5031105466
 31
0.0
  0
LINE
  5
570
  8
0
  6
CONTINUOUS
 62
     7
 10
186.8424286461
 20
605.9031104171
 30
0.0
 11
186.8424286461
 21
602.5031105466
 31
0.0
  0
LINE
  5
571
  8
0
  6
CONTINUOUS
 62
     7
 10
187.7424289799
 20
604.2531103678
 30
0.0
 11
187.6424272871
 21
604.2531103678
 31
0.0
  0
LINE
  5
572
  8
0
  6
CONTINUOUS
 62
     7
 10
187.7424289799
 20
603.6031105406
 30
0.0
 11
187.7424289799
 21
604.2531103678
 31
0.0
  0
LINE
  5
573
  8
0
  6
CONTINUOUS
 62
     7
 10
188.0674307561
 20
603.6031105406
 30
0.0
 11
187.7424289799
 21
603.6031105406
 31
0.0
  0
LINE
  5
574
  8
0
  6
CONTINUOUS
 62
     7
 10
188.9174302435
 20
603.5031104777
 30
0.0
 11
188.1674249983
 21
603.5031104777
 31
0.0
  0
LINE
  5
575
  8
0
  6
CONTINUOUS
 62
     7
 10
189.0174244857
 20
603.6031105406
 30
0.0
 11
188.9174302435
 21
603.5031104777
 31
0.0
  0
LINE
  5
576
  8
0
  6
CONTINUOUS
 62
     7
 10
189.3424262619
 20
603.6031105406
 30
0.0
 11
189.0174244857
 21
603.6031105406
 31
0.0
  0
LINE
  5
577
  8
0
  6
CONTINUOUS
 62
     7
 10
189.3424262619
 20
604.2531103678
 30
0.0
 11
189.3424262619
 21
603.6031105406
 31
0.0
  0
LINE
  5
578
  8
0
  6
CONTINUOUS
 62
     7
 10
189.4424279547
 20
604.7531104498
 30
0.0
 11
189.4424279547
 21
604.2531103678
 31
0.0
  0
LINE
  5
579
  8
0
  6
CONTINUOUS
 62
     7
 10
189.3424262619
 20
604.7531104498
 30
0.0
 11
189.4424279547
 21
604.7531104498
 31
0.0
  0
LINE
  5
57A
  8
0
  6
CONTINUOUS
 62
     7
 10
188.1674249983
 20
603.5031104777
 30
0.0
 11
188.0674307561
 21
603.6031105406
 31
0.0
  0
LINE
  5
57B
  8
0
  6
CONTINUOUS
 62
     7
 10
187.6424272871
 20
604.7531104498
 30
0.0
 11
187.7424289799
 21
604.7531104498
 31
0.0
  0
LINE
  5
57C
  8
0
  6
CONTINUOUS
 62
     7
 10
190.2424265957
 20
602.5031105466
 30
0.0
 11
190.2424265957
 21
605.9031104171
 31
0.0
  0
LINE
  5
57D
  8
0
  6
CONTINUOUS
 62
     7
 10
189.4424279547
 20
604.2531103678
 30
0.0
 11
189.3424262619
 21
604.2531103678
 31
0.0
  0
LINE
  5
57E
  8
0
  6
CONTINUOUS
 62
     7
 10
189.3424262619
 20
605.2531104153
 30
0.0
 11
189.3424262619
 21
604.7531104498
 31
0.0
  0
LINE
  5
57F
  8
0
  6
CONTINUOUS
 62
     7
 10
190.2424265957
 20
605.9031104171
 30
0.0
 11
186.8424286461
 21
605.9031104171
 31
0.0
  0
LINE
  5
580
  8
0
  6
CONTINUOUS
 62
     7
 10
187.6424272871
 20
604.2531103678
 30
0.0
 11
187.6424272871
 21
604.7531104498
 31
0.0
  0
LINE
  5
581
  8
0
  6
CONTINUOUS
 62
     7
 10
189.3424262619
 20
605.2531104153
 30
0.0
 11
187.7424289799
 21
605.2531104153
 31
0.0
  0
LINE
  5
582
  8
0
  6
CONTINUOUS
 62
     7
 10
187.7424289799
 20
604.7531104498
 30
0.0
 11
187.7424289799
 21
605.2531104153
 31
0.0
  0
LINE
  5
583
  8
0
  6
CONTINUOUS
 62
     7
 10
193.6924253917
 20
602.5031105466
 30
0.0
 11
194.4424306369
 21
603.2531104367
 31
0.0
  0
LINE
  5
584
  8
0
  6
CONTINUOUS
 62
     7
 10
191.7924304819
 20
602.5031105466
 30
0.0
 11
193.6924253917
 21
602.5031105466
 31
0.0
  0
LINE
  5
585
  8
0
  6
CONTINUOUS
 62
     7
 10
191.7924304819
 20
602.5031105466
 30
0.0
 11
191.0424252367
 21
603.2531104367
 31
0.0
  0
LINE
  5
586
  8
0
  6
CONTINUOUS
 62
     7
 10
192.2674273467
 20
603.6031105406
 30
0.0
 11
191.9424255705
 21
603.6031105406
 31
0.0
  0
LINE
  5
587
  8
0
  6
CONTINUOUS
 62
     7
 10
193.1174268341
 20
603.5031104777
 30
0.0
 11
192.3674290395
 21
603.5031104777
 31
0.0
  0
LINE
  5
588
  8
0
  6
CONTINUOUS
 62
     7
 10
193.5424303031
 20
603.6031105406
 30
0.0
 11
193.2174285269
 21
603.6031105406
 31
0.0
  0
LINE
  5
589
  8
0
  6
CONTINUOUS
 62
     7
 10
191.9424255705
 20
603.6031105406
 30
0.0
 11
191.9424255705
 21
604.2531103678
 31
0.0
  0
LINE
  5
58A
  8
0
  6
CONTINUOUS
 62
     7
 10
193.6424245453
 20
604.2531103678
 30
0.0
 11
193.5424303031
 21
604.2531103678
 31
0.0
  0
LINE
  5
58B
  8
0
  6
CONTINUOUS
 62
     7
 10
193.2174285269
 20
603.6031105406
 30
0.0
 11
193.1174268341
 21
603.5031104777
 31
0.0
  0
LINE
  5
58C
  8
0
  6
CONTINUOUS
 62
     7
 10
194.4424306369
 20
603.2531104367
 30
0.0
 11
194.4424306369
 21
605.9031104171
 31
0.0
  0
LINE
  5
58D
  8
0
  6
CONTINUOUS
 62
     7
 10
193.6424245453
 20
604.7531104498
 30
0.0
 11
193.6424245453
 21
604.2531103678
 31
0.0
  0
LINE
  5
58E
  8
0
  6
CONTINUOUS
 62
     7
 10
192.3674290395
 20
603.5031104777
 30
0.0
 11
192.2674273467
 21
603.6031105406
 31
0.0
  0
LINE
  5
58F
  8
0
  6
CONTINUOUS
 62
     7
 10
191.8424238777
 20
604.7531104498
 30
0.0
 11
191.9424255705
 21
604.7531104498
 31
0.0
  0
LINE
  5
590
  8
0
  6
CONTINUOUS
 62
     7
 10
193.5424303031
 20
604.7531104498
 30
0.0
 11
193.6424245453
 21
604.7531104498
 31
0.0
  0
LINE
  5
591
  8
0
  6
CONTINUOUS
 62
     7
 10
191.9424255705
 20
604.2531103678
 30
0.0
 11
191.8424238777
 21
604.2531103678
 31
0.0
  0
LINE
  5
592
  8
0
  6
CONTINUOUS
 62
     7
 10
193.5424303031
 20
604.2531103678
 30
0.0
 11
193.5424303031
 21
603.6031105406
 31
0.0
  0
LINE
  5
593
  8
0
  6
CONTINUOUS
 62
     7
 10
194.4424306369
 20
605.9031104171
 30
0.0
 11
191.0424252367
 21
605.9031104171
 31
0.0
  0
LINE
  5
594
  8
0
  6
CONTINUOUS
 62
     7
 10
191.0424252367
 20
605.9031104171
 30
0.0
 11
191.0424252367
 21
603.2531104367
 31
0.0
  0
LINE
  5
595
  8
0
  6
CONTINUOUS
 62
     7
 10
191.8424238777
 20
604.2531103678
 30
0.0
 11
191.8424238777
 21
604.7531104498
 31
0.0
  0
LINE
  5
596
  8
0
  6
CONTINUOUS
 62
     7
 10
193.5424303031
 20
605.2531104153
 30
0.0
 11
191.9424255705
 21
605.2531104153
 31
0.0
  0
LINE
  5
597
  8
0
  6
CONTINUOUS
 62
     7
 10
191.9424255705
 20
604.7531104498
 30
0.0
 11
191.9424255705
 21
605.2531104153
 31
0.0
  0
LINE
  5
598
  8
0
  6
CONTINUOUS
 62
     7
 10
193.5424303031
 20
605.2531104153
 30
0.0
 11
193.5424303031
 21
604.7531104498
 31
0.0
  0
LINE
  5
599
  8
0
  6
CONTINUOUS
 62
     7
 10
194.2424272514
 20
614.003110569
 30
0.0
 11
191.2424286223
 21
614.003110569
 31
0.0
  0
LINE
  5
59A
  8
0
  6
CONTINUOUS
 62
     7
 10
191.2424286223
 20
614.003110569
 30
0.0
 11
191.2424286223
 21
614.7031103112
 31
0.0
  0
LINE
  5
59B
  8
0
  6
CONTINUOUS
 62
     7
 10
194.2424272514
 20
614.7031103112
 30
0.0
 11
191.2424286223
 21
614.7031103112
 31
0.0
  0
LINE
  5
59C
  8
0
  6
CONTINUOUS
 62
     7
 10
194.2424272514
 20
614.7031103112
 30
0.0
 11
194.2424272514
 21
614.003110569
 31
0.0
  0
LINE
  5
59D
  8
0
  6
CONTINUOUS
 62
     7
 10
194.2424272514
 20
611.2031106688
 30
0.0
 11
191.2424286223
 21
611.2031106688
 31
0.0
  0
LINE
  5
59E
  8
0
  6
CONTINUOUS
 62
     7
 10
191.2424286223
 20
612.703110449
 30
0.0
 11
194.2424272514
 21
612.703110449
 31
0.0
  0
LINE
  5
59F
  8
0
  6
CONTINUOUS
 62
     7
 10
191.2424286223
 20
612.703110449
 30
0.0
 11
191.2424286223
 21
611.2031106688
 31
0.0
  0
LINE
  5
5A0
  8
0
  6
CONTINUOUS
 62
     7
 10
194.2424272514
 20
611.2031106688
 30
0.0
 11
194.2424272514
 21
612.703110449
 31
0.0
  0
LINE
  5
5A1
  8
0
  6
CONTINUOUS
 62
     7
 10
191.2424286223
 20
612.703110449
 30
0.0
 11
191.2424286223
 21
614.003110569
 31
0.0
  0
LINE
  5
5A2
  8
0
  6
CONTINUOUS
 62
     7
 10
194.2424272514
 20
614.003110569
 30
0.0
 11
194.2424272514
 21
612.703110449
 31
0.0
  0
LINE
  5
5A3
  8
0
  6
CONTINUOUS
 62
     7
 10
193.4924294567
 20
609.453110382
 30
0.0
 11
193.4924294567
 21
608.9531105328
 31
0.0
  0
LINE
  5
5A4
  8
0
  6
CONTINUOUS
 62
     7
 10
193.4924294567
 20
608.9531105328
 30
0.0
 11
193.5424303031
 21
608.9531105328
 31
0.0
  0
LINE
  5
5A5
  8
0
  6
CONTINUOUS
 62
     7
 10
189.2924254155
 20
609.453110382
 30
0.0
 11
189.2924254155
 21
608.9531105328
 31
0.0
  0
LINE
  5
5A6
  8
0
  6
CONTINUOUS
 62
     7
 10
189.2924254155
 20
608.9531105328
 30
0.0
 11
189.3424262619
 21
608.9531105328
 31
0.0
  0
ARC
  5
5A7
  8
0
  6
CONTINUOUS
 62
     7
 10
196.9424272037
 20
601.6031104408
 30
0.0
 40
0.2500000000000284
 50
180.0
 51
0.0
  0
LINE
  5
5A8
  8
0
  6
CONTINUOUS
 62
     7
 10
196.642430625
 20
601.6031102128
 30
0.0
 11
196.6924240208
 21
601.6031102128
 31
0.0
  0
ARC
  5
5A9
  8
0
  6
CONTINUOUS
 62
     7
 10
196.3924272037
 20
601.6031104408
 30
0.0
 40
0.2500000000000284
 50
180.0
 51
0.0
  0
LINE
  5
5AA
  8
0
  6
CONTINUOUS
 62
     7
 10
196.1424296117
 20
601.6031102128
 30
0.0
 11
193.2674293733
 21
601.6031102128
 31
0.0
  0
ARC
  5
5AB
  8
0
  6
CONTINUOUS
 62
     7
 10
193.0174272037
 20
601.6031104408
 30
0.0
 40
0.25
 50
180.0
 51
0.0
  0
LINE
  5
5AC
  8
0
  6
CONTINUOUS
 62
     7
 10
192.7174275136
 20
601.6031102128
 30
0.0
 11
192.76742836
 21
601.6031102128
 31
0.0
  0
ARC
  5
5AD
  8
0
  6
CONTINUOUS
 62
     7
 10
192.4674272037
 20
601.6031104408
 30
0.0
 40
0.25
 50
180.0
 51
0.0
  0
LINE
  5
5AE
  8
0
  6
CONTINUOUS
 62
     7
 10
192.2174265003
 20
601.6031102128
 30
0.0
 11
188.7924244023
 21
601.6031102128
 31
0.0
  0
ARC
  5
5AF
  8
0
  6
CONTINUOUS
 62
     7
 10
188.5424272037
 20
601.6031104408
 30
0.0
 40
0.2500000000000284
 50
180.0
 51
0.0
  0
LINE
  5
5B0
  8
0
  6
CONTINUOUS
 62
     7
 10
185.8424266195
 20
601.6031102128
 30
0.0
 11
188.2924308396
 21
601.6031102128
 31
0.0
  0
LINE
  5
5B1
  8
0
  6
CONTINUOUS
 62
     7
 10
185.8424266195
 20
611.2031106688
 30
0.0
 11
185.8424266195
 21
601.6031102128
 31
0.0
  0
LINE
  5
5B2
  8
0
  6
CONTINUOUS
 62
     7
 10
185.8424266195
 20
611.2031106688
 30
0.0
 11
191.2424286223
 21
611.2031106688
 31
0.0
  0
LINE
  5
5B3
  8
0
  6
CONTINUOUS
 62
     7
 10
194.2424272514
 20
611.2031106688
 30
0.0
 11
199.6424292541
 21
611.2031106688
 31
0.0
  0
LINE
  5
5B4
  8
0
  6
CONTINUOUS
 62
     7
 10
199.6424292541
 20
601.6031102128
 30
0.0
 11
197.7424268937
 21
601.6031102128
 31
0.0
  0
ARC
  5
5B5
  8
0
  6
CONTINUOUS
 62
     7
 10
197.4924272037
 20
601.6031104408
 30
0.0
 40
0.25
 50
180.0
 51
0.0
  0
LINE
  5
5B6
  8
0
  6
CONTINUOUS
 62
     7
 10
197.1924250341
 20
601.6031102128
 30
0.0
 11
197.2424258805
 21
601.6031102128
 31
0.0
  0
LINE
  5
5B7
  8
0
  6
CONTINUOUS
 62
     7
 10
199.6424292541
 20
611.2031106688
 30
0.0
 11
199.6424292541
 21
601.6031102128
 31
0.0
  0
LINE
  5
5B8
  8
0
  6
CONTINUOUS
 62
     7
 10
196.1924304581
 20
609.453110382
 30
0.0
 11
196.1924304581
 21
608.9531105328
 31
0.0
  0
LINE
  5
5B9
  8
0
  6
CONTINUOUS
 62
     7
 10
196.1924304581
 20
608.9531105328
 30
0.0
 11
196.1424296117
 21
608.9531105328
 31
0.0
  0
LINE
  5
5BA
  8
0
  6
CONTINUOUS
 62
     7
 10
187.7924298263
 20
609.453110382
 30
0.0
 11
187.7924298263
 21
608.9531105328
 31
0.0
  0
LINE
  5
5BB
  8
0
  6
CONTINUOUS
 62
     7
 10
187.7924298263
 20
608.9531105328
 30
0.0
 11
187.7424289799
 21
608.9531105328
 31
0.0
  0
LINE
  5
5BC
  8
0
  6
CONTINUOUS
 62
     7
 10
191.9924264169
 20
609.453110382
 30
0.0
 11
191.9924264169
 21
608.9531105328
 31
0.0
  0
LINE
  5
5BD
  8
0
  6
CONTINUOUS
 62
     7
 10
191.9924264169
 20
608.9531105328
 30
0.0
 11
191.9424255705
 21
608.9531105328
 31
0.0
  0
LINE
  5
5BE
  8
0
  6
CONTINUOUS
 62
     7
 10
197.6924260473
 20
609.453110382
 30
0.0
 11
197.6924260473
 21
608.9531105328
 31
0.0
  0
LINE
  5
5BF
  8
0
  6
CONTINUOUS
 62
     7
 10
197.6924260473
 20
608.9531105328
 30
0.0
 11
197.7424268937
 21
608.9531105328
 31
0.0
  0
LINE
  5
5C0
  8
0
  6
CONTINUOUS
 62
     7
 10
196.1924304581
 20
605.2531104153
 30
0.0
 11
196.1924304581
 21
604.7531104498
 31
0.0
  0
LINE
  5
5C1
  8
0
  6
CONTINUOUS
 62
     7
 10
196.1924304581
 20
604.7531104498
 30
0.0
 11
196.1424296117
 21
604.7531104498
 31
0.0
  0
LINE
  5
5C2
  8
0
  6
CONTINUOUS
 62
     7
 10
191.9924264169
 20
603.8781105392
 30
0.0
 11
191.9924264169
 21
604.2531103678
 31
0.0
  0
LINE
  5
5C3
  8
0
  6
CONTINUOUS
 62
     7
 10
191.9924264169
 20
603.8781105392
 30
0.0
 11
192.2674273467
 21
603.6031105406
 31
0.0
  0
LINE
  5
5C4
  8
0
  6
CONTINUOUS
 62
     7
 10
191.9924264169
 20
604.2531103678
 30
0.0
 11
191.9424255705
 21
604.2531103678
 31
0.0
  0
LINE
  5
5C5
  8
0
  6
CONTINUOUS
 62
     7
 10
189.2924254155
 20
605.2531104153
 30
0.0
 11
189.2924254155
 21
604.7531104498
 31
0.0
  0
LINE
  5
5C6
  8
0
  6
CONTINUOUS
 62
     7
 10
189.2924254155
 20
604.7531104498
 30
0.0
 11
189.3424262619
 21
604.7531104498
 31
0.0
  0
LINE
  5
5C7
  8
0
  6
CONTINUOUS
 62
     7
 10
193.4924294567
 20
605.2531104153
 30
0.0
 11
193.4924294567
 21
604.7531104498
 31
0.0
  0
LINE
  5
5C8
  8
0
  6
CONTINUOUS
 62
     7
 10
193.4924294567
 20
604.7531104498
 30
0.0
 11
193.5424303031
 21
604.7531104498
 31
0.0
  0
LINE
  5
5C9
  8
0
  6
CONTINUOUS
 62
     7
 10
193.4924294567
 20
608.4531104509
 30
0.0
 11
193.4924294567
 21
608.0781103894
 31
0.0
  0
LINE
  5
5CA
  8
0
  6
CONTINUOUS
 62
     7
 10
193.4924294567
 20
608.0781103894
 30
0.0
 11
193.2174285269
 21
607.8031103909
 31
0.0
  0
LINE
  5
5CB
  8
0
  6
CONTINUOUS
 62
     7
 10
193.5424303031
 20
608.4531104509
 30
0.0
 11
193.4924294567
 21
608.4531104509
 31
0.0
  0
LINE
  5
5CC
  8
0
  6
CONTINUOUS
 62
     7
 10
193.4924294567
 20
604.2531103678
 30
0.0
 11
193.4924294567
 21
603.8781105392
 31
0.0
  0
LINE
  5
5CD
  8
0
  6
CONTINUOUS
 62
     7
 10
193.5424303031
 20
604.2531103678
 30
0.0
 11
193.4924294567
 21
604.2531103678
 31
0.0
  0
LINE
  5
5CE
  8
0
  6
CONTINUOUS
 62
     7
 10
193.4924294567
 20
603.8781105392
 30
0.0
 11
193.2174285269
 21
603.6031105406
 31
0.0
  0
LINE
  5
5CF
  8
0
  6
CONTINUOUS
 62
     7
 10
197.6924260473
 20
604.2531103678
 30
0.0
 11
197.6924260473
 21
603.8781105392
 31
0.0
  0
LINE
  5
5D0
  8
0
  6
CONTINUOUS
 62
     7
 10
197.7424268937
 20
604.2531103678
 30
0.0
 11
197.6924260473
 21
604.2531103678
 31
0.0
  0
LINE
  5
5D1
  8
0
  6
CONTINUOUS
 62
     7
 10
197.6924260473
 20
603.8781105392
 30
0.0
 11
197.4174251175
 21
603.6031105406
 31
0.0
  0
LINE
  5
5D2
  8
0
  6
CONTINUOUS
 62
     7
 10
187.7924298263
 20
603.8781105392
 30
0.0
 11
187.7924298263
 21
604.2531103678
 31
0.0
  0
LINE
  5
5D3
  8
0
  6
CONTINUOUS
 62
     7
 10
187.7924298263
 20
604.2531103678
 30
0.0
 11
187.7424289799
 21
604.2531103678
 31
0.0
  0
LINE
  5
5D4
  8
0
  6
CONTINUOUS
 62
     7
 10
187.7924298263
 20
603.8781105392
 30
0.0
 11
188.0674307561
 21
603.6031105406
 31
0.0
  0
LINE
  5
5D5
  8
0
  6
CONTINUOUS
 62
     7
 10
187.7924298263
 20
605.2531104153
 30
0.0
 11
187.7924298263
 21
604.7531104498
 31
0.0
  0
LINE
  5
5D6
  8
0
  6
CONTINUOUS
 62
     7
 10
187.7924298263
 20
604.7531104498
 30
0.0
 11
187.7424289799
 21
604.7531104498
 31
0.0
  0
LINE
  5
5D7
  8
0
  6
CONTINUOUS
 62
     7
 10
197.6924260473
 20
605.2531104153
 30
0.0
 11
197.6924260473
 21
604.7531104498
 31
0.0
  0
LINE
  5
5D8
  8
0
  6
CONTINUOUS
 62
     7
 10
197.6924260473
 20
604.7531104498
 30
0.0
 11
197.7424268937
 21
604.7531104498
 31
0.0
  0
LINE
  5
5D9
  8
0
  6
CONTINUOUS
 62
     7
 10
191.9924264169
 20
605.2531104153
 30
0.0
 11
191.9924264169
 21
604.7531104498
 31
0.0
  0
LINE
  5
5DA
  8
0
  6
CONTINUOUS
 62
     7
 10
191.9924264169
 20
604.7531104498
 30
0.0
 11
191.9424255705
 21
604.7531104498
 31
0.0
  0
LINE
  5
5DB
  8
0
  6
CONTINUOUS
 62
     7
 10
196.1924304581
 20
603.8781105392
 30
0.0
 11
196.1924304581
 21
604.2531103678
 31
0.0
  0
LINE
  5
5DC
  8
0
  6
CONTINUOUS
 62
     7
 10
196.1924304581
 20
604.2531103678
 30
0.0
 11
196.1424296117
 21
604.2531103678
 31
0.0
  0
LINE
  5
5DD
  8
0
  6
CONTINUOUS
 62
     7
 10
196.1924304581
 20
603.8781105392
 30
0.0
 11
196.4674239373
 21
603.6031105406
 31
0.0
  0
LINE
  5
5DE
  8
0
  6
CONTINUOUS
 62
     7
 10
189.2924254155
 20
604.2531103678
 30
0.0
 11
189.2924254155
 21
603.8781105392
 31
0.0
  0
LINE
  5
5DF
  8
0
  6
CONTINUOUS
 62
     7
 10
189.2924254155
 20
603.8781105392
 30
0.0
 11
189.0174244857
 21
603.6031105406
 31
0.0
  0
LINE
  5
5E0
  8
0
  6
CONTINUOUS
 62
     7
 10
189.3424262619
 20
604.2531103678
 30
0.0
 11
189.2924254155
 21
604.2531103678
 31
0.0
  0
LINE
  5
5E1
  8
0
  6
CONTINUOUS
 62
     7
 10
189.2924254155
 20
608.4531104509
 30
0.0
 11
189.2924254155
 21
608.0781103894
 31
0.0
  0
LINE
  5
5E2
  8
0
  6
CONTINUOUS
 62
     7
 10
189.3424262619
 20
608.4531104509
 30
0.0
 11
189.2924254155
 21
608.4531104509
 31
0.0
  0
LINE
  5
5E3
  8
0
  6
CONTINUOUS
 62
     7
 10
189.2924254155
 20
608.0781103894
 30
0.0
 11
189.0174244857
 21
607.8031103909
 31
0.0
  0
LINE
  5
5E4
  8
0
  6
CONTINUOUS
 62
     7
 10
187.7924298263
 20
608.0781103894
 30
0.0
 11
187.7924298263
 21
608.4531104509
 31
0.0
  0
LINE
  5
5E5
  8
0
  6
CONTINUOUS
 62
     7
 10
187.7924298263
 20
608.4531104509
 30
0.0
 11
187.7424289799
 21
608.4531104509
 31
0.0
  0
LINE
  5
5E6
  8
0
  6
CONTINUOUS
 62
     7
 10
187.7924298263
 20
608.0781103894
 30
0.0
 11
188.0674307561
 21
607.8031103909
 31
0.0
  0
LINE
  5
5E7
  8
0
  6
CONTINUOUS
 62
     7
 10
196.1924304581
 20
608.0781103894
 30
0.0
 11
196.1924304581
 21
608.4531104509
 31
0.0
  0
LINE
  5
5E8
  8
0
  6
CONTINUOUS
 62
     7
 10
196.1924304581
 20
608.4531104509
 30
0.0
 11
196.1424296117
 21
608.4531104509
 31
0.0
  0
LINE
  5
5E9
  8
0
  6
CONTINUOUS
 62
     7
 10
196.1924304581
 20
608.0781103894
 30
0.0
 11
196.4674239373
 21
607.8031103909
 31
0.0
  0
LINE
  5
5EA
  8
0
  6
CONTINUOUS
 62
     7
 10
191.9924264169
 20
608.0781103894
 30
0.0
 11
191.9924264169
 21
608.4531104509
 31
0.0
  0
LINE
  5
5EB
  8
0
  6
CONTINUOUS
 62
     7
 10
191.9924264169
 20
608.0781103894
 30
0.0
 11
192.2674273467
 21
607.8031103909
 31
0.0
  0
LINE
  5
5EC
  8
0
  6
CONTINUOUS
 62
     7
 10
191.9924264169
 20
608.4531104509
 30
0.0
 11
191.9424255705
 21
608.4531104509
 31
0.0
  0
LINE
  5
5ED
  8
0
  6
CONTINUOUS
 62
     7
 10
197.6924260473
 20
608.4531104509
 30
0.0
 11
197.6924260473
 21
608.0781103894
 31
0.0
  0
LINE
  5
5EE
  8
0
  6
CONTINUOUS
 62
     7
 10
197.7424268937
 20
608.4531104509
 30
0.0
 11
197.6924260473
 21
608.4531104509
 31
0.0
  0
LINE
  5
5EF
  8
0
  6
CONTINUOUS
 62
     7
 10
197.6924260473
 20
608.0781103894
 30
0.0
 11
197.4174251175
 21
607.8031103909
 31
0.0
  0
LINE
  5
5F0
  8
0
  6
CONTINUOUS
 62
     7
 10
194.2424272514
 20
611.5031106248
 30
0.0
 11
195.4424252129
 21
611.5031106248
 31
0.0
  0
LINE
  5
5F1
  8
0
  6
CONTINUOUS
 62
     7
 10
195.4424252129
 20
611.2031106688
 30
0.0
 11
195.4424252129
 21
611.5031106248
 31
0.0
  0
LINE
  5
5F2
  8
0
  6
CONTINUOUS
 62
     7
 10
190.0424306607
 20
611.5031106248
 30
0.0
 11
191.2424286223
 21
611.5031106248
 31
0.0
  0
LINE
  5
5F3
  8
0
  6
CONTINUOUS
 62
     7
 10
190.0424306607
 20
611.5031106248
 30
0.0
 11
190.0424306607
 21
611.2031106688
 31
0.0
  0
LINE
  5
5F4
  8
0
  6
CONTINUOUS
 62
     7
 10
193.4924294567
 20
608.9531105328
 30
0.0
 11
193.4924294567
 21
608.4531104509
 31
0.0
  0
LINE
  5
5F5
  8
0
  6
CONTINUOUS
 62
     7
 10
189.2924254155
 20
608.9531105328
 30
0.0
 11
189.2924254155
 21
608.4531104509
 31
0.0
  0
LINE
  5
5F6
  8
0
  6
CONTINUOUS
 62
     7
 10
196.1924304581
 20
604.2531103678
 30
0.0
 11
196.1924304581
 21
604.7531104498
 31
0.0
  0
LINE
  5
5F7
  8
0
  6
CONTINUOUS
 62
     7
 10
189.2924254155
 20
604.7531104498
 30
0.0
 11
189.2924254155
 21
604.2531103678
 31
0.0
  0
LINE
  5
5F8
  8
0
  6
CONTINUOUS
 62
     7
 10
193.4924294567
 20
604.7531104498
 30
0.0
 11
193.4924294567
 21
604.2531103678
 31
0.0
  0
LINE
  5
5F9
  8
0
  6
CONTINUOUS
 62
     7
 10
187.7924298263
 20
608.4531104509
 30
0.0
 11
187.7924298263
 21
608.9531105328
 31
0.0
  0
LINE
  5
5FA
  8
0
  6
CONTINUOUS
 62
     7
 10
191.9924264169
 20
604.2531103678
 30
0.0
 11
191.9924264169
 21
604.7531104498
 31
0.0
  0
LINE
  5
5FB
  8
0
  6
CONTINUOUS
 62
     7
 10
197.6924260473
 20
604.7531104498
 30
0.0
 11
197.6924260473
 21
604.2531103678
 31
0.0
  0
LINE
  5
5FC
  8
0
  6
CONTINUOUS
 62
     7
 10
196.1924304581
 20
608.4531104509
 30
0.0
 11
196.1924304581
 21
608.9531105328
 31
0.0
  0
LINE
  5
5FD
  8
0
  6
CONTINUOUS
 62
     7
 10
191.9924264169
 20
608.4531104509
 30
0.0
 11
191.9924264169
 21
608.9531105328
 31
0.0
  0
LINE
  5
5FE
  8
0
  6
CONTINUOUS
 62
     7
 10
197.6924260473
 20
608.9531105328
 30
0.0
 11
197.6924260473
 21
608.4531104509
 31
0.0
  0
LINE
  5
5FF
  8
0
  6
CONTINUOUS
 62
     7
 10
187.7924298263
 20
604.2531103678
 30
0.0
 11
187.7924298263
 21
604.7531104498
 31
0.0
  0
LINE
  5
600
  8
0
  6
CONTINUOUS
 62
     7
 10
190.0424306607
 20
614.003110569
 30
0.0
 11
191.2424286223
 21
614.003110569
 31
0.0
  0
LINE
  5
601
  8
0
  6
CONTINUOUS
 62
     7
 10
190.0424306607
 20
614.003110569
 30
0.0
 11
190.0424306607
 21
611.5031106248
 31
0.0
  0
LINE
  5
602
  8
0
  6
CONTINUOUS
 62
     7
 10
195.4424252129
 20
614.003110569
 30
0.0
 11
194.2424272514
 21
614.003110569
 31
0.0
  0
LINE
  5
603
  8
0
  6
CONTINUOUS
 62
     7
 10
195.4424252129
 20
611.5031106248
 30
0.0
 11
195.4424252129
 21
614.003110569
 31
0.0
  0
LINE
  5
604
  8
0
  6
CONTINUOUS
 62
     7
 10
195.4424252129
 20
614.7031103112
 30
0.0
 11
194.2424272514
 21
614.7031103112
 31
0.0
  0
LINE
  5
605
  8
0
  6
CONTINUOUS
 62
     7
 10
195.4424252129
 20
614.003110569
 30
0.0
 11
195.4424252129
 21
614.7031103112
 31
0.0
  0
LINE
  5
606
  8
0
  6
CONTINUOUS
 62
     7
 10
191.2424286223
 20
614.7031103112
 30
0.0
 11
190.0424306607
 21
614.7031103112
 31
0.0
  0
LINE
  5
607
  8
0
  6
CONTINUOUS
 62
     7
 10
190.0424306607
 20
614.7031103112
 30
0.0
 11
190.0424306607
 21
614.003110569
 31
0.0
  0
LINE
  5
608
  8
0
  6
CONTINUOUS
 62
     7
 10
195.4424252129
 20
615.0031107329
 30
0.0
 11
190.0424306607
 21
615.0031107329
 31
0.0
  0
LINE
  5
609
  8
0
  6
CONTINUOUS
 62
     7
 10
195.4424252129
 20
615.0031107329
 30
0.0
 11
195.4424252129
 21
614.7031103112
 31
0.0
  0
LINE
  5
60A
  8
0
  6
CONTINUOUS
 62
     7
 10
190.0424306607
 20
614.7031103112
 30
0.0
 11
190.0424306607
 21
615.0031107329
 31
0.0
  0
LINE
  5
60B
  8
0
  6
CONTINUOUS
 62
     7
 10
185.8424266195
 20
612.203110367
 30
0.0
 11
189.2424245691
 21
612.203110367
 31
0.0
  0
LINE
  5
60C
  8
0
  6
CONTINUOUS
 62
     7
 10
189.2424245691
 20
611.2031106688
 30
0.0
 11
189.2424245691
 21
612.203110367
 31
0.0
  0
LINE
  5
60D
  8
0
  6
CONTINUOUS
 62
     7
 10
185.8424266195
 20
611.2031106688
 30
0.0
 11
185.8424266195
 21
612.203110367
 31
0.0
  0
LINE
  5
60E
  8
0
  6
CONTINUOUS
 62
     7
 10
196.2424238539
 20
612.203110367
 30
0.0
 11
199.6424292541
 21
612.203110367
 31
0.0
  0
LINE
  5
60F
  8
0
  6
CONTINUOUS
 62
     7
 10
196.2424238539
 20
611.2031106688
 30
0.0
 11
196.2424238539
 21
612.203110367
 31
0.0
  0
LINE
  5
610
  8
0
  6
CONTINUOUS
 62
     7
 10
199.6424292541
 20
611.2031106688
 30
0.0
 11
199.6424292541
 21
612.203110367
 31
0.0
  0
LINE
  5
611
  8
0
  6
CONTINUOUS
 62
     7
 10
199.6424292541
 20
600.6031105146
 30
0.0
 11
185.8424266195
 21
600.6031105146
 31
0.0
  0
LINE
  5
612
  8
0
  6
CONTINUOUS
 62
     7
 10
185.8424266195
 20
600.6031105146
 30
0.0
 11
185.8424266195
 21
601.6031102128
 31
0.0
  0
LINE
  5
613
  8
0
  6
CONTINUOUS
 62
     7
 10
199.6424292541
 20
601.6031102128
 30
0.0
 11
199.6424292541
 21
600.6031105146
 31
0.0
  0
LINE
  5
614
  8
0
  6
CONTINUOUS
 62
     7
 10
180.5424263096
 20
593.4031101726
 30
0.0
 11
168.5424243427
 21
593.4031101726
 31
0.0
  0
LINE
  5
615
  8
0
  6
CONTINUOUS
 62
     7
 10
168.5424243427
 20
619.403110709
 30
0.0
 11
180.5424263096
 21
619.403110709
 31
0.0
  0
LINE
  5
616
  8
0
  6
CONTINUOUS
 62
     7
 10
168.5424243427
 20
593.4031101726
 30
0.0
 11
168.5424243427
 21
600.3031105585
 31
0.0
  0
LINE
  5
617
  8
0
  6
CONTINUOUS
 62
     7
 10
168.5424243427
 20
612.5031103231
 30
0.0
 11
168.5424243427
 21
619.403110709
 31
0.0
  0
LINE
  5
618
  8
0
  6
CONTINUOUS
 62
     7
 10
180.5424263096
 20
593.4031101726
 30
0.0
 11
180.5424263096
 21
600.3031105585
 31
0.0
  0
LINE
  5
619
  8
0
  6
CONTINUOUS
 62
     7
 10
180.5424263096
 20
612.5031103231
 30
0.0
 11
180.5424263096
 21
619.403110709
 31
0.0
  0
LINE
  5
61A
  8
0
  6
CONTINUOUS
 62
     7
 10
178.1924237824
 20
609.5031105298
 30
0.0
 11
169.2924295879
 21
609.5031105298
 31
0.0
  0
ARC
  5
61B
  8
0
  6
CONTINUOUS
 62
     7
 10
178.1924272037
 20
608.5031104408
 30
0.0
 40
1.000000000000114
 50
45.2806413896
 51
90.0
  0
LINE
  5
61C
  8
0
  6
CONTINUOUS
 62
     7
 10
180.0738816476
 20
608.0473351842
 30
0.0
 11
178.8960640645
 21
609.2136722375
 31
0.0
  0
ARC
  5
61D
  8
0
  6
CONTINUOUS
 62
     7
 10
179.7924272037
 20
607.7631104408
 30
0.0
 40
0.4000000000000983
 50
0.0
 51
45.2806413896
  0
LINE
  5
61E
  8
0
  6
CONTINUOUS
 62
     7
 10
180.1924278355
 20
605.0431104461
 30
0.0
 11
180.1924278355
 21
607.7631104356
 31
0.0
  0
ARC
  5
61F
  8
0
  6
CONTINUOUS
 62
     7
 10
179.7924272037
 20
605.0431104408
 30
0.0
 40
0.4000000000000341
 50
314.7193586104
 51
0.0
  0
LINE
  5
620
  8
0
  6
CONTINUOUS
 62
     7
 10
178.8960640645
 20
603.5925486442
 30
0.0
 11
180.0738816476
 21
604.7588856975
 31
0.0
  0
ARC
  5
621
  8
0
  6
CONTINUOUS
 62
     7
 10
178.1924272037
 20
604.3031104408
 30
0.0
 40
0.9999999999998863
 50
270.0
 51
314.7193586104
  0
LINE
  5
622
  8
0
  6
CONTINUOUS
 62
     7
 10
169.2924295879
 20
603.3031103518
 30
0.0
 11
178.1924237824
 21
603.3031103518
 31
0.0
  0
ARC
  5
623
  8
0
  6
CONTINUOUS
 62
     7
 10
169.2924272037
 20
603.7031104408
 30
0.0
 40
0.4000000000000057
 50
180.0
 51
270.0
  0
LINE
  5
624
  8
0
  6
CONTINUOUS
 62
     7
 10
168.8924302674
 20
609.1031105108
 30
0.0
 11
168.8924302674
 21
603.7031103708
 31
0.0
  0
ARC
  5
625
  8
0
  6
CONTINUOUS
 62
     7
 10
169.2924272037
 20
609.1031104408
 30
0.0
 40
0.4000000000000909
 50
90.0000000001
 51
180.0
  0
LINE
  5
626
  8
0
  6
CONTINUOUS
 62
     7
 10
165.1424263931
 20
603.9031104967
 30
0.0
 11
167.6424240089
 21
603.9031104967
 31
0.0
  0
LINE
  5
627
  8
0
  6
CONTINUOUS
 62
     7
 10
167.6424240089
 20
606.3781104414
 30
0.0
 11
165.1424263931
 21
606.3781104414
 31
0.0
  0
LINE
  5
628
  8
0
  6
CONTINUOUS
 62
     7
 10
167.6424240089
 20
603.9031104967
 30
0.0
 11
167.6424240089
 21
606.3781104414
 31
0.0
  0
LINE
  5
629
  8
0
  6
CONTINUOUS
 62
     7
 10
165.1424263931
 20
603.9031104967
 30
0.0
 11
165.1424263931
 21
606.3781104414
 31
0.0
  0
LINE
  5
62A
  8
0
  6
CONTINUOUS
 62
     7
 10
181.4424266434
 20
603.9031104967
 30
0.0
 11
183.9424242592
 21
603.9031104967
 31
0.0
  0
LINE
  5
62B
  8
0
  6
CONTINUOUS
 62
     7
 10
181.4424266434
 20
603.9031104967
 30
0.0
 11
181.4424266434
 21
606.3781104414
 31
0.0
  0
LINE
  5
62C
  8
0
  6
CONTINUOUS
 62
     7
 10
183.9424242592
 20
606.3781104414
 30
0.0
 11
181.4424266434
 21
606.3781104414
 31
0.0
  0
LINE
  5
62D
  8
0
  6
CONTINUOUS
 62
     7
 10
183.9424242592
 20
603.9031104967
 30
0.0
 11
183.9424242592
 21
606.3781104414
 31
0.0
  0
LINE
  5
62E
  8
0
  6
CONTINUOUS
 62
     7
 10
183.9424242592
 20
608.9031103849
 30
0.0
 11
181.4424266434
 21
608.9031103849
 31
0.0
  0
LINE
  5
62F
  8
0
  6
CONTINUOUS
 62
     7
 10
181.4424266434
 20
608.9031103849
 30
0.0
 11
181.4424266434
 21
606.4281104402
 31
0.0
  0
LINE
  5
630
  8
0
  6
CONTINUOUS
 62
     7
 10
183.9424242592
 20
606.4281104402
 30
0.0
 11
181.4424266434
 21
606.4281104402
 31
0.0
  0
LINE
  5
631
  8
0
  6
CONTINUOUS
 62
     7
 10
183.9424242592
 20
608.9031103849
 30
0.0
 11
183.9424242592
 21
606.4281104402
 31
0.0
  0
LINE
  5
632
  8
0
  6
CONTINUOUS
 62
     7
 10
167.6424240089
 20
608.9031103849
 30
0.0
 11
165.1424263931
 21
608.9031103849
 31
0.0
  0
LINE
  5
633
  8
0
  6
CONTINUOUS
 62
     7
 10
167.6424240089
 20
606.4281104402
 30
0.0
 11
165.1424263931
 21
606.4281104402
 31
0.0
  0
LINE
  5
634
  8
0
  6
CONTINUOUS
 62
     7
 10
167.6424240089
 20
606.4281104402
 30
0.0
 11
167.6424240089
 21
608.9031103849
 31
0.0
  0
LINE
  5
635
  8
0
  6
CONTINUOUS
 62
     7
 10
165.1424263931
 20
606.4281104402
 30
0.0
 11
165.1424263931
 21
608.9031103849
 31
0.0
  0
LINE
  5
636
  8
0
  6
CONTINUOUS
 62
     7
 10
165.1424263931
 20
600.3031105585
 30
0.0
 11
183.9424242592
 21
600.3031105585
 31
0.0
  0
LINE
  5
637
  8
0
  6
CONTINUOUS
 62
     7
 10
165.1424263931
 20
612.5031103231
 30
0.0
 11
183.9424242592
 21
612.5031103231
 31
0.0
  0
LINE
  5
638
  8
0
  6
CONTINUOUS
 62
     7
 10
183.9424242592
 20
603.9031104967
 30
0.0
 11
183.9424242592
 21
600.3031105585
 31
0.0
  0
LINE
  5
639
  8
0
  6
CONTINUOUS
 62
     7
 10
183.9424242592
 20
606.4281104402
 30
0.0
 11
183.9424242592
 21
606.3781104414
 31
0.0
  0
LINE
  5
63A
  8
0
  6
CONTINUOUS
 62
     7
 10
183.9424242592
 20
608.9031103849
 30
0.0
 11
183.9424242592
 21
612.5031103231
 31
0.0
  0
LINE
  5
63B
  8
0
  6
CONTINUOUS
 62
     7
 10
165.1424263931
 20
608.9031103849
 30
0.0
 11
165.1424263931
 21
612.5031103231
 31
0.0
  0
LINE
  5
63C
  8
0
  6
CONTINUOUS
 62
     7
 10
165.1424263931
 20
606.4281104402
 30
0.0
 11
165.1424263931
 21
606.3781104414
 31
0.0
  0
LINE
  5
63D
  8
0
  6
CONTINUOUS
 62
     7
 10
165.1424263931
 20
600.3031105585
 30
0.0
 11
165.1424263931
 21
603.9031104967
 31
0.0
  0
LINE
  5
63E
  8
0
  6
CONTINUOUS
 62
     8
 10
190.534206233
 20
623.6031110249
 30
0.0
 11
184.7424303508
 21
623.6031110249
 31
0.0
  0
LINE
  5
63F
  8
0
  6
CONTINUOUS
 62
     8
 10
191.7424296355
 20
623.6031110249
 30
0.0
 11
190.8877586341
 21
623.6031110249
 31
0.0
  0
ENDSEC
  0
EOF
