  0
SECTION
  2
HEADER
  9
$ACADVER
  1
AC1015
  9
$ACADMAINTVER
 70
     6
  9
$DWGCODEPAGE
  3
DOS932
  9
$INSBASE
 10
0.0
 20
0.0
 30
0.0
  9
$EXTMIN
 10
0.0
 20
0.0
 30
0.0
  9
$EXTMAX
 10
630.0
 20
445.5
 30
0.0
  9
$LIMMIN
 10
0.0
 20
0.0
  9
$LIMMAX
 10
630.0
 20
445.5
  9
$ORTHOMODE
 70
     0
  9
$REGENMODE
 70
     1
  9
$FILLMODE
 70
     1
  9
$QTEXTMODE
 70
     0
  9
$MIRRTEXT
 70
     1
  9
$LTSCALE
 40
1.5
  9
$ATTMODE
 70
     1
  9
$TEXTSIZE
 40
5.2916666667
  9
$TRACEWID
 40
1.0
  9
$TEXTSTYLE
  7
Standard
  9
$CLAYER
  8
0
  9
$CELTYPE
  6
ByLayer
  9
$CECOLOR
 62
   256
  9
$CELTSCALE
 40
1.0
  9
$DISPSILH
 70
     0
  9
$DIMSCALE
 40
1.0
  9
$DIMASZ
 40
4.0462646484
  9
$DIMEXO
 40
1.5
  9
$DIMDLI
 40
3.75
  9
$DIMRND
 40
0.0
  9
$DIMDLE
 40
0.0
  9
$DIMEXE
 40
1.5
  9
$DIMTP
 40
0.0
  9
$DIMTM
 40
0.0
  9
$DIMTXT
 40
5.2916666667
  9
$DIMCEN
 40
2.5
  9
$DIMTSZ
 40
0.0
  9
$DIMTOL
 70
     0
  9
$DIMLIM
 70
     0
  9
$DIMTIH
 70
     1
  9
$DIMTOH
 70
     1
  9
$DIMSE1
 70
     0
  9
$DIMSE2
 70
     0
  9
$DIMTAD
 70
     1
  9
$DIMZIN
 70
     0
  9
$DIMBLK
  1

  9
$DIMASO
 70
     1
  9
$DIMSHO
 70
     1
  9
$DIMPOST
  1

  9
$DIMAPOST
  1

  9
$DIMALT
 70
     0
  9
$DIMALTD
 70
     3
  9
$DIMALTF
 40
0.0393700787
  9
$DIMLFAC
 40
1.0
  9
$DIMTOFL
 70
     1
  9
$DIMTVP
 40
0.0
  9
$DIMTIX
 70
     0
  9
$DIMSOXD
 70
     0
  9
$DIMSAH
 70
     0
  9
$DIMBLK1
  1

  9
$DIMBLK2
  1

  9
$DIMSTYLE
  2
ISO-25
  9
$DIMCLRD
 70
     0
  9
$DIMCLRE
 70
     0
  9
$DIMCLRT
 70
     0
  9
$DIMTFAC
 40
1.0
  9
$DIMGAP
 40
3.0
  9
$DIMJUST
 70
     0
  9
$DIMSD1
 70
     0
  9
$DIMSD2
 70
     0
  9
$DIMTOLJ
 70
     0
  9
$DIMTZIN
 70
     0
  9
$DIMALTZ
 70
     0
  9
$DIMALTTZ
 70
     0
  9
$DIMUPT
 70
     0
  9
$DIMDEC
 70
     3
  9
$DIMTDEC
 70
     3
  9
$DIMALTU
 70
     2
  9
$DIMALTTD
 70
     3
  9
$DIMTXSTY
  7
Standard
  9
$DIMAUNIT
 70
     0
  9
$DIMADEC
 70
     3
  9
$DIMALTRND
 40
0.0
  9
$DIMAZIN
 70
     0
  9
$DIMDSEP
 70
    44
  9
$DIMATFIT
 70
     3
  9
$DIMFRAC
 70
     0
  9
$DIMLDRBLK
  1

  9
$DIMLUNIT
 70
     2
  9
$DIMLWD
 70
    -2
  9
$DIMLWE
 70
    -2
  9
$DIMTMOVE
 70
     0
  9
$LUNITS
 70
     2
  9
$LUPREC
 70
     4
  9
$SKETCHINC
 40
1.0
  9
$FILLETRAD
 40
10.0
  9
$AUNITS
 70
     0
  9
$AUPREC
 70
     0
  9
$MENU
  1
.
  9
$ELEVATION
 40
0.0
  9
$PELEVATION
 40
0.0
  9
$THICKNESS
 40
0.0
  9
$LIMCHECK
 70
     0
  9
$CHAMFERA
 40
0.0
  9
$CHAMFERB
 40
0.0
  9
$CHAMFERC
 40
0.0
  9
$CHAMFERD
 40
0.0
  9
$SKPOLY
 70
     0
  9
$TDCREATE
 40
2460041.411643681
  9
$TDUCREATE
 40
2460041.036643681
  9
$TDUPDATE
 40
2460041.411646192
  9
$TDUUPDATE
 40
2460041.036646192
  9
$TDINDWG
 40
0.0000000116
  9
$TDUSRTIMER
 40
0.0000000116
  9
$USRTIMER
 70
     1
  9
$ANGBASE
 50
0.0
  9
$ANGDIR
 70
     0
  9
$PDMODE
 70
     0
  9
$PDSIZE
 40
-1.0
  9
$PLINEWID
 40
0.0
  9
$SPLFRAME
 70
     0
  9
$SPLINETYPE
 70
     6
  9
$SPLINESEGS
 70
     8
  9
$HANDSEED
  5
427
  9
$SURFTAB1
 70
     6
  9
$SURFTAB2
 70
     6
  9
$SURFTYPE
 70
     6
  9
$SURFU
 70
     6
  9
$SURFV
 70
     6
  9
$UCSBASE
  2

  9
$UCSNAME
  2

  9
$UCSORG
 10
0.0
 20
0.0
 30
0.0
  9
$UCSXDIR
 10
1.0
 20
0.0
 30
0.0
  9
$UCSYDIR
 10
0.0
 20
1.0
 30
0.0
  9
$UCSORTHOREF
  2

  9
$UCSORTHOVIEW
 70
     0
  9
$UCSORGTOP
 10
0.0
 20
0.0
 30
0.0
  9
$UCSORGBOTTOM
 10
0.0
 20
0.0
 30
0.0
  9
$UCSORGLEFT
 10
0.0
 20
0.0
 30
0.0
  9
$UCSORGRIGHT
 10
0.0
 20
0.0
 30
0.0
  9
$UCSORGFRONT
 10
0.0
 20
0.0
 30
0.0
  9
$UCSORGBACK
 10
0.0
 20
0.0
 30
0.0
  9
$PUCSBASE
  2

  9
$PUCSNAME
  2

  9
$PUCSORG
 10
0.0
 20
0.0
 30
0.0
  9
$PUCSXDIR
 10
1.0
 20
0.0
 30
0.0
  9
$PUCSYDIR
 10
0.0
 20
1.0
 30
0.0
  9
$PUCSORTHOREF
  2

  9
$PUCSORTHOVIEW
 70
     0
  9
$PUCSORGTOP
 10
0.0
 20
0.0
 30
0.0
  9
$PUCSORGBOTTOM
 10
0.0
 20
0.0
 30
0.0
  9
$PUCSORGLEFT
 10
0.0
 20
0.0
 30
0.0
  9
$PUCSORGRIGHT
 10
0.0
 20
0.0
 30
0.0
  9
$PUCSORGFRONT
 10
0.0
 20
0.0
 30
0.0
  9
$PUCSORGBACK
 10
0.0
 20
0.0
 30
0.0
  9
$USERI1
 70
     0
  9
$USERI2
 70
     0
  9
$USERI3
 70
     0
  9
$USERI4
 70
     0
  9
$USERI5
 70
     0
  9
$USERR1
 40
0.0
  9
$USERR2
 40
0.0
  9
$USERR3
 40
0.0
  9
$USERR4
 40
0.0
  9
$USERR5
 40
0.0
  9
$WORLDVIEW
 70
     1
  9
$SHADEDGE
 70
     3
  9
$SHADEDIF
 70
    70
  9
$TILEMODE
 70
     1
  9
$MAXACTVP
 70
    64
  9
$PINSBASE
 10
0.0
 20
0.0
 30
0.0
  9
$PLIMCHECK
 70
     0
  9
$PEXTMIN
 10
1.0000000000E+20
 20
1.0000000000E+20
 30
1.0000000000E+20
  9
$PEXTMAX
 10
-1.0000000000E+20
 20
-1.0000000000E+20
 30
-1.0000000000E+20
  9
$PLIMMIN
 10
0.0
 20
0.0
  9
$PLIMMAX
 10
420.0
 20
297.0
  9
$UNITMODE
 70
     0
  9
$VISRETAIN
 70
     1
  9
$PLINEGEN
 70
     0
  9
$PSLTSCALE
 70
     1
  9
$TREEDEPTH
 70
  3020
  9
$CMLSTYLE
  2
Standard
  9
$CMLJUST
 70
     0
  9
$CMLSCALE
 40
20.0
  9
$PROXYGRAPHICS
 70
     1
  9
$MEASUREMENT
 70
     1
  9
$CELWEIGHT
370
    -1
  9
$ENDCAPS
280
     0
  9
$JOINSTYLE
280
     0
  9
$LWDISPLAY
290
     1
  9
$INSUNITS
 70
     4
  9
$HYPERLINKBASE
  1

  9
$STYLESHEET
  1

  9
$XEDIT
290
     1
  9
$CEPSNTYPE
380
     0
  9
$PSTYLEMODE
290
     1
  9
$FINGERPRINTGUID
  2
{b43b063c-0d80-40d9-adc4-f30031bb8ae8}
  9
$VERSIONGUID
  2
{FAEB1C32-E019-11D5-929B-00C0DF256EC4}
  9
$EXTNAMES
290
     1
  9
$PSVPSCALE
 40
0.0
  9
$OLESTARTUP
290
     0
  0
ENDSEC
  0
SECTION
  2
CLASSES
  0
CLASS
  1
ACDBDICTIONARYWDFLT
  2
AcDbDictionaryWithDefault
  3
ObjectDBX Classes
 90
        0
280
     0
281
     0
  0
CLASS
  1
VISUALSTYLE
  2
AcDbVisualStyle
  3
ObjectDBX Classes
 90
     4095
280
     0
281
     0
  0
CLASS
  1
MATERIAL
  2
AcDbMaterial
  3
ObjectDBX Classes
 90
     1153
280
     0
281
     0
  0
CLASS
  1
SCALE
  2
AcDbScale
  3
ObjectDBX Classes
 90
     1153
280
     0
281
     0
  0
CLASS
  1
TABLESTYLE
  2
AcDbTableStyle
  3
ObjectDBX Classes
 90
     4095
280
     0
281
     0
  0
CLASS
  1
MLEADERSTYLE
  2
AcDbMLeaderStyle
  3
ACDB_MLEADERSTYLE_CLASS
 90
     4095
280
     0
281
     0
  0
CLASS
  1
SUN
  2
AcDbSun
  3
SCENEOE
 90
     1153
280
     0
281
     0
  0
CLASS
  1
ACDBPLACEHOLDER
  2
AcDbPlaceHolder
  3
ObjectDBX Classes
 90
        0
280
     0
281
     0
  0
CLASS
  1
LAYOUT
  2
AcDbLayout
  3
ObjectDBX Classes
 90
        0
280
     0
281
     0
  0
ENDSEC
  0
SECTION
  2
TABLES
  0
TABLE
  2
VPORT
  5
8
330
0
100
AcDbSymbolTable
 70
     1
  0
VPORT
  5
29
330
8
100
AcDbSymbolTableRecord
100
AcDbViewportTableRecord
  2
*Active
 70
     0
 10
0.0
 20
0.0
 11
1.0
 21
1.0
 12
315.0
 22
222.75
 13
0.0
 23
0.0
 14
10.0
 24
10.0
 15
10.0
 25
10.0
 16
0.0
 26
0.0
 36
1.0
 17
0.0
 27
0.0
 37
0.0
 40
445.5
 41
1.4141414141
 42
50.0
 43
0.0
 44
0.0
 50
0.0
 51
0.0
 71
     0
 72
  2000
 73
     1
 74
     3
 75
     0
 76
     0
 77
     0
 78
     0
281
     0
 65
     1
110
0.0
120
0.0
130
0.0
111
1.0
121
0.0
131
0.0
112
0.0
122
1.0
132
0.0
 79
     0
146
0.0
  0
ENDTAB
  0
TABLE
  2
LTYPE
  5
5
330
0
100
AcDbSymbolTable
 70
     6
  0
LTYPE
  5
14
330
5
100
AcDbSymbolTableRecord
100
AcDbLinetypeTableRecord
  2
ByBlock
 70
     0
  3

 72
    65
 73
     0
 40
0.0
  0
LTYPE
  5
15
330
5
100
AcDbSymbolTableRecord
100
AcDbLinetypeTableRecord
  2
ByLayer
 70
     0
  3

 72
    65
 73
     0
 40
0.0
  0
LTYPE
  5
16
330
5
100
AcDbSymbolTableRecord
100
AcDbLinetypeTableRecord
  2
Continuous
 70
     0
  3
Solid line
 72
    65
 73
     0
 40
0.0
  0
LTYPE
  5
6E
330
5
100
AcDbSymbolTableRecord
100
AcDbLinetypeTableRecord
  2
HIDDEN
 70
     0
  3
Hidden __ __ __ __ __ __ __ __ __ __ __ __ __ __
 72
    65
 73
     2
 40
1.905
 49
1.27
 74
     0
 49
-0.635
 74
     0
  0
LTYPE
  5
6F
330
5
100
AcDbSymbolTableRecord
100
AcDbLinetypeTableRecord
  2
PHANTOM
 70
     0
  3
Phantom ______  __  __  ______  __  __  ______
 72
    65
 73
     6
 40
12.7
 49
6.35
 74
     0
 49
-1.27
 74
     0
 49
1.27
 74
     0
 49
-1.27
 74
     0
 49
1.27
 74
     0
 49
-1.27
 74
     0
  0
LTYPE
  5
70
330
5
100
AcDbSymbolTableRecord
100
AcDbLinetypeTableRecord
  2
CENTER
 70
     0
  3
Center ____ _ ____ _ ____ _ ____ _ ____ _ ____
 72
    65
 73
     4
 40
10.16
 49
6.35
 74
     0
 49
-1.27
 74
     0
 49
1.27
 74
     0
 49
-1.27
 74
     0
  0
LTYPE
  5
71
330
5
100
AcDbSymbolTableRecord
100
AcDbLinetypeTableRecord
  2
CENTERX2
 70
     0
  3
Center (2x) ________  __  ________  __  _____
 72
    65
 73
     4
 40
20.32
 49
12.7
 74
     0
 49
-2.54
 74
     0
 49
2.54
 74
     0
 49
-2.54
 74
     0
  0
LTYPE
  5
72
330
5
100
AcDbSymbolTableRecord
100
AcDbLinetypeTableRecord
  2
DOT2
 70
     0
  3
Dot (.5x) ........................................
 72
    65
 73
     2
 40
0.635
 49
0.0
 74
     0
 49
-0.635
 74
     0
  0
ENDTAB
  0
TABLE
  2
LAYER
  5
2
330
0
100
AcDbSymbolTable
 70
     8
  0
LAYER
  5
10
330
2
100
AcDbSymbolTableRecord
100
AcDbLayerTableRecord
  2
0
 70
     0
 62
     7
  6
Continuous
370
    -3
390
F
  0
LAYER
  5
73
330
2
100
AcDbSymbolTableRecord
100
AcDbLayerTableRecord
  2
SLD-0
 70
     0
 62
   179
  6
Continuous
370
    -3
390
F
  0
LAYER
  5
74
330
2
100
AcDbSymbolTableRecord
100
AcDbLayerTableRecord
  2
1
 70
     0
 62
   179
  6
Continuous
370
    -3
390
F
  0
LAYER
  5
75
330
2
100
AcDbSymbolTableRecord
100
AcDbLayerTableRecord
  2
FORMAT
 70
     0
 62
     7
  6
Continuous
370
    -3
390
F
  0
LAYER
  5
76
330
2
100
AcDbSymbolTableRecord
100
AcDbLayerTableRecord
  2
注記
 70
     0
 62
   190
  6
Continuous
370
    -3
390
F
  0
LAYER
  5
77
330
2
100
AcDbSymbolTableRecord
100
AcDbLayerTableRecord
  2
非表示
 70
     0
 62
     7
  6
Continuous
290
     0
370
    -3
390
F
  0
LAYER
  5
78
330
2
100
AcDbSymbolTableRecord
100
AcDbLayerTableRecord
  2
寸法
 70
     0
 62
    96
  6
Continuous
370
    -3
390
F
  0
LAYER
  5
79
330
2
100
AcDbSymbolTableRecord
100
AcDbLayerTableRecord
  2
印刷しない
 70
     0
 62
   144
  6
HIDDEN
290
     0
370
    -3
390
F
  0
ENDTAB
  0
TABLE
  2
STYLE
  5
3
330
0
100
AcDbSymbolTable
 70
     4
  0
STYLE
  5
11
330
3
100
AcDbSymbolTableRecord
100
AcDbTextStyleTableRecord
  2
Standard
 70
     0
 40
0.0
 41
1.0
 50
0.0
 71
     0
 42
5.2916666667
  3
txt
  4
bigfont
  0
STYLE
  5
8B
330
3
100
AcDbSymbolTableRecord
100
AcDbTextStyleTableRecord
  2
SLDTEXTSTYLE0
 70
     0
 40
0.0
 41
0.623
 50
0.0
 71
     0
 42
5.2916666667
  3
TXT
  4
bigfont
  0
STYLE
  5
92
330
3
100
AcDbSymbolTableRecord
100
AcDbTextStyleTableRecord
  2
SLDTEXTSTYLE1
 70
     0
 40
0.0
 41
0.6853
 50
0.0
 71
     0
 42
5.2916666667
  3
TXT
  4
bigfont
  0
STYLE
  5
96
330
3
100
AcDbSymbolTableRecord
100
AcDbTextStyleTableRecord
  2
SLDTEXTSTYLE2
 70
     0
 40
0.0
 41
0.7
 50
0.0
 71
     0
 42
5.2916666667
  3
TXT
  4
bigfont
  0
ENDTAB
  0
TABLE
  2
VIEW
  5
6
330
0
100
AcDbSymbolTable
 70
     0
  0
ENDTAB
  0
TABLE
  2
UCS
  5
7
330
0
100
AcDbSymbolTable
 70
     0
  0
ENDTAB
  0
TABLE
  2
APPID
  5
9
330
0
100
AcDbSymbolTable
 70
     1
  0
APPID
  5
12
330
9
100
AcDbSymbolTableRecord
100
AcDbRegAppTableRecord
  2
ACAD
 70
     0
  0
ENDTAB
  0
TABLE
  2
DIMSTYLE
  5
A
330
0
100
AcDbSymbolTable
 70
     1
100
AcDbDimStyleTable
  0
DIMSTYLE
105
27
330
A
100
AcDbSymbolTableRecord
100
AcDbDimStyleTableRecord
  2
ISO-25
 70
     0
 41
2.5
 42
0.625
 43
3.75
 44
1.25
 73
     0
 74
     0
 77
     1
 78
     8
140
2.5
141
2.5
143
0.0393700787
147
0.625
171
     3
172
     1
178
     0
271
     2
272
     2
274
     3
278
    44
283
     0
284
     8
340
11
  0
ENDTAB
  0
TABLE
  2
BLOCK_RECORD
  5
1
330
0
100
AcDbSymbolTable
 70
    13
  0
BLOCK_RECORD
  5
1F
330
1
100
AcDbSymbolTableRecord
100
AcDbBlockTableRecord
  2
*Model_Space
340
22
  0
BLOCK_RECORD
  5
1B
330
1
100
AcDbSymbolTableRecord
100
AcDbBlockTableRecord
  2
*Paper_Space
340
1E
  0
BLOCK_RECORD
  5
23
330
1
100
AcDbSymbolTableRecord
100
AcDbBlockTableRecord
  2
*Paper_Space0
340
26
  0
BLOCK_RECORD
  5
88
330
1
100
AcDbSymbolTableRecord
100
AcDbBlockTableRecord
  2
SW_NOTE_0
340
0
102
{BLKREFS
331
8E
102
}
  0
BLOCK_RECORD
  5
8F
330
1
100
AcDbSymbolTableRecord
100
AcDbBlockTableRecord
  2
SW_NOTE_0_1
340
0
102
{BLKREFS
331
95
102
}
  0
BLOCK_RECORD
  5
9A
330
1
100
AcDbSymbolTableRecord
100
AcDbBlockTableRecord
  2
SW_NOTE_0_2
340
0
102
{BLKREFS
331
A2
102
}
  0
BLOCK_RECORD
  5
A3
330
1
100
AcDbSymbolTableRecord
100
AcDbBlockTableRecord
  2
SW_NOTE_0_3
340
0
102
{BLKREFS
331
AA
102
}
  0
BLOCK_RECORD
  5
AB
330
1
100
AcDbSymbolTableRecord
100
AcDbBlockTableRecord
  2
SW_NOTE_0_4
340
0
102
{BLKREFS
331
B0
102
}
  0
BLOCK_RECORD
  5
F4
330
1
100
AcDbSymbolTableRecord
100
AcDbBlockTableRecord
  2
SW_CENTERMARKSYMBOL_0
340
0
102
{BLKREFS
331
113
102
}
  0
BLOCK_RECORD
  5
114
330
1
100
AcDbSymbolTableRecord
100
AcDbBlockTableRecord
  2
SW_CENTERMARKSYMBOL_1
340
0
102
{BLKREFS
331
11F
102
}
  0
BLOCK_RECORD
  5
226
330
1
100
AcDbSymbolTableRecord
100
AcDbBlockTableRecord
  2
SW_CENTERMARKSYMBOL_2
340
0
102
{BLKREFS
331
271
102
}
  0
BLOCK_RECORD
  5
272
330
1
100
AcDbSymbolTableRecord
100
AcDbBlockTableRecord
  2
SW_CENTERMARKSYMBOL_3
340
0
102
{BLKREFS
331
291
102
}
  0
BLOCK_RECORD
  5
292
330
1
100
AcDbSymbolTableRecord
100
AcDbBlockTableRecord
  2
SW_CENTERMARKSYMBOL_4
340
0
102
{BLKREFS
331
2B1
102
}
  0
BLOCK_RECORD
  5
2B2
330
1
100
AcDbSymbolTableRecord
100
AcDbBlockTableRecord
  2
SW_CENTERMARKSYMBOL_5
340
0
102
{BLKREFS
331
2D5
102
}
  0
BLOCK_RECORD
  5
410
330
1
100
AcDbSymbolTableRecord
100
AcDbBlockTableRecord
  2
SW_HATCH_0
340
0
102
{BLKREFS
331
41E
102
}
  0
ENDTAB
  0
ENDSEC
  0
SECTION
  2
BLOCKS
  0
BLOCK
  5
20
330
1F
100
AcDbEntity
  8
0
100
AcDbBlockBegin
  2
*Model_Space
 70
     0
 10
0.0
 20
0.0
 30
0.0
  3
*Model_Space
  1

  0
ENDBLK
  5
21
330
1F
100
AcDbEntity
  8
0
100
AcDbBlockEnd
  0
BLOCK
  5
1C
330
1B
100
AcDbEntity
 67
     1
  8
0
100
AcDbBlockBegin
  2
*Paper_Space
 70
     0
 10
0.0
 20
0.0
 30
0.0
  3
*Paper_Space
  1

  0
ENDBLK
  5
1D
330
1B
100
AcDbEntity
 67
     1
  8
0
100
AcDbBlockEnd
  0
BLOCK
  5
24
330
23
100
AcDbEntity
  8
0
100
AcDbBlockBegin
  2
*Paper_Space0
 70
     0
 10
0.0
 20
0.0
 30
0.0
  3
*Paper_Space0
  1

  0
ENDBLK
  5
25
330
23
100
AcDbEntity
  8
0
100
AcDbBlockEnd
  0
BLOCK
  5
89
330
88
100
AcDbEntity
  8
0
100
AcDbBlockBegin
  2
SW_NOTE_0
 70
     0
 10
0.0
 20
0.0
 30
0.0
  3
SW_NOTE_0
  1

  0
MTEXT
  5
8C
330
88
100
AcDbEntity
  8
1
 62
     0
100
AcDbMText
 10
9.7355917969
 20
7.1623826291
 30
0.0
 40
5.55625
 41
0.0
 71
     2
 72
     1
  1
製品名
  7
SLDTEXTSTYLE0
 73
     1
 44
1.0
  0
MTEXT
  5
8D
330
88
100
AcDbEntity
  8
1
 62
     0
100
AcDbMText
 10
9.7579575124
 20
-0.1756792724
 30
0.0
 40
3.96875
 41
0.0
 71
     2
 72
     1
  1
ARTICLE
  7
SLDTEXTSTYLE0
 73
     1
 44
1.0
  0
ENDBLK
  5
8A
330
88
100
AcDbEntity
  8
0
100
AcDbBlockEnd
  0
BLOCK
  5
90
330
8F
100
AcDbEntity
  8
0
100
AcDbBlockBegin
  2
SW_NOTE_0_1
 70
     0
 10
0.0
 20
0.0
 30
0.0
  3
SW_NOTE_0_1
  1

  0
MTEXT
  5
93
330
8F
100
AcDbEntity
  8
1
 62
     0
100
AcDbMText
 10
10.7091509766
 20
7.1623826291
 30
0.0
 40
5.55625
 41
0.0
 71
     2
 72
     1
  1
作成日
  7
SLDTEXTSTYLE1
 73
     1
 44
1.0
  0
MTEXT
  5
94
330
8F
100
AcDbEntity
  8
1
 62
     0
100
AcDbMText
 10
10.7933505802
 20
-0.1756792724
 30
0.0
 40
3.96875
 41
0.0
 71
     2
 72
     1
  1
DATE
  7
SLDTEXTSTYLE1
 73
     1
 44
1.0
  0
ENDBLK
  5
91
330
8F
100
AcDbEntity
  8
0
100
AcDbBlockEnd
  0
BLOCK
  5
9B
330
9A
100
AcDbEntity
  8
0
100
AcDbBlockBegin
  2
SW_NOTE_0_2
 70
     0
 10
0.0
 20
0.0
 30
0.0
  3
SW_NOTE_0_2
  1

  0
MTEXT
  5
9D
330
9A
100
AcDbEntity
  8
注記
 62
     0
100
AcDbMText
 10
0.0
 20
6.6507838699
 30
0.0
 40
5.159375
 41
0.0
 71
     1
 72
     1
  1
Harmonic Drive Systems,Inc.
  7
SLDTEXTSTYLE2
 73
     1
 44
1.0
  0
MTEXT
  5
9E
330
9A
100
AcDbEntity
  8
注記
 62
     0
100
AcDbMText
 10
0.0
 20
-1.7283826103
 30
0.0
 40
5.159375
 41
0.0
 71
     1
 72
     1
  1
Ichigo Omori Bldg.,4F 6-25-3 Minami-Oi, Shinagawa-ku, Tokyo 140-0013
  7
SLDTEXTSTYLE2
 73
     1
 44
1.0
  0
MTEXT
  5
9F
330
9A
100
AcDbEntity
  8
注記
 62
     0
100
AcDbMText
 10
0.0
 20
-10.1075490904
 30
0.0
 40
5.159375
 41
0.0
 71
     1
 72
     1
  1
JAPAN
  7
SLDTEXTSTYLE2
 73
     1
 44
1.0
  0
MTEXT
  5
A0
330
9A
100
AcDbEntity
  8
注記
 62
     0
100
AcDbMText
 10
0.0
 20
-18.4867155706
 30
0.0
 40
5.159375
 41
0.0
 71
     1
 72
     1
  1
Tel.03-5471-7800 Fax.03-5471-7811
  7
SLDTEXTSTYLE2
 73
     1
 44
1.0
  0
MTEXT
  5
A1
330
9A
100
AcDbEntity
  8
注記
 62
     0
100
AcDbMText
 10
0.0
 20
-26.8658820507
 30
0.0
 40
5.159375
 41
0.0
 71
     1
 72
     1
  1
http://www.hds.co.jp
  7
SLDTEXTSTYLE2
 73
     1
 44
1.0
  0
ENDBLK
  5
9C
330
9A
100
AcDbEntity
  8
0
100
AcDbBlockEnd
  0
BLOCK
  5
A4
330
A3
100
AcDbEntity
  8
0
100
AcDbBlockBegin
  2
SW_NOTE_0_3
 70
     0
 10
0.0
 20
0.0
 30
0.0
  3
SW_NOTE_0_3
  1

  0
MTEXT
  5
A6
330
A3
100
AcDbEntity
  8
注記
 62
     0
100
AcDbMText
 10
0.0
 20
6.6507838699
 30
0.0
 40
5.159375
 41
0.0
 71
     1
 72
     1
  1
The reference drawing
  7
SLDTEXTSTYLE2
 73
     1
 44
1.0
  0
MTEXT
  5
A7
330
A3
100
AcDbEntity
  8
注記
 62
     0
100
AcDbMText
 10
0.0
 20
-1.7283826103
 30
0.0
 40
5.159375
 41
0.0
 71
     1
 72
     1
  1
All speciffcations and dimensions mentioned in the drawing are
  7
SLDTEXTSTYLE2
 73
     1
 44
1.0
  0
MTEXT
  5
A8
330
A3
100
AcDbEntity
  8
注記
 62
     0
100
AcDbMText
 10
0.0
 20
-10.1075490904
 30
0.0
 40
5.159375
 41
0.0
 71
     1
 72
     1
  1
subject to change without notification.
  7
SLDTEXTSTYLE2
 73
     1
 44
1.0
  0
MTEXT
  5
A9
330
A3
100
AcDbEntity
  8
注記
 62
     0
100
AcDbMText
 10
0.0
 20
-18.4867155706
 30
0.0
 40
5.159375
 41
0.0
 71
     1
 72
     1
  1
This drawing itself is also a property of Harmonic Drive Systems,Ins.
  7
SLDTEXTSTYLE2
 73
     1
 44
1.0
  0
ENDBLK
  5
A5
330
A3
100
AcDbEntity
  8
0
100
AcDbBlockEnd
  0
BLOCK
  5
AC
330
AB
100
AcDbEntity
  8
0
100
AcDbBlockBegin
  2
SW_NOTE_0_4
 70
     0
 10
0.0
 20
0.0
 30
0.0
  3
SW_NOTE_0_4
  1

  0
MTEXT
  5
AE
330
AB
100
AcDbEntity
  8
1
 62
     0
100
AcDbMText
 10
6.4903945312
 20
7.1623826291
 30
0.0
 40
5.55625
 41
0.0
 71
     2
 72
     1
  1
図番
  7
SLDTEXTSTYLE0
 73
     1
 44
1.0
  0
MTEXT
  5
AF
330
AB
100
AcDbEntity
  8
1
 62
     0
100
AcDbMText
 10
6.414744183
 20
-0.1756792724
 30
0.0
 40
3.96875
 41
0.0
 71
     2
 72
     1
  1
DWG No.
  7
SLDTEXTSTYLE0
 73
     1
 44
1.0
  0
ENDBLK
  5
AD
330
AB
100
AcDbEntity
  8
0
100
AcDbBlockEnd
  0
BLOCK
  5
F5
330
F4
100
AcDbEntity
  8
0
100
AcDbBlockBegin
  2
SW_CENTERMARKSYMBOL_0
 70
     0
 10
0.0
 20
0.0
 30
0.0
  3
SW_CENTERMARKSYMBOL_0
  1

  0
ARC
  5
F7
330
F4
100
AcDbEntity
  8
0
  6
Continuous
 62
     0
370
     0
100
AcDbCircle
 10
35.3553390593
 20
-35.3553390593
 30
0.0
 40
50.00000000000001
100
AcDbArc
 50
135.0
 51
138.2085636527
  0
ARC
  5
F8
330
F4
100
AcDbEntity
  8
0
  6
Continuous
 62
     0
370
     0
100
AcDbCircle
 10
35.3553390593
 20
-35.3553390593
 30
0.0
 40
50.0
100
AcDbArc
 50
131.7914363473
 51
135.0
  0
ARC
  5
F9
330
F4
100
AcDbEntity
  8
0
  6
Continuous
 62
     0
370
     0
100
AcDbCircle
 10
35.3553390593
 20
-35.3553390593
 30
0.0
 40
50.0
100
AcDbArc
 50
45.0
 51
48.2085636527
  0
ARC
  5
FA
330
F4
100
AcDbEntity
  8
0
  6
Continuous
 62
     0
370
     0
100
AcDbCircle
 10
35.3553390593
 20
-35.3553390593
 30
0.0
 40
50.0
100
AcDbArc
 50
41.7914363473
 51
45.0
  0
ARC
  5
FB
330
F4
100
AcDbEntity
  8
0
  6
Continuous
 62
     0
370
     0
100
AcDbCircle
 10
35.3553390593
 20
-35.3553390593
 30
0.0
 40
49.99999999999999
100
AcDbArc
 50
315.0
 51
318.2085636527
  0
ARC
  5
FC
330
F4
100
AcDbEntity
  8
0
  6
Continuous
 62
     0
370
     0
100
AcDbCircle
 10
35.3553390593
 20
-35.3553390593
 30
0.0
 40
49.99999999999999
100
AcDbArc
 50
311.7914363473
 51
315.0
  0
ARC
  5
FD
330
F4
100
AcDbEntity
  8
0
  6
Continuous
 62
     0
370
     0
100
AcDbCircle
 10
35.3553390593
 20
-35.3553390593
 30
0.0
 40
50.00000000000001
100
AcDbArc
 50
225.0
 51
228.2085636527
  0
ARC
  5
FE
330
F4
100
AcDbEntity
  8
0
  6
Continuous
 62
     0
370
     0
100
AcDbCircle
 10
35.3553390593
 20
-35.3553390593
 30
0.0
 40
50.00000000000001
100
AcDbArc
 50
221.7914363473
 51
225.0
  0
ARC
  5
FF
330
F4
100
AcDbEntity
  8
0
  6
CENTERX2
 62
     0
370
     0
100
AcDbCircle
 10
35.3553390593
 20
-35.3553390593
 30
0.0
 40
50.00000000000001
100
AcDbArc
 50
51.4171273055
 51
128.5828726945
  0
ARC
  5
100
330
F4
100
AcDbEntity
  8
0
  6
CENTERX2
 62
     0
370
     0
100
AcDbCircle
 10
35.3553390593
 20
-35.3553390593
 30
0.0
 40
50.00000000000001
100
AcDbArc
 50
141.4171273055
 51
218.5828726945
  0
ARC
  5
101
330
F4
100
AcDbEntity
  8
0
  6
CENTERX2
 62
     0
370
     0
100
AcDbCircle
 10
35.3553390593
 20
-35.3553390593
 30
0.0
 40
50.00000000000002
100
AcDbArc
 50
231.4171273055
 51
308.5828726945
  0
ARC
  5
102
330
F4
100
AcDbEntity
  8
0
  6
CENTERX2
 62
     0
370
     0
100
AcDbCircle
 10
35.3553390593
 20
-35.3553390593
 30
0.0
 40
50.00000000000002
100
AcDbArc
 50
321.4171273055
 51
38.5828726945
  0
LINE
  5
103
330
F4
100
AcDbEntity
  8
0
  6
Continuous
 62
     0
370
    18
100
AcDbLine
 10
0.0
 20
0.0
 30
0.0
 11
-1.9798989873
 21
1.9798989873
 31
0.0
  0
LINE
  5
104
330
F4
100
AcDbEntity
  8
0
  6
Continuous
 62
     0
370
    18
100
AcDbLine
 10
0.0
 20
0.0
 30
0.0
 11
1.9798989873
 21
-1.9798989873
 31
0.0
  0
LINE
  5
105
330
F4
100
AcDbEntity
  8
0
  6
Continuous
 62
     0
370
    18
100
AcDbLine
 10
-3.9597979746
 20
3.9597979746
 30
0.0
 11
-4.6669047558
 21
4.6669047558
 31
0.0
  0
LINE
  5
106
330
F4
100
AcDbEntity
  8
0
  6
Continuous
 62
     0
370
    18
100
AcDbLine
 10
3.9597979746
 20
-3.9597979746
 30
0.0
 11
4.6669047558
 21
-4.6669047558
 31
0.0
  0
LINE
  5
107
330
F4
100
AcDbEntity
  8
0
  6
Continuous
 62
     0
370
    18
100
AcDbLine
 10
70.7106781187
 20
0.0
 30
0.0
 11
72.690577106
 21
1.9798989873
 31
0.0
  0
LINE
  5
108
330
F4
100
AcDbEntity
  8
0
  6
Continuous
 62
     0
370
    18
100
AcDbLine
 10
70.7106781187
 20
0.0
 30
0.0
 11
68.7307791313
 21
-1.9798989873
 31
0.0
  0
LINE
  5
109
330
F4
100
AcDbEntity
  8
0
  6
Continuous
 62
     0
370
    18
100
AcDbLine
 10
74.6704760933
 20
3.9597979746
 30
0.0
 11
75.3775828745
 21
4.6669047558
 31
0.0
  0
LINE
  5
10A
330
F4
100
AcDbEntity
  8
0
  6
Continuous
 62
     0
370
    18
100
AcDbLine
 10
66.750880144
 20
-3.9597979746
 30
0.0
 11
66.0437733628
 21
-4.6669047558
 31
0.0
  0
LINE
  5
10B
330
F4
100
AcDbEntity
  8
0
  6
Continuous
 62
     0
370
    18
100
AcDbLine
 10
70.7106781187
 20
-70.7106781187
 30
0.0
 11
72.690577106
 21
-72.690577106
 31
0.0
  0
LINE
  5
10C
330
F4
100
AcDbEntity
  8
0
  6
Continuous
 62
     0
370
    18
100
AcDbLine
 10
70.7106781187
 20
-70.7106781187
 30
0.0
 11
68.7307791313
 21
-68.7307791313
 31
0.0
  0
LINE
  5
10D
330
F4
100
AcDbEntity
  8
0
  6
Continuous
 62
     0
370
    18
100
AcDbLine
 10
74.6704760933
 20
-74.6704760933
 30
0.0
 11
75.3775828745
 21
-75.3775828745
 31
0.0
  0
LINE
  5
10E
330
F4
100
AcDbEntity
  8
0
  6
Continuous
 62
     0
370
    18
100
AcDbLine
 10
66.750880144
 20
-66.750880144
 30
0.0
 11
66.0437733628
 21
-66.0437733628
 31
0.0
  0
LINE
  5
10F
330
F4
100
AcDbEntity
  8
0
  6
Continuous
 62
     0
370
    18
100
AcDbLine
 10
0.0
 20
-70.7106781187
 30
0.0
 11
-1.9798989873
 21
-72.690577106
 31
0.0
  0
LINE
  5
110
330
F4
100
AcDbEntity
  8
0
  6
Continuous
 62
     0
370
    18
100
AcDbLine
 10
0.0
 20
-70.7106781187
 30
0.0
 11
1.9798989873
 21
-68.7307791313
 31
0.0
  0
LINE
  5
111
330
F4
100
AcDbEntity
  8
0
  6
Continuous
 62
     0
370
    18
100
AcDbLine
 10
-3.9597979746
 20
-74.6704760933
 30
0.0
 11
-4.6669047558
 21
-75.3775828745
 31
0.0
  0
LINE
  5
112
330
F4
100
AcDbEntity
  8
0
  6
Continuous
 62
     0
370
    18
100
AcDbLine
 10
3.9597979746
 20
-66.750880144
 30
0.0
 11
4.6669047558
 21
-66.0437733628
 31
0.0
  0
ENDBLK
  5
F6
330
F4
100
AcDbEntity
  8
0
100
AcDbBlockEnd
  0
BLOCK
  5
115
330
114
100
AcDbEntity
  8
0
100
AcDbBlockBegin
  2
SW_CENTERMARKSYMBOL_1
 70
     0
 10
0.0
 20
0.0
 30
0.0
  3
SW_CENTERMARKSYMBOL_1
  1

  0
LINE
  5
117
330
114
100
AcDbEntity
  8
0
  6
Continuous
 62
     0
370
    18
100
AcDbLine
 10
0.0
 20
0.0
 30
0.0
 11
0.0
 21
4.0
 31
0.0
  0
LINE
  5
118
330
114
100
AcDbEntity
  8
0
  6
Continuous
 62
     0
370
    18
100
AcDbLine
 10
0.0
 20
0.0
 30
0.0
 11
-4.0
 21
0.0
 31
0.0
  0
LINE
  5
119
330
114
100
AcDbEntity
  8
0
  6
Continuous
 62
     0
370
    18
100
AcDbLine
 10
0.0
 20
0.0
 30
0.0
 11
0.0
 21
-4.0
 31
0.0
  0
LINE
  5
11A
330
114
100
AcDbEntity
  8
0
  6
Continuous
 62
     0
370
    18
100
AcDbLine
 10
0.0
 20
0.0
 30
0.0
 11
4.0
 21
0.0
 31
0.0
  0
LINE
  5
11B
330
114
100
AcDbEntity
  8
0
  6
Continuous
 62
     0
370
    18
100
AcDbLine
 10
0.0
 20
4.0
 30
0.0
 11
0.0
 21
53.688765833
 31
0.0
  0
LINE
  5
11C
330
114
100
AcDbEntity
  8
0
  6
Continuous
 62
     0
370
    18
100
AcDbLine
 10
-4.0
 20
0.0
 30
0.0
 11
-58.6558439686
 21
0.0
 31
0.0
  0
LINE
  5
11D
330
114
100
AcDbEntity
  8
0
  6
Continuous
 62
     0
370
    18
100
AcDbLine
 10
0.0
 20
-4.0
 30
0.0
 11
0.0
 21
-58.489635615
 31
0.0
  0
LINE
  5
11E
330
114
100
AcDbEntity
  8
0
  6
Continuous
 62
     0
370
    18
100
AcDbLine
 10
4.0
 20
0.0
 30
0.0
 11
58.2664202273
 21
0.0
 31
0.0
  0
ENDBLK
  5
116
330
114
100
AcDbEntity
  8
0
100
AcDbBlockEnd
  0
BLOCK
  5
227
330
226
100
AcDbEntity
  8
0
100
AcDbBlockBegin
  2
SW_CENTERMARKSYMBOL_2
 70
     0
 10
0.0
 20
0.0
 30
0.0
  3
SW_CENTERMARKSYMBOL_2
  1

  0
ARC
  5
229
330
226
100
AcDbEntity
  8
0
  6
Continuous
 62
     0
370
     0
100
AcDbCircle
 10
35.7973744641
 20
-17.8479125244
 30
0.0
 40
40.00000000000003
100
AcDbArc
 50
153.5
 51
156.3647889757
  0
ARC
  5
22A
330
226
100
AcDbEntity
  8
0
  6
Continuous
 62
     0
370
     0
100
AcDbCircle
 10
35.7973744641
 20
-17.8479125244
 30
0.0
 40
40.00000000000003
100
AcDbArc
 50
150.6352110243
 51
153.5
  0
ARC
  5
22B
330
226
100
AcDbEntity
  8
0
  6
Continuous
 62
     0
370
     0
100
AcDbCircle
 10
35.7973744641
 20
-17.8479125244
 30
0.0
 40
40.0
100
AcDbArc
 50
159.2295779513
 51
162.094366927
  0
ARC
  5
22C
330
226
100
AcDbEntity
  8
0
  6
Continuous
 62
     0
370
     0
100
AcDbCircle
 10
35.7973744641
 20
-17.8479125244
 30
0.0
 40
39.99999999999999
100
AcDbArc
 50
144.905633073
 51
147.7704220487
  0
ARC
  5
22D
330
226
100
AcDbEntity
  8
0
  6
Continuous
 62
     0
370
     0
100
AcDbCircle
 10
35.7973744641
 20
-17.8479125244
 30
0.0
 40
39.99999999999999
100
AcDbArc
 50
116.5
 51
119.3647889757
  0
ARC
  5
22E
330
226
100
AcDbEntity
  8
0
  6
Continuous
 62
     0
370
     0
100
AcDbCircle
 10
35.7973744641
 20
-17.8479125244
 30
0.0
 40
39.99999999999999
100
AcDbArc
 50
113.6352110243
 51
116.5
  0
ARC
  5
22F
330
226
100
AcDbEntity
  8
0
  6
Continuous
 62
     0
370
     0
100
AcDbCircle
 10
35.7973744641
 20
-17.8479125244
 30
0.0
 40
40.00000000000002
100
AcDbArc
 50
122.2295779513
 51
125.094366927
  0
ARC
  5
230
330
226
100
AcDbEntity
  8
0
  6
Continuous
 62
     0
370
     0
100
AcDbCircle
 10
35.7973744641
 20
-17.8479125244
 30
0.0
 40
39.99999999999999
100
AcDbArc
 50
107.905633073
 51
110.7704220487
  0
ARC
  5
231
330
226
100
AcDbEntity
  8
0
  6
Continuous
 62
     0
370
     0
100
AcDbCircle
 10
35.7973744641
 20
-17.8479125244
 30
0.0
 40
40.00000000000003
100
AcDbArc
 50
63.5
 51
66.3647889757
  0
ARC
  5
232
330
226
100
AcDbEntity
  8
0
  6
Continuous
 62
     0
370
     0
100
AcDbCircle
 10
35.7973744641
 20
-17.8479125244
 30
0.0
 40
40.00000000000003
100
AcDbArc
 50
60.6352110243
 51
63.5
  0
ARC
  5
233
330
226
100
AcDbEntity
  8
0
  6
Continuous
 62
     0
370
     0
100
AcDbCircle
 10
35.7973744641
 20
-17.8479125244
 30
0.0
 40
40.00000000000001
100
AcDbArc
 50
69.2295779513
 51
72.094366927
  0
ARC
  5
234
330
226
100
AcDbEntity
  8
0
  6
Continuous
 62
     0
370
     0
100
AcDbCircle
 10
35.7973744641
 20
-17.8479125244
 30
0.0
 40
39.99999999999999
100
AcDbArc
 50
54.905633073
 51
57.7704220487
  0
ARC
  5
235
330
226
100
AcDbEntity
  8
0
  6
Continuous
 62
     0
370
     0
100
AcDbCircle
 10
35.7973744641
 20
-17.8479125244
 30
0.0
 40
40.00000000000001
100
AcDbArc
 50
26.5
 51
29.3647889757
  0
ARC
  5
236
330
226
100
AcDbEntity
  8
0
  6
Continuous
 62
     0
370
     0
100
AcDbCircle
 10
35.7973744641
 20
-17.8479125244
 30
0.0
 40
39.99999999999999
100
AcDbArc
 50
23.6352110243
 51
26.5
  0
ARC
  5
237
330
226
100
AcDbEntity
  8
0
  6
Continuous
 62
     0
370
     0
100
AcDbCircle
 10
35.7973744641
 20
-17.8479125244
 30
0.0
 40
40.00000000000001
100
AcDbArc
 50
32.2295779513
 51
35.094366927
  0
ARC
  5
238
330
226
100
AcDbEntity
  8
0
  6
Continuous
 62
     0
370
     0
100
AcDbCircle
 10
35.7973744641
 20
-17.8479125244
 30
0.0
 40
40.00000000000003
100
AcDbArc
 50
17.905633073
 51
20.7704220487
  0
ARC
  5
239
330
226
100
AcDbEntity
  8
0
  6
Continuous
 62
     0
370
     0
100
AcDbCircle
 10
35.7973744641
 20
-17.8479125244
 30
0.0
 40
40.00000000000003
100
AcDbArc
 50
333.5
 51
336.3647889757
  0
ARC
  5
23A
330
226
100
AcDbEntity
  8
0
  6
Continuous
 62
     0
370
     0
100
AcDbCircle
 10
35.7973744641
 20
-17.8479125244
 30
0.0
 40
40.0
100
AcDbArc
 50
330.6352110243
 51
333.5
  0
ARC
  5
23B
330
226
100
AcDbEntity
  8
0
  6
Continuous
 62
     0
370
     0
100
AcDbCircle
 10
35.7973744641
 20
-17.8479125244
 30
0.0
 40
40.00000000000001
100
AcDbArc
 50
339.2295779513
 51
342.094366927
  0
ARC
  5
23C
330
226
100
AcDbEntity
  8
0
  6
Continuous
 62
     0
370
     0
100
AcDbCircle
 10
35.7973744641
 20
-17.8479125244
 30
0.0
 40
40.0
100
AcDbArc
 50
324.905633073
 51
327.7704220487
  0
ARC
  5
23D
330
226
100
AcDbEntity
  8
0
  6
Continuous
 62
     0
370
     0
100
AcDbCircle
 10
35.7973744641
 20
-17.8479125244
 30
0.0
 40
40.00000000000001
100
AcDbArc
 50
296.5
 51
299.3647889757
  0
ARC
  5
23E
330
226
100
AcDbEntity
  8
0
  6
Continuous
 62
     0
370
     0
100
AcDbCircle
 10
35.7973744641
 20
-17.8479125244
 30
0.0
 40
40.00000000000001
100
AcDbArc
 50
293.6352110243
 51
296.5
  0
ARC
  5
23F
330
226
100
AcDbEntity
  8
0
  6
Continuous
 62
     0
370
     0
100
AcDbCircle
 10
35.7973744641
 20
-17.8479125244
 30
0.0
 40
40.00000000000001
100
AcDbArc
 50
302.2295779513
 51
305.094366927
  0
ARC
  5
240
330
226
100
AcDbEntity
  8
0
  6
Continuous
 62
     0
370
     0
100
AcDbCircle
 10
35.7973744641
 20
-17.8479125244
 30
0.0
 40
40.00000000000001
100
AcDbArc
 50
287.905633073
 51
290.7704220487
  0
ARC
  5
241
330
226
100
AcDbEntity
  8
0
  6
Continuous
 62
     0
370
     0
100
AcDbCircle
 10
35.7973744641
 20
-17.8479125244
 30
0.0
 40
40.00000000000003
100
AcDbArc
 50
243.5
 51
246.3647889757
  0
ARC
  5
242
330
226
100
AcDbEntity
  8
0
  6
Continuous
 62
     0
370
     0
100
AcDbCircle
 10
35.7973744641
 20
-17.8479125244
 30
0.0
 40
40.00000000000003
100
AcDbArc
 50
240.6352110243
 51
243.5
  0
ARC
  5
243
330
226
100
AcDbEntity
  8
0
  6
Continuous
 62
     0
370
     0
100
AcDbCircle
 10
35.7973744641
 20
-17.8479125244
 30
0.0
 40
40.00000000000001
100
AcDbArc
 50
249.2295779513
 51
252.094366927
  0
ARC
  5
244
330
226
100
AcDbEntity
  8
0
  6
Continuous
 62
     0
370
     0
100
AcDbCircle
 10
35.7973744641
 20
-17.8479125244
 30
0.0
 40
40.0
100
AcDbArc
 50
234.905633073
 51
237.7704220487
  0
ARC
  5
245
330
226
100
AcDbEntity
  8
0
  6
Continuous
 62
     0
370
     0
100
AcDbCircle
 10
35.7973744641
 20
-17.8479125244
 30
0.0
 40
40.0
100
AcDbArc
 50
206.5
 51
209.3647889757
  0
ARC
  5
246
330
226
100
AcDbEntity
  8
0
  6
Continuous
 62
     0
370
     0
100
AcDbCircle
 10
35.7973744641
 20
-17.8479125244
 30
0.0
 40
39.99999999999997
100
AcDbArc
 50
203.6352110243
 51
206.5
  0
ARC
  5
247
330
226
100
AcDbEntity
  8
0
  6
Continuous
 62
     0
370
     0
100
AcDbCircle
 10
35.7973744641
 20
-17.8479125244
 30
0.0
 40
40.00000000000002
100
AcDbArc
 50
212.2295779513
 51
215.094366927
  0
ARC
  5
248
330
226
100
AcDbEntity
  8
0
  6
Continuous
 62
     0
370
     0
100
AcDbCircle
 10
35.7973744641
 20
-17.8479125244
 30
0.0
 40
40.00000000000003
100
AcDbArc
 50
197.905633073
 51
200.7704220487
  0
LINE
  5
249
330
226
100
AcDbEntity
  8
0
  6
Continuous
 62
     0
370
    18
100
AcDbLine
 10
0.0
 20
0.0
 30
0.0
 11
-1.7898687232
 21
0.8923956262
 31
0.0
  0
LINE
  5
24A
330
226
100
AcDbEntity
  8
0
  6
Continuous
 62
     0
370
    18
100
AcDbLine
 10
0.0
 20
0.0
 30
0.0
 11
1.7898687232
 21
-0.8923956262
 31
0.0
  0
LINE
  5
24B
330
226
100
AcDbEntity
  8
0
  6
Continuous
 62
     0
370
    18
100
AcDbLine
 10
-3.5797374464
 20
1.7847912524
 30
0.0
 11
-5.3696061696
 21
2.6771868787
 31
0.0
  0
LINE
  5
24C
330
226
100
AcDbEntity
  8
0
  6
Continuous
 62
     0
370
    18
100
AcDbLine
 10
3.5797374464
 20
-1.7847912524
 30
0.0
 11
5.3696061696
 21
-2.6771868787
 31
0.0
  0
LINE
  5
24D
330
226
100
AcDbEntity
  8
0
  6
Continuous
 62
     0
370
    18
100
AcDbLine
 10
17.9494619397
 20
17.9494619397
 30
0.0
 11
17.0570663135
 21
19.7393306629
 31
0.0
  0
LINE
  5
24E
330
226
100
AcDbEntity
  8
0
  6
Continuous
 62
     0
370
    18
100
AcDbLine
 10
17.9494619397
 20
17.9494619397
 30
0.0
 11
18.8418575659
 21
16.1595932165
 31
0.0
  0
LINE
  5
24F
330
226
100
AcDbEntity
  8
0
  6
Continuous
 62
     0
370
    18
100
AcDbLine
 10
16.1646706872
 20
21.5291993861
 30
0.0
 11
15.272275061
 21
23.3190681093
 31
0.0
  0
LINE
  5
250
330
226
100
AcDbEntity
  8
0
  6
Continuous
 62
     0
370
    18
100
AcDbLine
 10
19.7342531921
 20
14.3697244933
 30
0.0
 11
20.6266488183
 21
12.5798557701
 31
0.0
  0
LINE
  5
251
330
226
100
AcDbEntity
  8
0
  6
Continuous
 62
     0
370
    18
100
AcDbLine
 10
53.6452869885
 20
17.9494619397
 30
0.0
 11
54.5376826147
 21
19.7393306629
 31
0.0
  0
LINE
  5
252
330
226
100
AcDbEntity
  8
0
  6
Continuous
 62
     0
370
    18
100
AcDbLine
 10
53.6452869885
 20
17.9494619397
 30
0.0
 11
52.7528913623
 21
16.1595932165
 31
0.0
  0
LINE
  5
253
330
226
100
AcDbEntity
  8
0
  6
Continuous
 62
     0
370
    18
100
AcDbLine
 10
55.4300782409
 20
21.5291993861
 30
0.0
 11
56.3224738671
 21
23.3190681093
 31
0.0
  0
LINE
  5
254
330
226
100
AcDbEntity
  8
0
  6
Continuous
 62
     0
370
    18
100
AcDbLine
 10
51.860495736
 20
14.3697244933
 30
0.0
 11
50.9681001098
 21
12.5798557701
 31
0.0
  0
LINE
  5
255
330
226
100
AcDbEntity
  8
0
  6
Continuous
 62
     0
370
    18
100
AcDbLine
 10
71.5947489282
 20
0.0
 30
0.0
 11
73.3846176514
 21
0.8923956262
 31
0.0
  0
LINE
  5
256
330
226
100
AcDbEntity
  8
0
  6
Continuous
 62
     0
370
    18
100
AcDbLine
 10
71.5947489282
 20
0.0
 30
0.0
 11
69.804880205
 21
-0.8923956262
 31
0.0
  0
LINE
  5
257
330
226
100
AcDbEntity
  8
0
  6
Continuous
 62
     0
370
    18
100
AcDbLine
 10
75.1744863746
 20
1.7847912524
 30
0.0
 11
76.9643550978
 21
2.6771868787
 31
0.0
  0
LINE
  5
258
330
226
100
AcDbEntity
  8
0
  6
Continuous
 62
     0
370
    18
100
AcDbLine
 10
68.0150114818
 20
-1.7847912524
 30
0.0
 11
66.2251427586
 21
-2.6771868787
 31
0.0
  0
LINE
  5
259
330
226
100
AcDbEntity
  8
0
  6
Continuous
 62
     0
370
    18
100
AcDbLine
 10
71.5947489282
 20
-35.6958250488
 30
0.0
 11
73.3846176514
 21
-36.588220675
 31
0.0
  0
LINE
  5
25A
330
226
100
AcDbEntity
  8
0
  6
Continuous
 62
     0
370
    18
100
AcDbLine
 10
71.5947489282
 20
-35.6958250488
 30
0.0
 11
69.804880205
 21
-34.8034294226
 31
0.0
  0
LINE
  5
25B
330
226
100
AcDbEntity
  8
0
  6
Continuous
 62
     0
370
    18
100
AcDbLine
 10
75.1744863746
 20
-37.4806163012
 30
0.0
 11
76.9643550978
 21
-38.3730119274
 31
0.0
  0
LINE
  5
25C
330
226
100
AcDbEntity
  8
0
  6
Continuous
 62
     0
370
    18
100
AcDbLine
 10
68.0150114818
 20
-33.9110337963
 30
0.0
 11
66.2251427586
 21
-33.0186381701
 31
0.0
  0
LINE
  5
25D
330
226
100
AcDbEntity
  8
0
  6
Continuous
 62
     0
370
    18
100
AcDbLine
 10
53.6452869885
 20
-53.6452869885
 30
0.0
 11
54.5376826147
 21
-55.4351557117
 31
0.0
  0
LINE
  5
25E
330
226
100
AcDbEntity
  8
0
  6
Continuous
 62
     0
370
    18
100
AcDbLine
 10
53.6452869885
 20
-53.6452869885
 30
0.0
 11
52.7528913623
 21
-51.8554182653
 31
0.0
  0
LINE
  5
25F
330
226
100
AcDbEntity
  8
0
  6
Continuous
 62
     0
370
    18
100
AcDbLine
 10
55.4300782409
 20
-57.2250244349
 30
0.0
 11
56.3224738671
 21
-59.0148931581
 31
0.0
  0
LINE
  5
260
330
226
100
AcDbEntity
  8
0
  6
Continuous
 62
     0
370
    18
100
AcDbLine
 10
51.860495736
 20
-50.0655495421
 30
0.0
 11
50.9681001098
 21
-48.2756808189
 31
0.0
  0
LINE
  5
261
330
226
100
AcDbEntity
  8
0
  6
Continuous
 62
     0
370
    18
100
AcDbLine
 10
17.9494619397
 20
-53.6452869885
 30
0.0
 11
17.0570663135
 21
-55.4351557117
 31
0.0
  0
LINE
  5
262
330
226
100
AcDbEntity
  8
0
  6
Continuous
 62
     0
370
    18
100
AcDbLine
 10
17.9494619397
 20
-53.6452869885
 30
0.0
 11
18.8418575659
 21
-51.8554182653
 31
0.0
  0
LINE
  5
263
330
226
100
AcDbEntity
  8
0
  6
Continuous
 62
     0
370
    18
100
AcDbLine
 10
16.1646706872
 20
-57.2250244349
 30
0.0
 11
15.272275061
 21
-59.0148931581
 31
0.0
  0
LINE
  5
264
330
226
100
AcDbEntity
  8
0
  6
Continuous
 62
     0
370
    18
100
AcDbLine
 10
19.7342531921
 20
-50.0655495421
 30
0.0
 11
20.6266488183
 21
-48.2756808189
 31
0.0
  0
LINE
  5
265
330
226
100
AcDbEntity
  8
0
  6
Continuous
 62
     0
370
    18
100
AcDbLine
 10
0.0
 20
-35.6958250488
 30
0.0
 11
-1.7898687232
 21
-36.588220675
 31
0.0
  0
LINE
  5
266
330
226
100
AcDbEntity
  8
0
  6
Continuous
 62
     0
370
    18
100
AcDbLine
 10
0.0
 20
-35.6958250488
 30
0.0
 11
1.7898687232
 21
-34.8034294226
 31
0.0
  0
LINE
  5
267
330
226
100
AcDbEntity
  8
0
  6
Continuous
 62
     0
370
    18
100
AcDbLine
 10
-3.5797374464
 20
-37.4806163012
 30
0.0
 11
-5.3696061696
 21
-38.3730119274
 31
0.0
  0
LINE
  5
268
330
226
100
AcDbEntity
  8
0
  6
Continuous
 62
     0
370
    18
100
AcDbLine
 10
3.5797374464
 20
-33.9110337963
 30
0.0
 11
5.3696061696
 21
-33.0186381701
 31
0.0
  0
LINE
  5
269
330
226
100
AcDbEntity
  8
0
  6
Continuous
 62
     0
370
    18
100
AcDbLine
 10
35.7973744641
 20
-17.8479125244
 30
0.0
 11
35.7973744641
 21
-15.8479125244
 31
0.0
  0
LINE
  5
26A
330
226
100
AcDbEntity
  8
0
  6
Continuous
 62
     0
370
    18
100
AcDbLine
 10
35.7973744641
 20
-17.8479125244
 30
0.0
 11
33.7973744641
 21
-17.8479125244
 31
0.0
  0
LINE
  5
26B
330
226
100
AcDbEntity
  8
0
  6
Continuous
 62
     0
370
    18
100
AcDbLine
 10
35.7973744641
 20
-17.8479125244
 30
0.0
 11
35.7973744641
 21
-19.8479125244
 31
0.0
  0
LINE
  5
26C
330
226
100
AcDbEntity
  8
0
  6
Continuous
 62
     0
370
    18
100
AcDbLine
 10
35.7973744641
 20
-17.8479125244
 30
0.0
 11
37.7973744641
 21
-17.8479125244
 31
0.0
  0
LINE
  5
26D
330
226
100
AcDbEntity
  8
0
  6
Continuous
 62
     0
370
    18
100
AcDbLine
 10
35.7973744641
 20
-13.8479125244
 30
0.0
 11
35.7973744641
 21
35.3034558495
 31
0.0
  0
LINE
  5
26E
330
226
100
AcDbEntity
  8
0
  6
Continuous
 62
     0
370
    18
100
AcDbLine
 10
31.7973744641
 20
-17.8479125244
 30
0.0
 11
-22.3537925327
 21
-17.8479125244
 31
0.0
  0
LINE
  5
26F
330
226
100
AcDbEntity
  8
0
  6
Continuous
 62
     0
370
    18
100
AcDbLine
 10
35.7973744641
 20
-21.8479125244
 30
0.0
 11
35.7973744641
 21
-76.5999723485
 31
0.0
  0
LINE
  5
270
330
226
100
AcDbEntity
  8
0
  6
Continuous
 62
     0
370
    18
100
AcDbLine
 10
39.7973744641
 20
-17.8479125244
 30
0.0
 11
94.2217902223
 21
-17.8479125244
 31
0.0
  0
ENDBLK
  5
228
330
226
100
AcDbEntity
  8
0
100
AcDbBlockEnd
  0
BLOCK
  5
273
330
272
100
AcDbEntity
  8
0
100
AcDbBlockBegin
  2
SW_CENTERMARKSYMBOL_3
 70
     0
 10
0.0
 20
0.0
 30
0.0
  3
SW_CENTERMARKSYMBOL_3
  1

  0
ARC
  5
275
330
272
100
AcDbEntity
  8
0
  6
Continuous
 62
     0
370
     0
100
AcDbCircle
 10
24.9962247149
 20
-24.9962247149
 30
0.0
 40
35.34999999999998
100
AcDbArc
 50
135.0
 51
138.241628261
  0
ARC
  5
276
330
272
100
AcDbEntity
  8
0
  6
Continuous
 62
     0
370
     0
100
AcDbCircle
 10
24.9962247149
 20
-24.9962247149
 30
0.0
 40
35.35000000000002
100
AcDbArc
 50
131.758371739
 51
135.0
  0
ARC
  5
277
330
272
100
AcDbEntity
  8
0
  6
Continuous
 62
     0
370
     0
100
AcDbCircle
 10
24.9962247149
 20
-24.9962247149
 30
0.0
 40
35.35000000000001
100
AcDbArc
 50
45.0
 51
48.241628261
  0
ARC
  5
278
330
272
100
AcDbEntity
  8
0
  6
Continuous
 62
     0
370
     0
100
AcDbCircle
 10
24.9962247149
 20
-24.9962247149
 30
0.0
 40
35.35000000000001
100
AcDbArc
 50
41.758371739
 51
45.0
  0
ARC
  5
279
330
272
100
AcDbEntity
  8
0
  6
Continuous
 62
     0
370
     0
100
AcDbCircle
 10
24.9962247149
 20
-24.9962247149
 30
0.0
 40
35.35000000000001
100
AcDbArc
 50
225.0
 51
228.241628261
  0
ARC
  5
27A
330
272
100
AcDbEntity
  8
0
  6
Continuous
 62
     0
370
     0
100
AcDbCircle
 10
24.9962247149
 20
-24.9962247149
 30
0.0
 40
35.35000000000001
100
AcDbArc
 50
221.758371739
 51
225.0
  0
ARC
  5
27B
330
272
100
AcDbEntity
  8
0
  6
Continuous
 62
     0
370
     0
100
AcDbCircle
 10
24.9962247149
 20
-24.9962247149
 30
0.0
 40
35.34999999999998
100
AcDbArc
 50
315.0
 51
318.241628261
  0
ARC
  5
27C
330
272
100
AcDbEntity
  8
0
  6
Continuous
 62
     0
370
     0
100
AcDbCircle
 10
24.9962247149
 20
-24.9962247149
 30
0.0
 40
35.35
100
AcDbArc
 50
311.758371739
 51
315.0
  0
ARC
  5
27D
330
272
100
AcDbEntity
  8
0
  6
CENTERX2
 62
     0
370
     0
100
AcDbCircle
 10
24.9962247149
 20
-24.9962247149
 30
0.0
 40
35.35000000000002
100
AcDbArc
 50
51.483256522
 51
128.516743478
  0
ARC
  5
27E
330
272
100
AcDbEntity
  8
0
  6
CENTERX2
 62
     0
370
     0
100
AcDbCircle
 10
24.9962247149
 20
-24.9962247149
 30
0.0
 40
35.34999999999997
100
AcDbArc
 50
141.483256522
 51
218.516743478
  0
ARC
  5
27F
330
272
100
AcDbEntity
  8
0
  6
CENTERX2
 62
     0
370
     0
100
AcDbCircle
 10
24.9962247149
 20
-24.9962247149
 30
0.0
 40
35.35
100
AcDbArc
 50
231.483256522
 51
308.516743478
  0
ARC
  5
280
330
272
100
AcDbEntity
  8
0
  6
CENTERX2
 62
     0
370
     0
100
AcDbCircle
 10
24.9962247149
 20
-24.9962247149
 30
0.0
 40
35.34999999999999
100
AcDbArc
 50
321.483256522
 51
38.516743478
  0
LINE
  5
281
330
272
100
AcDbEntity
  8
0
  6
Continuous
 62
     0
370
    18
100
AcDbLine
 10
0.0
 20
0.0
 30
0.0
 11
-1.4142135624
 21
1.4142135624
 31
0.0
  0
LINE
  5
282
330
272
100
AcDbEntity
  8
0
  6
Continuous
 62
     0
370
    18
100
AcDbLine
 10
0.0
 20
0.0
 30
0.0
 11
1.4142135624
 21
-1.4142135624
 31
0.0
  0
LINE
  5
283
330
272
100
AcDbEntity
  8
0
  6
Continuous
 62
     0
370
    18
100
AcDbLine
 10
-1.4142135624
 20
1.4142135624
 30
0.0
 11
-2.5809397513
 21
2.5809397513
 31
0.0
  0
LINE
  5
284
330
272
100
AcDbEntity
  8
0
  6
Continuous
 62
     0
370
    18
100
AcDbLine
 10
1.4142135624
 20
-1.4142135624
 30
0.0
 11
2.5809397513
 21
-2.5809397513
 31
0.0
  0
LINE
  5
285
330
272
100
AcDbEntity
  8
0
  6
Continuous
 62
     0
370
    18
100
AcDbLine
 10
49.9924494299
 20
0.0
 30
0.0
 11
51.4066629923
 21
1.4142135624
 31
0.0
  0
LINE
  5
286
330
272
100
AcDbEntity
  8
0
  6
Continuous
 62
     0
370
    18
100
AcDbLine
 10
49.9924494299
 20
0.0
 30
0.0
 11
48.5782358675
 21
-1.4142135624
 31
0.0
  0
LINE
  5
287
330
272
100
AcDbEntity
  8
0
  6
Continuous
 62
     0
370
    18
100
AcDbLine
 10
51.4066629923
 20
1.4142135624
 30
0.0
 11
52.5733891812
 21
2.5809397513
 31
0.0
  0
LINE
  5
288
330
272
100
AcDbEntity
  8
0
  6
Continuous
 62
     0
370
    18
100
AcDbLine
 10
48.5782358675
 20
-1.4142135624
 30
0.0
 11
47.4115096786
 21
-2.5809397513
 31
0.0
  0
LINE
  5
289
330
272
100
AcDbEntity
  8
0
  6
Continuous
 62
     0
370
    18
100
AcDbLine
 10
0.0
 20
-49.9924494299
 30
0.0
 11
-1.4142135624
 21
-51.4066629923
 31
0.0
  0
LINE
  5
28A
330
272
100
AcDbEntity
  8
0
  6
Continuous
 62
     0
370
    18
100
AcDbLine
 10
0.0
 20
-49.9924494299
 30
0.0
 11
1.4142135624
 21
-48.5782358675
 31
0.0
  0
LINE
  5
28B
330
272
100
AcDbEntity
  8
0
  6
Continuous
 62
     0
370
    18
100
AcDbLine
 10
-1.4142135624
 20
-51.4066629923
 30
0.0
 11
-2.5809397513
 21
-52.5733891812
 31
0.0
  0
LINE
  5
28C
330
272
100
AcDbEntity
  8
0
  6
Continuous
 62
     0
370
    18
100
AcDbLine
 10
1.4142135624
 20
-48.5782358675
 30
0.0
 11
2.5809397513
 21
-47.4115096786
 31
0.0
  0
LINE
  5
28D
330
272
100
AcDbEntity
  8
0
  6
Continuous
 62
     0
370
    18
100
AcDbLine
 10
49.9924494299
 20
-49.9924494299
 30
0.0
 11
51.4066629923
 21
-51.4066629923
 31
0.0
  0
LINE
  5
28E
330
272
100
AcDbEntity
  8
0
  6
Continuous
 62
     0
370
    18
100
AcDbLine
 10
49.9924494299
 20
-49.9924494299
 30
0.0
 11
48.5782358675
 21
-48.5782358675
 31
0.0
  0
LINE
  5
28F
330
272
100
AcDbEntity
  8
0
  6
Continuous
 62
     0
370
    18
100
AcDbLine
 10
51.4066629923
 20
-51.4066629923
 30
0.0
 11
52.5733891812
 21
-52.5733891812
 31
0.0
  0
LINE
  5
290
330
272
100
AcDbEntity
  8
0
  6
Continuous
 62
     0
370
    18
100
AcDbLine
 10
48.5782358675
 20
-48.5782358675
 30
0.0
 11
47.4115096786
 21
-47.4115096786
 31
0.0
  0
ENDBLK
  5
274
330
272
100
AcDbEntity
  8
0
100
AcDbBlockEnd
  0
BLOCK
  5
293
330
292
100
AcDbEntity
  8
0
100
AcDbBlockBegin
  2
SW_CENTERMARKSYMBOL_4
 70
     0
 10
0.0
 20
0.0
 30
0.0
  3
SW_CENTERMARKSYMBOL_4
  1

  0
LINE
  5
295
330
292
100
AcDbEntity
  8
0
  6
Continuous
 62
     0
370
    18
100
AcDbLine
 10
0.0
 20
0.0
 30
0.0
 11
0.0
 21
2.0
 31
0.0
  0
LINE
  5
296
330
292
100
AcDbEntity
  8
0
  6
Continuous
 62
     0
370
    18
100
AcDbLine
 10
0.0
 20
0.0
 30
0.0
 11
-2.0
 21
0.0
 31
0.0
  0
LINE
  5
297
330
292
100
AcDbEntity
  8
0
  6
Continuous
 62
     0
370
    18
100
AcDbLine
 10
0.0
 20
0.0
 30
0.0
 11
0.0
 21
-2.0
 31
0.0
  0
LINE
  5
298
330
292
100
AcDbEntity
  8
0
  6
Continuous
 62
     0
370
    18
100
AcDbLine
 10
0.0
 20
0.0
 30
0.0
 11
2.0
 21
0.0
 31
0.0
  0
LINE
  5
299
330
292
100
AcDbEntity
  8
0
  6
Continuous
 62
     0
370
    18
100
AcDbLine
 10
0.0
 20
2.0
 30
0.0
 11
0.0
 21
3.65
 31
0.0
  0
LINE
  5
29A
330
292
100
AcDbEntity
  8
0
  6
Continuous
 62
     0
370
    18
100
AcDbLine
 10
-2.0
 20
0.0
 30
0.0
 11
-3.65
 21
0.0
 31
0.0
  0
LINE
  5
29B
330
292
100
AcDbEntity
  8
0
  6
Continuous
 62
     0
370
    18
100
AcDbLine
 10
0.0
 20
-49.9924494299
 30
0.0
 11
0.0
 21
-47.9924494299
 31
0.0
  0
LINE
  5
29C
330
292
100
AcDbEntity
  8
0
  6
Continuous
 62
     0
370
    18
100
AcDbLine
 10
0.0
 20
-49.9924494299
 30
0.0
 11
-2.0
 21
-49.9924494299
 31
0.0
  0
LINE
  5
29D
330
292
100
AcDbEntity
  8
0
  6
Continuous
 62
     0
370
    18
100
AcDbLine
 10
0.0
 20
-49.9924494299
 30
0.0
 11
0.0
 21
-51.9924494299
 31
0.0
  0
LINE
  5
29E
330
292
100
AcDbEntity
  8
0
  6
Continuous
 62
     0
370
    18
100
AcDbLine
 10
0.0
 20
-49.9924494299
 30
0.0
 11
2.0
 21
-49.9924494299
 31
0.0
  0
LINE
  5
29F
330
292
100
AcDbEntity
  8
0
  6
Continuous
 62
     0
370
    18
100
AcDbLine
 10
-2.0
 20
-49.9924494299
 30
0.0
 11
-3.65
 21
-49.9924494299
 31
0.0
  0
LINE
  5
2A0
330
292
100
AcDbEntity
  8
0
  6
Continuous
 62
     0
370
    18
100
AcDbLine
 10
0.0
 20
-51.9924494299
 30
0.0
 11
0.0
 21
-53.6424494299
 31
0.0
  0
LINE
  5
2A1
330
292
100
AcDbEntity
  8
0
  6
Continuous
 62
     0
370
    18
100
AcDbLine
 10
49.9924494299
 20
-49.9924494299
 30
0.0
 11
49.9924494299
 21
-47.9924494299
 31
0.0
  0
LINE
  5
2A2
330
292
100
AcDbEntity
  8
0
  6
Continuous
 62
     0
370
    18
100
AcDbLine
 10
49.9924494299
 20
-49.9924494299
 30
0.0
 11
47.9924494299
 21
-49.9924494299
 31
0.0
  0
LINE
  5
2A3
330
292
100
AcDbEntity
  8
0
  6
Continuous
 62
     0
370
    18
100
AcDbLine
 10
49.9924494299
 20
-49.9924494299
 30
0.0
 11
49.9924494299
 21
-51.9924494299
 31
0.0
  0
LINE
  5
2A4
330
292
100
AcDbEntity
  8
0
  6
Continuous
 62
     0
370
    18
100
AcDbLine
 10
49.9924494299
 20
-49.9924494299
 30
0.0
 11
51.9924494299
 21
-49.9924494299
 31
0.0
  0
LINE
  5
2A5
330
292
100
AcDbEntity
  8
0
  6
Continuous
 62
     0
370
    18
100
AcDbLine
 10
49.9924494299
 20
-51.9924494299
 30
0.0
 11
49.9924494299
 21
-53.6424494299
 31
0.0
  0
LINE
  5
2A6
330
292
100
AcDbEntity
  8
0
  6
Continuous
 62
     0
370
    18
100
AcDbLine
 10
51.9924494299
 20
-49.9924494299
 30
0.0
 11
53.6424494299
 21
-49.9924494299
 31
0.0
  0
LINE
  5
2A7
330
292
100
AcDbEntity
  8
0
  6
Continuous
 62
     0
370
    18
100
AcDbLine
 10
49.9924494299
 20
0.0
 30
0.0
 11
49.9924494299
 21
2.0
 31
0.0
  0
LINE
  5
2A8
330
292
100
AcDbEntity
  8
0
  6
Continuous
 62
     0
370
    18
100
AcDbLine
 10
49.9924494299
 20
0.0
 30
0.0
 11
47.9924494299
 21
0.0
 31
0.0
  0
LINE
  5
2A9
330
292
100
AcDbEntity
  8
0
  6
Continuous
 62
     0
370
    18
100
AcDbLine
 10
49.9924494299
 20
0.0
 30
0.0
 11
49.9924494299
 21
-2.0
 31
0.0
  0
LINE
  5
2AA
330
292
100
AcDbEntity
  8
0
  6
Continuous
 62
     0
370
    18
100
AcDbLine
 10
49.9924494299
 20
0.0
 30
0.0
 11
51.9924494299
 21
0.0
 31
0.0
  0
LINE
  5
2AB
330
292
100
AcDbEntity
  8
0
  6
Continuous
 62
     0
370
    18
100
AcDbLine
 10
49.9924494299
 20
2.0
 30
0.0
 11
49.9924494299
 21
3.65
 31
0.0
  0
LINE
  5
2AC
330
292
100
AcDbEntity
  8
0
  6
Continuous
 62
     0
370
    18
100
AcDbLine
 10
51.9924494299
 20
0.0
 30
0.0
 11
53.6424494299
 21
0.0
 31
0.0
  0
LINE
  5
2AD
330
292
100
AcDbEntity
  8
0
  6
CENTERX2
 62
     0
370
    18
100
AcDbLine
 10
0.0
 20
-45.9924494299
 30
0.0
 11
0.0
 21
-4.0
 31
0.0
  0
LINE
  5
2AE
330
292
100
AcDbEntity
  8
0
  6
CENTERX2
 62
     0
370
    18
100
AcDbLine
 10
4.0
 20
-49.9924494299
 30
0.0
 11
45.9924494299
 21
-49.9924494299
 31
0.0
  0
LINE
  5
2AF
330
292
100
AcDbEntity
  8
0
  6
CENTERX2
 62
     0
370
    18
100
AcDbLine
 10
4.0
 20
0.0
 30
0.0
 11
45.9924494299
 21
0.0
 31
0.0
  0
LINE
  5
2B0
330
292
100
AcDbEntity
  8
0
  6
CENTERX2
 62
     0
370
    18
100
AcDbLine
 10
49.9924494299
 20
-45.9924494299
 30
0.0
 11
49.9924494299
 21
-4.0
 31
0.0
  0
ENDBLK
  5
294
330
292
100
AcDbEntity
  8
0
100
AcDbBlockEnd
  0
BLOCK
  5
2B3
330
2B2
100
AcDbEntity
  8
0
100
AcDbBlockBegin
  2
SW_CENTERMARKSYMBOL_5
 70
     0
 10
0.0
 20
0.0
 30
0.0
  3
SW_CENTERMARKSYMBOL_5
  1

  0
ARC
  5
2B5
330
2B2
100
AcDbEntity
  8
0
  6
Continuous
 62
     0
370
     0
100
AcDbCircle
 10
35.3553390593
 20
-35.3553390593
 30
0.0
 40
50.00000000000001
100
AcDbArc
 50
135.0
 51
137.2918311805
  0
ARC
  5
2B6
330
2B2
100
AcDbEntity
  8
0
  6
Continuous
 62
     0
370
     0
100
AcDbCircle
 10
35.3553390593
 20
-35.3553390593
 30
0.0
 40
50.00000000000002
100
AcDbArc
 50
132.7081688195
 51
135.0
  0
ARC
  5
2B7
330
2B2
100
AcDbEntity
  8
0
  6
Continuous
 62
     0
370
     0
100
AcDbCircle
 10
35.3553390593
 20
-35.3553390593
 30
0.0
 40
50.00000000000001
100
AcDbArc
 50
139.583662361
 51
141.6463104235
  0
ARC
  5
2B8
330
2B2
100
AcDbEntity
  8
0
  6
Continuous
 62
     0
370
     0
100
AcDbCircle
 10
35.3553390593
 20
-35.3553390593
 30
0.0
 40
50.00000000000002
100
AcDbArc
 50
128.3536895765
 51
130.416337639
  0
ARC
  5
2B9
330
2B2
100
AcDbEntity
  8
0
  6
Continuous
 62
     0
370
     0
100
AcDbCircle
 10
35.3553390593
 20
-35.3553390593
 30
0.0
 40
50.00000000000001
100
AcDbArc
 50
225.0
 51
227.2918311805
  0
ARC
  5
2BA
330
2B2
100
AcDbEntity
  8
0
  6
Continuous
 62
     0
370
     0
100
AcDbCircle
 10
35.3553390593
 20
-35.3553390593
 30
0.0
 40
50.00000000000002
100
AcDbArc
 50
222.7081688195
 51
225.0
  0
ARC
  5
2BB
330
2B2
100
AcDbEntity
  8
0
  6
Continuous
 62
     0
370
     0
100
AcDbCircle
 10
35.3553390593
 20
-35.3553390593
 30
0.0
 40
50.00000000000003
100
AcDbArc
 50
229.583662361
 51
231.6463104235
  0
ARC
  5
2BC
330
2B2
100
AcDbEntity
  8
0
  6
Continuous
 62
     0
370
     0
100
AcDbCircle
 10
35.3553390593
 20
-35.3553390593
 30
0.0
 40
50.00000000000001
100
AcDbArc
 50
218.3536895765
 51
220.416337639
  0
ARC
  5
2BD
330
2B2
100
AcDbEntity
  8
0
  6
Continuous
 62
     0
370
     0
100
AcDbCircle
 10
35.3553390593
 20
-35.3553390593
 30
0.0
 40
50.00000000000003
100
AcDbArc
 50
315.0
 51
317.2918311805
  0
ARC
  5
2BE
330
2B2
100
AcDbEntity
  8
0
  6
Continuous
 62
     0
370
     0
100
AcDbCircle
 10
35.3553390593
 20
-35.3553390593
 30
0.0
 40
50.00000000000001
100
AcDbArc
 50
312.7081688195
 51
315.0
  0
ARC
  5
2BF
330
2B2
100
AcDbEntity
  8
0
  6
Continuous
 62
     0
370
     0
100
AcDbCircle
 10
35.3553390593
 20
-35.3553390593
 30
0.0
 40
50.00000000000002
100
AcDbArc
 50
319.583662361
 51
321.6463104235
  0
ARC
  5
2C0
330
2B2
100
AcDbEntity
  8
0
  6
Continuous
 62
     0
370
     0
100
AcDbCircle
 10
35.3553390593
 20
-35.3553390593
 30
0.0
 40
49.99999999999999
100
AcDbArc
 50
308.3536895765
 51
310.416337639
  0
ARC
  5
2C1
330
2B2
100
AcDbEntity
  8
0
  6
Continuous
 62
     0
370
     0
100
AcDbCircle
 10
35.3553390593
 20
-35.3553390593
 30
0.0
 40
50.0
100
AcDbArc
 50
45.0
 51
47.2918311805
  0
ARC
  5
2C2
330
2B2
100
AcDbEntity
  8
0
  6
Continuous
 62
     0
370
     0
100
AcDbCircle
 10
35.3553390593
 20
-35.3553390593
 30
0.0
 40
50.00000000000001
100
AcDbArc
 50
42.7081688195
 51
45.0
  0
ARC
  5
2C3
330
2B2
100
AcDbEntity
  8
0
  6
Continuous
 62
     0
370
     0
100
AcDbCircle
 10
35.3553390593
 20
-35.3553390593
 30
0.0
 40
50.00000000000003
100
AcDbArc
 50
49.583662361
 51
51.6463104235
  0
ARC
  5
2C4
330
2B2
100
AcDbEntity
  8
0
  6
Continuous
 62
     0
370
     0
100
AcDbCircle
 10
35.3553390593
 20
-35.3553390593
 30
0.0
 40
50.00000000000004
100
AcDbArc
 50
38.3536895765
 51
40.416337639
  0
LINE
  5
2C5
330
2B2
100
AcDbEntity
  8
0
  6
Continuous
 62
     0
370
    18
100
AcDbLine
 10
0.0
 20
0.0
 30
0.0
 11
-1.4142135624
 21
1.4142135624
 31
0.0
  0
LINE
  5
2C6
330
2B2
100
AcDbEntity
  8
0
  6
Continuous
 62
     0
370
    18
100
AcDbLine
 10
0.0
 20
0.0
 30
0.0
 11
1.4142135624
 21
-1.4142135624
 31
0.0
  0
LINE
  5
2C7
330
2B2
100
AcDbEntity
  8
0
  6
Continuous
 62
     0
370
    18
100
AcDbLine
 10
-2.8284271247
 20
2.8284271247
 30
0.0
 11
-4.1012193309
 21
4.1012193309
 31
0.0
  0
LINE
  5
2C8
330
2B2
100
AcDbEntity
  8
0
  6
Continuous
 62
     0
370
    18
100
AcDbLine
 10
2.8284271247
 20
-2.8284271247
 30
0.0
 11
4.1012193309
 21
-4.1012193309
 31
0.0
  0
LINE
  5
2C9
330
2B2
100
AcDbEntity
  8
0
  6
Continuous
 62
     0
370
    18
100
AcDbLine
 10
0.0
 20
-70.7106781187
 30
0.0
 11
-1.4142135624
 21
-72.124891681
 31
0.0
  0
LINE
  5
2CA
330
2B2
100
AcDbEntity
  8
0
  6
Continuous
 62
     0
370
    18
100
AcDbLine
 10
0.0
 20
-70.7106781187
 30
0.0
 11
1.4142135624
 21
-69.2964645563
 31
0.0
  0
LINE
  5
2CB
330
2B2
100
AcDbEntity
  8
0
  6
Continuous
 62
     0
370
    18
100
AcDbLine
 10
-2.8284271247
 20
-73.5391052434
 30
0.0
 11
-4.1012193309
 21
-74.8118974495
 31
0.0
  0
LINE
  5
2CC
330
2B2
100
AcDbEntity
  8
0
  6
Continuous
 62
     0
370
    18
100
AcDbLine
 10
2.8284271247
 20
-67.8822509939
 30
0.0
 11
4.1012193309
 21
-66.6094587878
 31
0.0
  0
LINE
  5
2CD
330
2B2
100
AcDbEntity
  8
0
  6
Continuous
 62
     0
370
    18
100
AcDbLine
 10
70.7106781187
 20
-70.7106781187
 30
0.0
 11
72.124891681
 21
-72.124891681
 31
0.0
  0
LINE
  5
2CE
330
2B2
100
AcDbEntity
  8
0
  6
Continuous
 62
     0
370
    18
100
AcDbLine
 10
70.7106781187
 20
-70.7106781187
 30
0.0
 11
69.2964645563
 21
-69.2964645563
 31
0.0
  0
LINE
  5
2CF
330
2B2
100
AcDbEntity
  8
0
  6
Continuous
 62
     0
370
    18
100
AcDbLine
 10
73.5391052434
 20
-73.5391052434
 30
0.0
 11
74.8118974495
 21
-74.8118974495
 31
0.0
  0
LINE
  5
2D0
330
2B2
100
AcDbEntity
  8
0
  6
Continuous
 62
     0
370
    18
100
AcDbLine
 10
67.8822509939
 20
-67.8822509939
 30
0.0
 11
66.6094587878
 21
-66.6094587878
 31
0.0
  0
LINE
  5
2D1
330
2B2
100
AcDbEntity
  8
0
  6
Continuous
 62
     0
370
    18
100
AcDbLine
 10
70.7106781187
 20
0.0
 30
0.0
 11
72.124891681
 21
1.4142135624
 31
0.0
  0
LINE
  5
2D2
330
2B2
100
AcDbEntity
  8
0
  6
Continuous
 62
     0
370
    18
100
AcDbLine
 10
70.7106781187
 20
0.0
 30
0.0
 11
69.2964645563
 21
-1.4142135624
 31
0.0
  0
LINE
  5
2D3
330
2B2
100
AcDbEntity
  8
0
  6
Continuous
 62
     0
370
    18
100
AcDbLine
 10
73.5391052434
 20
2.8284271247
 30
0.0
 11
74.8118974495
 21
4.1012193309
 31
0.0
  0
LINE
  5
2D4
330
2B2
100
AcDbEntity
  8
0
  6
Continuous
 62
     0
370
    18
100
AcDbLine
 10
67.8822509939
 20
-2.8284271247
 30
0.0
 11
66.6094587878
 21
-4.1012193309
 31
0.0
  0
ENDBLK
  5
2B4
330
2B2
100
AcDbEntity
  8
0
100
AcDbBlockEnd
  0
BLOCK
  5
411
330
410
100
AcDbEntity
  8
0
100
AcDbBlockBegin
  2
SW_HATCH_0
 70
     0
 10
0.0
 20
0.0
 30
0.0
  3
SW_HATCH_0
  1

  0
LINE
  5
413
330
410
100
AcDbEntity
  8
0
  6
Continuous
 62
     0
370
    18
100
AcDbLine
 10
0.0
 20
0.0
 30
0.0
 11
-12.8021538258
 21
-12.8021519631
 31
0.0
  0
LINE
  5
414
330
410
100
AcDbEntity
  8
0
  6
Continuous
 62
     0
370
    18
100
AcDbLine
 10
-3.1009912491
 20
-7.5911171734
 30
0.0
 11
-12.8990039229
 21
-17.3891298473
 31
0.0
  0
LINE
  5
415
330
410
100
AcDbEntity
  8
0
  6
Continuous
 62
     0
370
    18
100
AcDbLine
 10
6.9107934833
 20
2.4206684902
 30
0.0
 11
-1.7892047763
 21
-6.2793307006
 31
0.0
  0
LINE
  5
416
330
410
100
AcDbEntity
  8
0
  6
Continuous
 62
     0
370
    18
100
AcDbLine
 10
-0.5990788341
 20
-9.5793306828
 30
0.0
 11
-8.5990764201
 21
-17.5793319941
 31
0.0
  0
LINE
  5
417
330
410
100
AcDbEntity
  8
0
  6
Continuous
 62
     0
370
    18
100
AcDbLine
 10
11.1872069538
 20
2.2069551051
 30
0.0
 11
2.7009211481
 21
-6.2793307006
 31
0.0
  0
LINE
  5
418
330
410
100
AcDbEntity
  8
0
  6
Continuous
 62
     0
370
    18
100
AcDbLine
 10
3.8910508156
 20
-9.5793306828
 30
0.0
 11
-4.1089504957
 21
-17.5793319941
 31
0.0
  0
LINE
  5
419
330
410
100
AcDbEntity
  8
0
  6
Continuous
 62
     0
370
    18
100
AcDbLine
 10
11.1872069538
 20
-2.2831736133
 30
0.0
 11
7.1910507977
 21
-6.2793307006
 31
0.0
  0
LINE
  5
41A
330
410
100
AcDbEntity
  8
0
  6
Continuous
 62
     0
370
    18
100
AcDbLine
 10
8.3811767399
 20
-9.5793306828
 30
0.0
 11
-1.7158053815
 21
-19.6763165295
 31
0.0
  0
LINE
  5
41B
330
410
100
AcDbEntity
  8
0
  6
Continuous
 62
     0
370
    18
100
AcDbLine
 10
11.1872069538
 20
-11.2634301186
 30
0.0
 11
0.5292594433
 21
-21.9213813543
 31
0.0
  0
LINE
  5
41C
330
410
100
AcDbEntity
  8
0
  6
Continuous
 62
     0
370
    18
100
AcDbLine
 10
11.1872069538
 20
-15.7535579056
 30
0.0
 11
4.361435771
 21
-22.579330951
 31
0.0
  0
LINE
  5
41D
330
410
100
AcDbEntity
  8
0
  6
Continuous
 62
     0
370
    18
100
AcDbLine
 10
11.1872069538
 20
-20.2436856925
 30
0.0
 11
8.8515616953
 21
-22.579330951
 31
0.0
  0
ENDBLK
  5
412
330
410
100
AcDbEntity
  8
0
100
AcDbBlockEnd
  0
ENDSEC
  0
SECTION
  2
ENTITIES
  0
LINE
  5
7A
330
1F
100
AcDbEntity
  8
0
  6
Continuous
 62
     7
370
    18
100
AcDbLine
 10
478.1926971996
 20
64.8261487692
 30
0.0
 11
478.1926971996
 21
12.8714133178
 31
0.0
  0
LINE
  5
7B
330
1F
100
AcDbEntity
  8
0
  6
Continuous
 62
     7
370
    50
100
AcDbLine
 10
12.6908500829
 20
99.4012987775
 30
0.0
 11
292.6190356097
 21
99.4012987775
 31
0.0
  0
LINE
  5
7C
330
1F
100
AcDbEntity
  8
0
  6
Continuous
 62
     7
370
    50
100
AcDbLine
 10
12.6908500829
 20
99.4012987775
 30
0.0
 11
12.6908500829
 21
12.8714133178
 31
0.0
  0
LINE
  5
7D
330
1F
100
AcDbEntity
  8
0
  6
Continuous
 62
     7
370
    50
100
AcDbLine
 10
12.6908500829
 20
12.8714133178
 30
0.0
 11
292.6190356097
 21
12.8714133178
 31
0.0
  0
LINE
  5
7E
330
1F
100
AcDbEntity
  8
0
  6
Continuous
 62
     7
370
    50
100
AcDbLine
 10
292.6190356097
 20
99.4012987775
 30
0.0
 11
292.6190356097
 21
12.8714133178
 31
0.0
  0
LINE
  5
7F
330
1F
100
AcDbEntity
  8
0
  6
Continuous
 62
     7
370
    35
100
AcDbLine
 10
615.0128130851
 20
12.8714133178
 30
0.0
 11
450.0128130851
 21
12.8714133178
 31
0.0
  0
LINE
  5
80
330
1F
100
AcDbEntity
  8
0
  6
Continuous
 62
     7
370
    18
100
AcDbLine
 10
450.0128130851
 20
47.5058873504
 30
0.0
 11
615.0128130851
 21
47.5058873504
 31
0.0
  0
LINE
  5
81
330
1F
100
AcDbEntity
  8
1
  6
Continuous
 62
     7
100
AcDbLine
 10
450.0128130851
 20
28.6214133178
 30
0.0
 11
615.0128130851
 21
28.6214133178
 31
0.0
  0
LINE
  5
82
330
1F
100
AcDbEntity
  8
1
  6
Continuous
 62
     7
100
AcDbLine
 10
588.9890885422
 20
18.8714133178
 30
0.0
 11
594.9890885422
 21
18.8714133178
 31
0.0
  0
LINE
  5
83
330
1F
100
AcDbEntity
  8
1
  6
Continuous
 62
     7
370
    35
100
AcDbLine
 10
615.0128130851
 20
64.8261487692
 30
0.0
 11
450.0128130851
 21
64.8261487692
 31
0.0
  0
LINE
  5
84
330
1F
100
AcDbEntity
  8
1
  6
Continuous
 62
     7
370
    35
100
AcDbLine
 10
450.0128130851
 20
64.8261487692
 30
0.0
 11
450.0128130851
 21
12.8714133178
 31
0.0
  0
LINE
  5
85
330
1F
100
AcDbEntity
  8
1
  6
Continuous
 62
     7
370
    50
100
AcDbLine
 10
615.0128130851
 20
64.8261487692
 30
0.0
 11
615.0128130851
 21
12.8714133178
 31
0.0
  0
LINE
  5
86
330
1F
100
AcDbEntity
  8
SLD-0
 62
     7
100
AcDbLine
 10
615.0128130851
 20
64.8261487692
 30
0.0
 11
579.652769745
 21
64.8261487692
 31
0.0
  0
LINE
  5
87
330
1F
100
AcDbEntity
  8
SLD-0
 62
     7
100
AcDbLine
 10
615.0128130851
 20
64.8261487692
 30
0.0
 11
489.0640101056
 21
64.8261487692
 31
0.0
  0
INSERT
  5
8E
330
1F
100
AcDbEntity
  8
1
 62
     7
100
AcDbBlockReference
  2
SW_NOTE_0
 10
452.5826756771
 20
37.3246593043
 30
0.0
  0
INSERT
  5
95
330
1F
100
AcDbEntity
  8
1
 62
     7
100
AcDbBlockReference
  2
SW_NOTE_0_1
 10
452.723787811
 20
55.7399807499
 30
0.0
  0
MTEXT
  5
97
330
1F
100
AcDbEntity
  8
SLD-0
 62
     7
100
AcDbMText
 10
547.4238112628
 20
58.4703052325
 30
0.0
 40
5.55625
 41
0.0
 71
     2
 72
     1
  1
2023/04/06
  7
SLDTEXTSTYLE2
 73
     1
 44
1.0
  0
MTEXT
  5
98
330
1F
100
AcDbEntity
  8
SLD-0
 62
     7
100
AcDbMText
 10
547.4027731545
 20
23.6340506504
 30
0.0
 40
7.14375
 41
0.0
 71
     2
 72
     1
  1
C013427
  7
SLDTEXTSTYLE2
 73
     1
 44
1.0
  0
MTEXT
  5
99
330
1F
100
AcDbEntity
  8
SLD-0
 62
     7
100
AcDbMText
 10
546.8007600761
 20
40.0944976389
 30
0.0
 40
6.35
 41
0.0
 71
     2
 72
     1
  1
HPN-20A-xxx-J6AHC-BI2-BL3
  7
SLDTEXTSTYLE2
 73
     1
 44
1.0
  0
INSERT
  5
A2
330
1F
100
AcDbEntity
  8
注記
100
AcDbBlockReference
  2
SW_NOTE_0_2
 10
29.1823341264
 20
50.5654720704
 30
0.0
  0
INSERT
  5
AA
330
1F
100
AcDbEntity
  8
注記
100
AcDbBlockReference
  2
SW_NOTE_0_3
 10
29.1823341264
 20
87.9202820519
 30
0.0
  0
INSERT
  5
B0
330
1F
100
AcDbEntity
  8
1
 62
     7
100
AcDbBlockReference
  2
SW_NOTE_0_4
 10
456.8634272148
 20
19.7296348506
 30
0.0
  0
ARC
  5
B1
330
1F
100
AcDbEntity
  8
0
  6
Continuous
 62
     7
370
    35
100
AcDbCircle
 10
135.4110465752
 20
255.5730525795
 30
0.0
 40
43.86948162655876
100
AcDbArc
 50
89.1670628717
 51
90.052079284
  0
LINE
  5
B2
330
1F
100
AcDbEntity
  8
0
  6
Continuous
 62
     7
370
    35
100
AcDbLine
 10
135.3711711969
 20
299.4425160836
 30
0.0
 11
89.3711711969
 21
299.4425160836
 31
0.0
  0
ARC
  5
B3
330
1F
100
AcDbEntity
  8
0
  6
Continuous
 62
     7
370
    35
100
AcDbCircle
 10
89.3312958187
 20
255.5730525817
 30
0.0
 40
43.86948162433705
100
AcDbArc
 50
89.947920716
 51
90.8329371283
  0
ARC
  5
B4
330
1F
100
AcDbEntity
  8
0
  6
Continuous
 62
     7
370
    35
100
AcDbCircle
 10
112.3711711969
 20
254.4378986265
 30
0.0
 40
50.00000000000002
100
AcDbArc
 50
41.2177918694
 51
48.7822081306
  0
ARC
  5
B5
330
1F
100
AcDbEntity
  8
0
  6
Continuous
 62
     7
370
    35
100
AcDbCircle
 10
112.3711711969
 20
254.4378986265
 30
0.0
 40
50.00000000000001
100
AcDbArc
 50
334.1580672368
 51
25.8419327632
  0
ARC
  5
B6
330
1F
100
AcDbEntity
  8
0
  6
Continuous
 62
     7
370
    35
100
AcDbCircle
 10
112.3711711969
 20
254.4378986265
 30
0.0
 40
50.00000000000002
100
AcDbArc
 50
311.2177918694
 51
318.7822081306
  0
ARC
  5
B7
330
1F
100
AcDbEntity
  8
0
  6
Continuous
 62
     7
370
    35
100
AcDbCircle
 10
112.3711711969
 20
254.4378986265
 30
0.0
 40
50.00000000000001
100
AcDbArc
 50
244.1580672368
 51
295.8419327632
  0
ARC
  5
B8
330
1F
100
AcDbEntity
  8
0
  6
Continuous
 62
     7
370
    35
100
AcDbCircle
 10
112.3711711969
 20
254.4378986265
 30
0.0
 40
50.00000000000002
100
AcDbArc
 50
221.2177918694
 51
228.7822081306
  0
ARC
  5
B9
330
1F
100
AcDbEntity
  8
0
  6
Continuous
 62
     7
370
    35
100
AcDbCircle
 10
112.3711711969
 20
254.4378986265
 30
0.0
 40
50.00000000000001
100
AcDbArc
 50
154.1580672368
 51
205.8419327632
  0
ARC
  5
BA
330
1F
100
AcDbEntity
  8
0
  6
Continuous
 62
     7
370
    35
100
AcDbCircle
 10
112.3711711969
 20
254.4378986265
 30
0.0
 40
50.00000000000003
100
AcDbArc
 50
131.2177918694
 51
138.7822081306
  0
ARC
  5
BB
330
1F
100
AcDbEntity
  8
0
  6
Continuous
 62
     7
370
    35
100
AcDbCircle
 10
112.3711711969
 20
254.4378986265
 30
0.0
 40
13.45334450846919
100
AcDbArc
 50
0.0
 51
77.1151198598
  0
ARC
  5
BC
330
1F
100
AcDbEntity
  8
0
  6
Continuous
 62
     7
370
    35
100
AcDbCircle
 10
112.3711711969
 20
254.4378986265
 30
0.0
 40
13.45334450846919
100
AcDbArc
 50
102.8848801402
 51
0.0
  0
CIRCLE
  5
BD
330
1F
100
AcDbEntity
  8
0
  6
Continuous
 62
     7
370
    35
100
AcDbCircle
 10
112.3711711969
 20
254.4378986265
 30
0.0
 40
33.5381197846483
  0
CIRCLE
  5
BE
330
1F
100
AcDbEntity
  8
0
  6
Continuous
 62
     7
370
    35
100
AcDbCircle
 10
112.3711711969
 20
254.4378986265
 30
0.0
 40
34.0
  0
LINE
  5
BF
330
1F
100
AcDbEntity
  8
0
  6
Continuous
 62
     7
370
    35
100
AcDbLine
 10
109.6211711969
 20
267.9378986265
 30
0.0
 11
115.1211711969
 21
267.9378986265
 31
0.0
  0
LINE
  5
C0
330
1F
100
AcDbEntity
  8
0
  6
Continuous
 62
     7
370
    35
100
AcDbLine
 10
115.1211711969
 20
267.9378986265
 30
0.0
 11
115.3711711969
 21
267.6878986265
 31
0.0
  0
LINE
  5
C1
330
1F
100
AcDbEntity
  8
0
  6
Continuous
 62
     7
370
    35
100
AcDbLine
 10
115.3711711969
 20
267.6878986265
 30
0.0
 11
109.3711711969
 21
267.6878986265
 31
0.0
  0
LINE
  5
C2
330
1F
100
AcDbEntity
  8
0
  6
Continuous
 62
     7
370
    35
100
AcDbLine
 10
109.3711711969
 20
267.6878986265
 30
0.0
 11
109.6211711969
 21
267.9378986265
 31
0.0
  0
LINE
  5
C3
330
1F
100
AcDbEntity
  8
0
  6
Continuous
 62
     7
370
    35
100
AcDbLine
 10
115.3711711969
 20
267.6878986265
 30
0.0
 11
115.3711711969
 21
262.1878986265
 31
0.0
  0
LINE
  5
C4
330
1F
100
AcDbEntity
  8
0
  6
Continuous
 62
     7
370
    35
100
AcDbLine
 10
109.3711711969
 20
262.1878986265
 30
0.0
 11
115.3711711969
 21
262.1878986265
 31
0.0
  0
LINE
  5
C5
330
1F
100
AcDbEntity
  8
0
  6
Continuous
 62
     7
370
    35
100
AcDbLine
 10
109.3711711969
 20
267.6878986265
 30
0.0
 11
109.3711711969
 21
262.1878986265
 31
0.0
  0
LINE
  5
C6
330
1F
100
AcDbEntity
  8
0
  6
Continuous
 62
     7
370
    35
100
AcDbLine
 10
115.3711711969
 20
262.1878986265
 30
0.0
 11
115.1211711969
 21
261.9378986265
 31
0.0
  0
LINE
  5
C7
330
1F
100
AcDbEntity
  8
0
  6
Continuous
 62
     7
370
    35
100
AcDbLine
 10
109.6211711969
 20
261.9378986265
 30
0.0
 11
109.3711711969
 21
262.1878986265
 31
0.0
  0
CIRCLE
  5
C8
330
1F
100
AcDbEntity
  8
0
  6
Continuous
 62
     7
370
    35
100
AcDbCircle
 10
112.3711711969
 20
254.4378986265
 30
0.0
 40
38.0
  0
CIRCLE
  5
C9
330
1F
100
AcDbEntity
  8
0
  6
Continuous
 62
     7
370
    35
100
AcDbCircle
 10
112.3711711969
 20
254.4378986265
 30
0.0
 40
34.72794046853241
  0
CIRCLE
  5
CA
330
1F
100
AcDbEntity
  8
0
  6
Continuous
 62
     7
370
    35
100
AcDbCircle
 10
112.3711711969
 20
254.4378986265
 30
0.0
 40
39.0
  0
CIRCLE
  5
CB
330
1F
100
AcDbEntity
  8
0
  6
Continuous
 62
     7
370
    35
100
AcDbCircle
 10
112.3711711969
 20
254.4378986265
 30
0.0
 40
39.99999999999997
  0
CIRCLE
  5
CC
330
1F
100
AcDbEntity
  8
0
  6
Continuous
 62
     7
370
    35
100
AcDbCircle
 10
77.0158321376
 20
289.7932376859
 30
0.0
 40
3.799999999999997
  0
CIRCLE
  5
CD
330
1F
100
AcDbEntity
  8
0
  6
Continuous
 62
     7
370
    35
100
AcDbCircle
 10
77.0158321376
 20
289.7932376859
 30
0.0
 40
3.299999999999997
  0
CIRCLE
  5
CE
330
1F
100
AcDbEntity
  8
0
  6
Continuous
 62
     7
370
    35
100
AcDbCircle
 10
77.0158321376
 20
219.0825595672
 30
0.0
 40
3.799999999999997
  0
CIRCLE
  5
CF
330
1F
100
AcDbEntity
  8
0
  6
Continuous
 62
     7
370
    35
100
AcDbCircle
 10
77.0158321376
 20
219.0825595672
 30
0.0
 40
3.299999999999983
  0
ARC
  5
D0
330
1F
100
AcDbEntity
  8
0
  6
Continuous
 62
     7
370
    35
100
AcDbCircle
 10
76.3711711969
 20
218.4378986265
 30
0.0
 40
9.0
100
AcDbArc
 50
180.0
 51
270.0
  0
ARC
  5
D1
330
1F
100
AcDbEntity
  8
0
  6
Continuous
 62
     7
370
    35
100
AcDbCircle
 10
76.3711711969
 20
218.4378986265
 30
0.0
 40
8.5
100
AcDbArc
 50
180.0
 51
270.0
  0
LINE
  5
D2
330
1F
100
AcDbEntity
  8
0
  6
Continuous
 62
     7
370
    35
100
AcDbLine
 10
148.3711711969
 20
298.9378986265
 30
0.0
 11
76.3711711969
 21
298.9378986265
 31
0.0
  0
LINE
  5
D3
330
1F
100
AcDbEntity
  8
0
  6
Continuous
 62
     7
370
    35
100
AcDbLine
 10
148.3711711969
 20
299.4378986265
 30
0.0
 11
76.3711711969
 21
299.4378986265
 31
0.0
  0
CIRCLE
  5
D4
330
1F
100
AcDbEntity
  8
0
  6
Continuous
 62
     7
370
    35
100
AcDbCircle
 10
147.7265102563
 20
289.7932376859
 30
0.0
 40
3.799999999999983
  0
CIRCLE
  5
D5
330
1F
100
AcDbEntity
  8
0
  6
Continuous
 62
     7
370
    35
100
AcDbCircle
 10
147.7265102563
 20
219.0825595672
 30
0.0
 40
3.800000000000011
  0
ARC
  5
D6
330
1F
100
AcDbEntity
  8
0
  6
Continuous
 62
     7
370
    35
100
AcDbCircle
 10
148.3711711969
 20
290.4378986265
 30
0.0
 40
8.5
100
AcDbArc
 50
0.0
 51
90.0
  0
LINE
  5
D7
330
1F
100
AcDbEntity
  8
0
  6
Continuous
 62
     7
370
    35
100
AcDbLine
 10
156.8711711969
 20
218.4378986265
 30
0.0
 11
156.8711711969
 21
290.4378986265
 31
0.0
  0
ARC
  5
D8
330
1F
100
AcDbEntity
  8
0
  6
Continuous
 62
     7
370
    35
100
AcDbCircle
 10
148.3711711969
 20
218.4378986265
 30
0.0
 40
8.500000000000028
100
AcDbArc
 50
270.0
 51
0.0
  0
LINE
  5
D9
330
1F
100
AcDbEntity
  8
0
  6
Continuous
 62
     7
370
    35
100
AcDbLine
 10
76.3711711969
 20
209.9378986265
 30
0.0
 11
148.3711711969
 21
209.9378986265
 31
0.0
  0
LINE
  5
DA
330
1F
100
AcDbEntity
  8
0
  6
Continuous
 62
     7
370
    35
100
AcDbLine
 10
67.8711711969
 20
290.4378986265
 30
0.0
 11
67.8711711969
 21
218.4378986265
 31
0.0
  0
ARC
  5
DB
330
1F
100
AcDbEntity
  8
0
  6
Continuous
 62
     7
370
    35
100
AcDbCircle
 10
76.3711711969
 20
290.4378986265
 30
0.0
 40
8.500000000000057
100
AcDbArc
 50
90.0
 51
180.0
  0
LINE
  5
DC
330
1F
100
AcDbEntity
  8
0
  6
Continuous
 62
     7
370
    35
100
AcDbLine
 10
157.3711711969
 20
218.4378986265
 30
0.0
 11
157.3711711969
 21
290.4378986265
 31
0.0
  0
LINE
  5
DD
330
1F
100
AcDbEntity
  8
0
  6
Continuous
 62
     7
370
    35
100
AcDbLine
 10
76.3711711969
 20
209.4378986265
 30
0.0
 11
148.3711711969
 21
209.4378986265
 31
0.0
  0
CIRCLE
  5
DE
330
1F
100
AcDbEntity
  8
0
  6
Continuous
 62
     7
370
    35
100
AcDbCircle
 10
147.7265102563
 20
219.0825595672
 30
0.0
 40
3.299999999999983
  0
LINE
  5
DF
330
1F
100
AcDbEntity
  8
0
  6
Continuous
 62
     7
370
    35
100
AcDbLine
 10
67.3711711969
 20
290.4378986265
 30
0.0
 11
67.3711711969
 21
218.4378986265
 31
0.0
  0
ARC
  5
E0
330
1F
100
AcDbEntity
  8
0
  6
Continuous
 62
     7
370
    35
100
AcDbCircle
 10
148.3711711969
 20
290.4378986265
 30
0.0
 40
9.0
100
AcDbArc
 50
0.0
 51
90.0
  0
ARC
  5
E1
330
1F
100
AcDbEntity
  8
0
  6
Continuous
 62
     7
370
    35
100
AcDbCircle
 10
148.3711711969
 20
218.4378986265
 30
0.0
 40
9.0
100
AcDbArc
 50
270.0
 51
0.0
  0
ARC
  5
E2
330
1F
100
AcDbEntity
  8
0
  6
Continuous
 62
     7
370
    35
100
AcDbCircle
 10
76.3711711969
 20
290.4378986265
 30
0.0
 40
9.0
100
AcDbArc
 50
90.0
 51
180.0
  0
CIRCLE
  5
E3
330
1F
100
AcDbEntity
  8
0
  6
Continuous
 62
     7
370
    35
100
AcDbCircle
 10
147.7265102563
 20
289.7932376859
 30
0.0
 40
3.300000000000011
  0
CIRCLE
  5
E4
330
1F
100
AcDbEntity
  8
0
  6
Continuous
 62
     7
370
    35
100
AcDbCircle
 10
112.3711711969
 20
254.4378986265
 30
0.0
 40
5.749999999999986
  0
CIRCLE
  5
E5
330
1F
100
AcDbEntity
  8
0
  6
Continuous
 62
     7
370
    35
100
AcDbCircle
 10
112.3711711969
 20
254.4378986265
 30
0.0
 40
5.099999999999994
  0
SPLINE
  5
E6
330
1F
100
AcDbEntity
  8
0
  6
Continuous
 62
     7
370
    35
100
AcDbSpline
210
0.0
220
0.0
230
1.0
 70
     8
 71
     3
 72
    12
 73
     8
 74
     0
 42
0.00000001
 43
0.00000001
 40
0.0
 40
0.0
 40
0.0
 40
0.0
 40
0.5000000000000037
 40
0.5000000000000037
 40
0.7500000000000018
 40
0.7500000000000018
 40
1.0
 40
1.0
 40
1.0
 40
1.0
 10
109.3711711969306
 20
264.8070837439794
 30
0.0
 10
109.3711711969306
 20
264.8520281219709
 30
0.0
 10
109.3534712413979
 20
264.8939114445511
 30
0.0
 10
109.3015814323002
 20
264.9411474504808
 30
0.0
 10
109.2794427896237
 20
264.9544064245512
 30
0.0
 10
109.2260251023302
 20
264.9687758714132
 30
0.0
 10
109.194624092566
 20
264.9693058599079
 30
0.0
 10
109.16452913051
 20
264.96013444682
 30
0.0
  0
ARC
  5
E7
330
1F
100
AcDbEntity
  8
0
  6
Continuous
 62
     7
370
    35
100
AcDbCircle
 10
112.3711711969
 20
254.4378986265
 30
0.0
 40
10.50000000000003
100
AcDbArc
 50
106.601549599
 51
73.398450401
  0
SPLINE
  5
E8
330
1F
100
AcDbEntity
  8
0
  6
Continuous
 62
     7
370
    35
100
AcDbSpline
210
0.0
220
0.0
230
1.0
 70
     8
 71
     3
 72
    12
 73
     8
 74
     0
 42
0.00000001
 43
0.00000001
 40
0.0
 40
0.0
 40
0.0
 40
0.0
 40
0.2499999999999995
 40
0.2499999999999995
 40
0.499999999999999
 40
0.499999999999999
 40
1.0
 40
1.0
 40
1.0
 40
1.0
 10
115.5778132633513
 20
264.96013444682
 30
0.0
 10
115.5477671161045
 20
264.9692909836379
 30
0.0
 10
115.5164198519437
 20
264.9687695698994
 30
0.0
 10
115.4631627106743
 20
264.9545108591227
 30
0.0
 10
115.4411241174262
 20
264.9413983846215
 30
0.0
 10
115.3890307012124
 20
264.8942139703597
 30
0.0
 10
115.3711711969304
 20
264.8519734831623
 30
0.0
 10
115.3711711969303
 20
264.8070837439794
 30
0.0
  0
ARC
  5
E9
330
1F
100
AcDbEntity
  8
0
  6
Continuous
 62
     7
370
    35
100
AcDbCircle
 10
112.3711711969
 20
254.4378986265
 30
0.0
 40
11.00000000000001
100
AcDbArc
 50
106.9485537716
 51
73.0514462284
  0
LINE
  5
EA
330
1F
100
AcDbEntity
  8
0
  6
Continuous
 62
     7
370
    35
100
AcDbLine
 10
115.3711711969
 20
261.9378986265
 30
0.0
 11
115.3711711969
 21
264.5002045253
 31
0.0
  0
LINE
  5
EB
330
1F
100
AcDbEntity
  8
0
  6
Continuous
 62
     7
370
    35
100
AcDbLine
 10
109.3711711969
 20
261.9378986265
 30
0.0
 11
109.3711711969
 21
264.5002045253
 31
0.0
  0
LINE
  5
EC
330
1F
100
AcDbEntity
  8
0
  6
Continuous
 62
     7
370
    35
100
AcDbLine
 10
109.3711711969
 20
261.9378986265
 30
0.0
 11
115.3711711969
 21
261.9378986265
 31
0.0
  0
CIRCLE
  5
ED
330
1F
100
AcDbEntity
  8
0
  6
Continuous
 62
     7
370
    35
100
AcDbCircle
 10
112.3711711969
 20
254.4378986265
 30
0.0
 40
3.499999999999986
  0
SPLINE
  5
EE
330
1F
100
AcDbEntity
  8
0
  6
Continuous
 62
     7
370
    35
100
AcDbSpline
210
0.0
220
0.0
230
1.0
 70
     8
 71
     3
 72
    10
 73
     6
 74
     0
 42
0.00000001
 43
0.00000001
 40
0.0
 40
0.0
 40
0.0
 40
0.0
 40
0.4615195938546279
 40
0.9231114436470951
 40
1.0
 40
1.0
 40
1.0
 40
1.0
 10
109.16452913051
 20
264.96013444682
 30
0.0
 10
109.1744672176703
 20
264.9631211660998
 30
0.0
 10
109.1943449479071
 20
264.9690950722632
 30
0.0
 10
109.2761256852059
 20
264.9944052052221
 30
0.0
 10
109.3592955375625
 20
265.0173245725133
 30
0.0
 10
109.3711711969306
 20
265.0205971838162
 30
0.0
  0
SPLINE
  5
EF
330
1F
100
AcDbEntity
  8
0
  6
Continuous
 62
     7
370
    35
100
AcDbSpline
210
0.0
220
0.0
230
1.0
 70
     8
 71
     3
 72
    10
 73
     6
 74
     0
 42
0.00000001
 43
0.00000001
 40
0.0
 40
0.0
 40
0.0
 40
0.0
 40
0.1043653638557104
 40
0.5886990793812041
 40
1.0
 40
1.0
 40
1.0
 40
1.0
 10
115.3711711969306
 20
265.0205623600178
 30
0.0
 10
115.3869864495896
 20
265.0162007731589
 30
0.0
 10
115.4761963592432
 20
264.9915981456812
 30
0.0
 10
115.5534023628396
 20
264.9673214432417
 30
0.0
 10
115.5701309979162
 20
264.9623962402416
 30
0.0
 10
115.5778132633513
 20
264.96013444682
 30
0.0
  0
ARC
  5
F0
330
1F
100
AcDbEntity
  8
0
  6
Continuous
 62
     7
370
    35
100
AcDbCircle
 10
112.3711711969
 20
254.4378986265
 30
0.0
 40
11.87264973081038
100
AcDbArc
 50
0.0
 51
75.363748268
  0
ARC
  5
F1
330
1F
100
AcDbEntity
  8
0
  6
Continuous
 62
     7
370
    35
100
AcDbCircle
 10
112.3711711969
 20
254.4378986265
 30
0.0
 40
11.87264973081038
100
AcDbArc
 50
104.636251732
 51
0.0
  0
ARC
  5
F2
330
1F
100
AcDbEntity
  8
0
  6
Continuous
 62
     7
370
    35
100
AcDbCircle
 10
112.3711711969
 20
254.4378986265
 30
0.0
 40
12.45000000000002
100
AcDbArc
 50
0.0
 51
76.0565651392
  0
ARC
  5
F3
330
1F
100
AcDbEntity
  8
0
  6
Continuous
 62
     7
370
    35
100
AcDbCircle
 10
112.3711711969
 20
254.4378986265
 30
0.0
 40
12.45000000000002
100
AcDbArc
 50
103.9434348608
 51
0.0
  0
INSERT
  5
113
330
1F
100
AcDbEntity
  8
0
  6
Continuous
 62
     7
370
     0
100
AcDbBlockReference
  2
SW_CENTERMARKSYMBOL_0
 10
77.0158321376
 20
289.7932376859
 30
0.0
  0
INSERT
  5
11F
330
1F
100
AcDbEntity
  8
0
  6
Continuous
 62
     7
370
     0
100
AcDbBlockReference
  2
SW_CENTERMARKSYMBOL_1
 10
112.3711711969
 20
254.4378986265
 30
0.0
  0
CIRCLE
  5
120
330
1F
100
AcDbEntity
  8
0
  6
Continuous
 62
     7
370
     0
100
AcDbCircle
 10
112.3711711969
 20
254.4378986265
 30
0.0
 40
4.0
  0
ARC
  5
121
330
1F
100
AcDbEntity
  8
0
  6
Continuous
 62
     7
370
    35
100
AcDbCircle
 10
551.4109705255
 20
298.4378986265
 30
0.0
 40
0.5000000000001137
100
AcDbArc
 50
0.0
 51
90.0
  0
ARC
  5
122
330
1F
100
AcDbEntity
  8
0
  6
Continuous
 62
     7
370
    35
100
AcDbCircle
 10
531.4109705255
 20
298.4378986265
 30
0.0
 40
0.5
100
AcDbArc
 50
90.0
 51
180.0
  0
LINE
  5
123
330
1F
100
AcDbEntity
  8
0
  6
Continuous
 62
     7
370
    35
100
AcDbLine
 10
551.9109705255
 20
296.9378986265
 30
0.0
 11
551.9109705255
 21
298.4378986265
 31
0.0
  0
LINE
  5
124
330
1F
100
AcDbEntity
  8
0
  6
Continuous
 62
     7
370
    35
100
AcDbLine
 10
530.9109705255
 20
298.4378986265
 30
0.0
 11
530.9109705255
 21
296.9378986265
 31
0.0
  0
LINE
  5
125
330
1F
100
AcDbEntity
  8
0
  6
Continuous
 62
     7
370
    35
100
AcDbLine
 10
532.4109705255
 20
253.9378986265
 30
0.0
 11
532.4109705255
 21
254.9378986265
 31
0.0
  0
LINE
  5
126
330
1F
100
AcDbEntity
  8
0
  6
Continuous
 62
     7
370
    35
100
AcDbLine
 10
529.9888345567
 20
299.2411849945
 30
0.0
 11
527.8593078082
 21
298.3166308017
 31
0.0
  0
LINE
  5
127
330
1F
100
AcDbEntity
  8
0
  6
Continuous
 62
     7
370
    35
100
AcDbLine
 10
564.9626332429
 20
298.3166308017
 30
0.0
 11
562.8331064944
 21
299.2411849945
 31
0.0
  0
ARC
  5
128
330
1F
100
AcDbEntity
  8
0
  6
Continuous
 62
     7
370
    35
100
AcDbCircle
 10
530.0087468234
 20
299.1953210475
 30
0.0
 40
0.0500000000000114
100
AcDbArc
 50
90.0
 51
113.4685315404
  0
ARC
  5
129
330
1F
100
AcDbEntity
  8
0
  6
Continuous
 62
     7
370
    35
100
AcDbCircle
 10
562.8131942277
 20
299.1953210475
 30
0.0
 40
0.0500000000000351
100
AcDbArc
 50
66.5314684595
 51
90.0
  0
LINE
  5
12A
330
1F
100
AcDbEntity
  8
0
  6
Continuous
 62
     7
370
    35
100
AcDbLine
 10
570.4109705255
 20
299.2982807041
 30
0.0
 11
570.4109705255
 21
299.3482730888
 31
0.0
  0
ARC
  5
12B
330
1F
100
AcDbEntity
  8
0
  6
Continuous
 62
     7
370
    35
100
AcDbCircle
 10
569.6608943789
 20
313.6185897271
 30
0.0
 40
14.33993949570825
100
AcDbArc
 50
269.0013690757
 51
272.9983263765
  0
ARC
  5
12C
330
1F
100
AcDbEntity
  8
0
  6
Continuous
 62
     7
370
    35
100
AcDbCircle
 10
569.6608943789
 20
313.668582112
 30
0.0
 40
14.33993949580978
100
AcDbArc
 50
269.0013690757
 51
272.9983263765
  0
LINE
  5
12D
330
1F
100
AcDbEntity
  8
0
  6
Continuous
 62
     7
370
    35
100
AcDbLine
 10
569.4109705255
 20
299.2808282976
 30
0.0
 11
523.4109705255
 21
299.2808282976
 31
0.0
  0
LINE
  5
12E
330
1F
100
AcDbEntity
  8
0
  6
Continuous
 62
     7
370
    35
100
AcDbLine
 10
569.4109705255
 20
299.3308206824
 30
0.0
 11
523.4109705255
 21
299.3308206824
 31
0.0
  0
ARC
  5
12F
330
1F
100
AcDbEntity
  8
0
  6
Continuous
 62
     7
370
    35
100
AcDbCircle
 10
523.1610466721
 20
313.6685821119
 30
0.0
 40
14.33993949572774
100
AcDbArc
 50
267.0016736235
 51
270.9986309243
  0
LINE
  5
130
330
1F
100
AcDbEntity
  8
0
  6
Continuous
 62
     7
370
    35
100
AcDbLine
 10
522.4109705255
 20
299.3482730888
 30
0.0
 11
522.4109705255
 21
299.4250636772
 31
0.0
  0
ARC
  5
131
330
1F
100
AcDbEntity
  8
0
  6
Continuous
 62
     7
370
    35
100
AcDbCircle
 10
523.1610466721
 20
285.1047546541
 30
0.0
 40
14.33993949572801
100
AcDbArc
 50
89.0013690757
 51
92.9983263765
  0
LINE
  5
132
330
1F
100
AcDbEntity
  8
0
  6
Continuous
 62
     7
370
    35
100
AcDbLine
 10
523.4109705255
 20
299.4425160836
 30
0.0
 11
569.4109705255
 21
299.4425160836
 31
0.0
  0
ARC
  5
133
330
1F
100
AcDbEntity
  8
0
  6
Continuous
 62
     7
370
    35
100
AcDbCircle
 10
569.6608943789
 20
285.1047546541
 30
0.0
 40
14.33993949573154
100
AcDbArc
 50
87.0016736235
 51
90.9986309243
  0
LINE
  5
134
330
1F
100
AcDbEntity
  8
0
  6
Continuous
 62
     7
370
    35
100
AcDbLine
 10
570.4109705255
 20
299.4250636772
 30
0.0
 11
570.4109705255
 21
299.3482730888
 31
0.0
  0
ARC
  5
135
330
1F
100
AcDbEntity
  8
0
  6
Continuous
 62
     7
370
    35
100
AcDbCircle
 10
523.1610466721
 20
313.6185897271
 30
0.0
 40
14.33993949566688
100
AcDbArc
 50
267.0016736235
 51
270.9986309244
  0
LINE
  5
136
330
1F
100
AcDbEntity
  8
0
  6
Continuous
 62
     7
370
    35
100
AcDbLine
 10
522.4109705255
 20
299.2982807041
 30
0.0
 11
522.4109705255
 21
299.3482730888
 31
0.0
  0
LINE
  5
137
330
1F
100
AcDbEntity
  8
0
  6
Continuous
 62
     7
370
    35
100
AcDbLine
 10
531.4109705255
 20
298.9378986265
 30
0.0
 11
551.4109705255
 21
298.9378986265
 31
0.0
  0
LINE
  5
138
330
1F
100
AcDbEntity
  8
0
  6
Continuous
 62
     7
370
    35
100
AcDbLine
 10
527.7696117244
 20
217.0491171311
 30
0.0
 11
529.5445337796
 21
217.1576760146
 31
0.0
  0
LINE
  5
139
330
1F
100
AcDbEntity
  8
0
  6
Continuous
 62
     7
370
    35
100
AcDbLine
 10
529.5445337796
 20
217.1576760146
 30
0.0
 11
530.3379800564
 21
218.7490830459
 31
0.0
  0
LINE
  5
13A
330
1F
100
AcDbEntity
  8
0
  6
Continuous
 62
     7
370
    35
100
AcDbLine
 10
530.3379800564
 20
218.7490830459
 30
0.0
 11
529.3565042779
 21
220.2319311937
 31
0.0
  0
LINE
  5
13B
330
1F
100
AcDbEntity
  8
0
  6
Continuous
 62
     7
370
    35
100
AcDbLine
 10
529.3565042779
 20
220.2319311937
 30
0.0
 11
527.5815822226
 21
220.1233723103
 31
0.0
  0
LINE
  5
13C
330
1F
100
AcDbEntity
  8
0
  6
Continuous
 62
     7
370
    35
100
AcDbLine
 10
527.5815822226
 20
220.1233723103
 30
0.0
 11
526.7881359459
 21
218.531965279
 31
0.0
  0
LINE
  5
13D
330
1F
100
AcDbEntity
  8
0
  6
Continuous
 62
     7
370
    35
100
AcDbLine
 10
526.7881359459
 20
218.531965279
 30
0.0
 11
527.7696117244
 21
217.0491171311
 31
0.0
  0
CIRCLE
  5
13E
330
1F
100
AcDbEntity
  8
0
  6
Continuous
 62
     7
370
    35
100
AcDbCircle
 10
528.5630580011
 20
218.6405241624
 30
0.0
 40
3.610000000000041
  0
LINE
  5
13F
330
1F
100
AcDbEntity
  8
0
  6
Continuous
 62
     7
370
    35
100
AcDbLine
 10
565.0523293266
 20
291.8266801219
 30
0.0
 11
563.2774072714
 21
291.7181212384
 31
0.0
  0
LINE
  5
140
330
1F
100
AcDbEntity
  8
0
  6
Continuous
 62
     7
370
    35
100
AcDbLine
 10
563.2774072714
 20
291.7181212384
 30
0.0
 11
562.4839609947
 21
290.1267142071
 31
0.0
  0
LINE
  5
141
330
1F
100
AcDbEntity
  8
0
  6
Continuous
 62
     7
370
    35
100
AcDbLine
 10
562.4839609947
 20
290.1267142071
 30
0.0
 11
563.4654367732
 21
288.6438660593
 31
0.0
  0
LINE
  5
142
330
1F
100
AcDbEntity
  8
0
  6
Continuous
 62
     7
370
    35
100
AcDbLine
 10
563.4654367732
 20
288.6438660593
 30
0.0
 11
565.2403588284
 21
288.7524249428
 31
0.0
  0
LINE
  5
143
330
1F
100
AcDbEntity
  8
0
  6
Continuous
 62
     7
370
    35
100
AcDbLine
 10
565.2403588284
 20
288.7524249428
 30
0.0
 11
566.0338051051
 21
290.3438319741
 31
0.0
  0
LINE
  5
144
330
1F
100
AcDbEntity
  8
0
  6
Continuous
 62
     7
370
    35
100
AcDbLine
 10
566.0338051051
 20
290.3438319741
 30
0.0
 11
565.0523293266
 21
291.8266801219
 31
0.0
  0
CIRCLE
  5
145
330
1F
100
AcDbEntity
  8
0
  6
Continuous
 62
     7
370
    35
100
AcDbCircle
 10
564.2588830499
 20
290.2352730906
 30
0.0
 40
3.609999999999951
  0
CIRCLE
  5
146
330
1F
100
AcDbEntity
  8
0
  6
Continuous
 62
     7
370
    35
100
AcDbCircle
 10
510.6135960614
 20
272.2858111509
 30
0.0
 40
3.609999999999977
  0
LINE
  5
147
330
1F
100
AcDbEntity
  8
0
  6
Continuous
 62
     7
370
    35
100
AcDbLine
 10
509.0221890301
 20
273.0792574277
 30
0.0
 11
509.1307479136
 21
271.3043353724
 31
0.0
  0
LINE
  5
148
330
1F
100
AcDbEntity
  8
0
  6
Continuous
 62
     7
370
    35
100
AcDbLine
 10
510.7221549449
 20
270.5108890957
 30
0.0
 11
512.2050030927
 21
271.4923648742
 31
0.0
  0
LINE
  5
149
330
1F
100
AcDbEntity
  8
0
  6
Continuous
 62
     7
370
    35
100
AcDbLine
 10
510.505037178
 20
274.0607332062
 30
0.0
 11
509.0221890301
 21
273.0792574277
 31
0.0
  0
LINE
  5
14A
330
1F
100
AcDbEntity
  8
0
  6
Continuous
 62
     7
370
    35
100
AcDbLine
 10
509.1307479136
 20
271.3043353724
 30
0.0
 11
510.7221549449
 21
270.5108890957
 31
0.0
  0
LINE
  5
14B
330
1F
100
AcDbEntity
  8
0
  6
Continuous
 62
     7
370
    35
100
AcDbLine
 10
512.2050030927
 20
271.4923648742
 30
0.0
 11
512.0964442093
 21
273.2672869294
 31
0.0
  0
LINE
  5
14C
330
1F
100
AcDbEntity
  8
0
  6
Continuous
 62
     7
370
    35
100
AcDbLine
 10
512.0964442093
 20
273.2672869294
 30
0.0
 11
510.505037178
 21
274.0607332062
 31
0.0
  0
CIRCLE
  5
14D
330
1F
100
AcDbEntity
  8
0
  6
Continuous
 62
     7
370
    35
100
AcDbCircle
 10
582.2083449896
 20
272.2858111509
 30
0.0
 40
3.610000000000002
  0
LINE
  5
14E
330
1F
100
AcDbEntity
  8
0
  6
Continuous
 62
     7
370
    35
100
AcDbLine
 10
580.6169379583
 20
271.4923648742
 30
0.0
 11
582.0997861061
 21
270.5108890957
 31
0.0
  0
LINE
  5
14F
330
1F
100
AcDbEntity
  8
0
  6
Continuous
 62
     7
370
    35
100
AcDbLine
 10
582.0997861061
 20
270.5108890957
 30
0.0
 11
583.6911931374
 21
271.3043353724
 31
0.0
  0
LINE
  5
150
330
1F
100
AcDbEntity
  8
0
  6
Continuous
 62
     7
370
    35
100
AcDbLine
 10
583.6911931374
 20
271.3043353724
 30
0.0
 11
583.7997520209
 21
273.0792574277
 31
0.0
  0
LINE
  5
151
330
1F
100
AcDbEntity
  8
0
  6
Continuous
 62
     7
370
    35
100
AcDbLine
 10
583.7997520209
 20
273.0792574277
 30
0.0
 11
582.3169038731
 21
274.0607332062
 31
0.0
  0
LINE
  5
152
330
1F
100
AcDbEntity
  8
0
  6
Continuous
 62
     7
370
    35
100
AcDbLine
 10
582.3169038731
 20
274.0607332062
 30
0.0
 11
580.7254968418
 21
273.2672869294
 31
0.0
  0
LINE
  5
153
330
1F
100
AcDbEntity
  8
0
  6
Continuous
 62
     7
370
    35
100
AcDbLine
 10
580.7254968418
 20
273.2672869294
 30
0.0
 11
580.6169379583
 21
271.4923648742
 31
0.0
  0
CIRCLE
  5
154
330
1F
100
AcDbEntity
  8
0
  6
Continuous
 62
     7
370
    35
100
AcDbCircle
 10
582.2083449896
 20
236.5899861021
 30
0.0
 40
3.609999999999977
  0
LINE
  5
155
330
1F
100
AcDbEntity
  8
0
  6
Continuous
 62
     7
370
    35
100
AcDbLine
 10
583.7997520209
 20
235.7965398254
 30
0.0
 11
583.6911931374
 21
237.5714618806
 31
0.0
  0
LINE
  5
156
330
1F
100
AcDbEntity
  8
0
  6
Continuous
 62
     7
370
    35
100
AcDbLine
 10
582.0997861061
 20
238.3649081574
 30
0.0
 11
580.6169379583
 21
237.3834323789
 31
0.0
  0
LINE
  5
157
330
1F
100
AcDbEntity
  8
0
  6
Continuous
 62
     7
370
    35
100
AcDbLine
 10
580.6169379583
 20
237.3834323789
 30
0.0
 11
580.7254968418
 21
235.6085103236
 31
0.0
  0
LINE
  5
158
330
1F
100
AcDbEntity
  8
0
  6
Continuous
 62
     7
370
    35
100
AcDbLine
 10
580.7254968418
 20
235.6085103236
 30
0.0
 11
582.3169038731
 21
234.8150640469
 31
0.0
  0
LINE
  5
159
330
1F
100
AcDbEntity
  8
0
  6
Continuous
 62
     7
370
    35
100
AcDbLine
 10
582.3169038731
 20
234.8150640469
 30
0.0
 11
583.7997520209
 21
235.7965398254
 31
0.0
  0
LINE
  5
15A
330
1F
100
AcDbEntity
  8
0
  6
Continuous
 62
     7
370
    35
100
AcDbLine
 10
583.6911931374
 20
237.5714618806
 30
0.0
 11
582.0997861061
 21
238.3649081574
 31
0.0
  0
LINE
  5
15B
330
1F
100
AcDbEntity
  8
0
  6
Continuous
 62
     7
370
    35
100
AcDbLine
 10
529.3565042779
 20
288.6438660593
 30
0.0
 11
530.3379800564
 21
290.1267142071
 31
0.0
  0
LINE
  5
15C
330
1F
100
AcDbEntity
  8
0
  6
Continuous
 62
     7
370
    35
100
AcDbLine
 10
530.3379800564
 20
290.1267142071
 30
0.0
 11
529.5445337796
 21
291.7181212384
 31
0.0
  0
LINE
  5
15D
330
1F
100
AcDbEntity
  8
0
  6
Continuous
 62
     7
370
    35
100
AcDbLine
 10
527.7696117244
 20
291.8266801219
 30
0.0
 11
526.7881359459
 21
290.3438319741
 31
0.0
  0
LINE
  5
15E
330
1F
100
AcDbEntity
  8
0
  6
Continuous
 62
     7
370
    35
100
AcDbLine
 10
526.7881359459
 20
290.3438319741
 30
0.0
 11
527.5815822226
 21
288.7524249428
 31
0.0
  0
LINE
  5
15F
330
1F
100
AcDbEntity
  8
0
  6
Continuous
 62
     7
370
    35
100
AcDbLine
 10
527.5815822226
 20
288.7524249428
 30
0.0
 11
529.3565042779
 21
288.6438660593
 31
0.0
  0
LINE
  5
160
330
1F
100
AcDbEntity
  8
0
  6
Continuous
 62
     7
370
    35
100
AcDbLine
 10
529.5445337796
 20
291.7181212384
 30
0.0
 11
527.7696117244
 21
291.8266801219
 31
0.0
  0
CIRCLE
  5
161
330
1F
100
AcDbEntity
  8
0
  6
Continuous
 62
     7
370
    35
100
AcDbCircle
 10
528.5630580011
 20
290.2352730906
 30
0.0
 40
3.610000000000053
  0
LINE
  5
162
330
1F
100
AcDbEntity
  8
0
  6
Continuous
 62
     7
370
    35
100
AcDbLine
 10
512.2050030927
 20
237.3834323789
 30
0.0
 11
510.7221549449
 21
238.3649081574
 31
0.0
  0
LINE
  5
163
330
1F
100
AcDbEntity
  8
0
  6
Continuous
 62
     7
370
    35
100
AcDbLine
 10
510.7221549449
 20
238.3649081574
 30
0.0
 11
509.1307479136
 21
237.5714618806
 31
0.0
  0
LINE
  5
164
330
1F
100
AcDbEntity
  8
0
  6
Continuous
 62
     7
370
    35
100
AcDbLine
 10
509.1307479136
 20
237.5714618806
 30
0.0
 11
509.0221890301
 21
235.7965398254
 31
0.0
  0
LINE
  5
165
330
1F
100
AcDbEntity
  8
0
  6
Continuous
 62
     7
370
    35
100
AcDbLine
 10
509.0221890301
 20
235.7965398254
 30
0.0
 11
510.505037178
 21
234.8150640469
 31
0.0
  0
LINE
  5
166
330
1F
100
AcDbEntity
  8
0
  6
Continuous
 62
     7
370
    35
100
AcDbLine
 10
512.0964442093
 20
235.6085103236
 30
0.0
 11
512.2050030927
 21
237.3834323789
 31
0.0
  0
LINE
  5
167
330
1F
100
AcDbEntity
  8
0
  6
Continuous
 62
     7
370
    35
100
AcDbLine
 10
510.505037178
 20
234.8150640469
 30
0.0
 11
512.0964442093
 21
235.6085103236
 31
0.0
  0
CIRCLE
  5
168
330
1F
100
AcDbEntity
  8
0
  6
Continuous
 62
     7
370
    35
100
AcDbCircle
 10
510.6135960614
 20
236.5899861021
 30
0.0
 40
3.610000000000027
  0
LINE
  5
169
330
1F
100
AcDbEntity
  8
0
  6
Continuous
 62
     7
370
    35
100
AcDbLine
 10
563.4654367732
 20
220.2319311937
 30
0.0
 11
562.4839609947
 21
218.7490830459
 31
0.0
  0
LINE
  5
16A
330
1F
100
AcDbEntity
  8
0
  6
Continuous
 62
     7
370
    35
100
AcDbLine
 10
562.4839609947
 20
218.7490830459
 30
0.0
 11
563.2774072714
 21
217.1576760146
 31
0.0
  0
LINE
  5
16B
330
1F
100
AcDbEntity
  8
0
  6
Continuous
 62
     7
370
    35
100
AcDbLine
 10
563.2774072714
 20
217.1576760146
 30
0.0
 11
565.0523293266
 21
217.0491171311
 31
0.0
  0
LINE
  5
16C
330
1F
100
AcDbEntity
  8
0
  6
Continuous
 62
     7
370
    35
100
AcDbLine
 10
565.0523293266
 20
217.0491171311
 30
0.0
 11
566.0338051052
 21
218.531965279
 31
0.0
  0
LINE
  5
16D
330
1F
100
AcDbEntity
  8
0
  6
Continuous
 62
     7
370
    35
100
AcDbLine
 10
566.0338051052
 20
218.531965279
 30
0.0
 11
565.2403588284
 21
220.1233723103
 31
0.0
  0
LINE
  5
16E
330
1F
100
AcDbEntity
  8
0
  6
Continuous
 62
     7
370
    35
100
AcDbLine
 10
565.2403588284
 20
220.1233723103
 30
0.0
 11
563.4654367732
 21
220.2319311937
 31
0.0
  0
CIRCLE
  5
16F
330
1F
100
AcDbEntity
  8
0
  6
Continuous
 62
     7
370
    35
100
AcDbCircle
 10
564.2588830499
 20
218.6405241624
 30
0.0
 40
3.609999999999964
  0
CIRCLE
  5
170
330
1F
100
AcDbEntity
  8
0
  6
Continuous
 62
     7
370
    35
100
AcDbCircle
 10
528.5630580011
 20
290.2352730906
 30
0.0
 40
4.0
  0
ARC
  5
171
330
1F
100
AcDbEntity
  8
0
  6
Continuous
 62
     7
370
    35
100
AcDbCircle
 10
546.4109705255
 20
254.4378986265
 30
0.0
 40
49.50000000000006
100
AcDbArc
 50
120.8418279549
 51
59.1581720451
  0
LINE
  5
172
330
1F
100
AcDbEntity
  8
0
  6
Continuous
 62
     7
370
    35
100
AcDbLine
 10
521.0338154446
 20
296.9378986265
 30
0.0
 11
571.7881256064
 21
296.9378986265
 31
0.0
  0
CIRCLE
  5
173
330
1F
100
AcDbEntity
  8
0
  6
Continuous
 62
     7
370
    35
100
AcDbCircle
 10
582.2083449896
 20
272.2858111509
 30
0.0
 40
4.0
  0
CIRCLE
  5
174
330
1F
100
AcDbEntity
  8
0
  6
Continuous
 62
     7
370
    35
100
AcDbCircle
 10
564.2588830499
 20
290.2352730906
 30
0.0
 40
3.999999999999886
  0
CIRCLE
  5
175
330
1F
100
AcDbEntity
  8
0
  6
Continuous
 62
     7
370
    35
100
AcDbCircle
 10
510.6135960614
 20
272.2858111509
 30
0.0
 40
4.000000000000057
  0
CIRCLE
  5
176
330
1F
100
AcDbEntity
  8
0
  6
Continuous
 62
     7
370
    35
100
AcDbCircle
 10
510.6135960614
 20
236.5899861021
 30
0.0
 40
3.999999999999943
  0
CIRCLE
  5
177
330
1F
100
AcDbEntity
  8
0
  6
Continuous
 62
     7
370
    35
100
AcDbCircle
 10
528.5630580011
 20
218.6405241624
 30
0.0
 40
4.000000000000114
  0
CIRCLE
  5
178
330
1F
100
AcDbEntity
  8
0
  6
Continuous
 62
     7
370
    35
100
AcDbCircle
 10
564.2588830499
 20
218.6405241624
 30
0.0
 40
4.0
  0
CIRCLE
  5
179
330
1F
100
AcDbEntity
  8
0
  6
Continuous
 62
     7
370
    35
100
AcDbCircle
 10
582.2083449896
 20
236.5899861021
 30
0.0
 40
4.0
  0
CIRCLE
  5
17A
330
1F
100
AcDbEntity
  8
0
  6
Continuous
 62
     7
370
    35
100
AcDbCircle
 10
571.4071952405
 20
279.4341233415
 30
0.0
 40
1.649999999999977
  0
CIRCLE
  5
17B
330
1F
100
AcDbEntity
  8
0
  6
Continuous
 62
     7
370
    35
100
AcDbCircle
 10
521.4147458106
 20
279.4341233415
 30
0.0
 40
1.649999999999977
  0
CIRCLE
  5
17C
330
1F
100
AcDbEntity
  8
0
  6
Continuous
 62
     7
370
    35
100
AcDbCircle
 10
521.4147458106
 20
229.4416739116
 30
0.0
 40
1.649999999999977
  0
CIRCLE
  5
17D
330
1F
100
AcDbEntity
  8
0
  6
Continuous
 62
     7
370
    35
100
AcDbCircle
 10
571.4071952405
 20
229.4416739116
 30
0.0
 40
1.650000000000091
  0
CIRCLE
  5
17E
330
1F
100
AcDbEntity
  8
0
  6
Continuous
 62
     7
370
    35
100
AcDbCircle
 10
546.4109705255
 20
254.4378986265
 30
0.0
 40
18.5
  0
CIRCLE
  5
17F
330
1F
100
AcDbEntity
  8
0
  6
Continuous
 62
     7
370
    35
100
AcDbCircle
 10
546.4109705255
 20
254.4378986265
 30
0.0
 40
18.0
  0
ARC
  5
180
330
1F
100
AcDbEntity
  8
0
  6
Continuous
 62
     7
370
    35
100
AcDbCircle
 10
546.4109705255
 20
254.4378986265
 30
0.0
 40
49.99999999999998
100
AcDbArc
 50
121.7883306171
 51
58.2116693829
  0
LINE
  5
181
330
1F
100
AcDbEntity
  8
0
  6
Continuous
 62
     7
370
    35
100
AcDbLine
 10
571.7881256064
 20
296.9378986265
 30
0.0
 11
572.7501049077
 21
296.9378986265
 31
0.0
  0
LINE
  5
182
330
1F
100
AcDbEntity
  8
0
  6
Continuous
 62
     7
370
    35
100
AcDbLine
 10
520.0718361434
 20
296.9378986265
 30
0.0
 11
521.0338154446
 21
296.9378986265
 31
0.0
  0
SPLINE
  5
183
330
1F
100
AcDbEntity
  8
0
  6
Continuous
 62
     7
370
    35
100
AcDbSpline
210
0.0
220
0.0
230
1.0
 70
     8
 71
     3
 72
     9
 73
     5
 74
     0
 42
0.00000001
 43
0.00000001
 40
0.0
 40
0.0
 40
0.0
 40
0.0
 40
0.4980947170148086
 40
1.0
 40
1.0
 40
1.0
 40
1.0
 10
553.393090547408
 20
253.9378986265268
 30
0.0
 10
553.4020077819213
 20
254.1039283869972
 30
0.0
 10
553.4199104703231
 20
254.4372580827333
 30
0.0
 10
553.4020532038104
 20
254.7705950444347
 30
0.0
 10
553.393090547408
 20
254.9378986265268
 30
0.0
  0
LINE
  5
184
330
1F
100
AcDbEntity
  8
0
  6
Continuous
 62
     7
370
    35
100
AcDbLine
 10
559.4109705255
 20
253.9378986265
 30
0.0
 11
559.4109705255
 21
254.9378986265
 31
0.0
  0
ARC
  5
185
330
1F
100
AcDbEntity
  8
0
  6
Continuous
 62
     7
370
    35
100
AcDbCircle
 10
546.4109705255
 20
254.4378986265
 30
0.0
 40
7.000000000000026
100
AcDbArc
 50
4.0960437582
 51
175.9039562418
  0
LINE
  5
186
330
1F
100
AcDbEntity
  8
0
  6
Continuous
 62
     7
370
    35
100
AcDbLine
 10
539.4288505036
 20
254.9378986265
 30
0.0
 11
538.927655752
 21
254.9378986265
 31
0.0
  0
ARC
  5
187
330
1F
100
AcDbEntity
  8
0
  6
Continuous
 62
     7
370
    35
100
AcDbCircle
 10
546.4109705255
 20
254.4378986265
 30
0.0
 40
7.499999999999933
100
AcDbArc
 50
3.8225537293
 51
176.1774462707
  0
LINE
  5
188
330
1F
100
AcDbEntity
  8
0
  6
Continuous
 62
     7
370
    35
100
AcDbLine
 10
553.8942852991
 20
254.9378986265
 30
0.0
 11
553.3930905474
 21
254.9378986265
 31
0.0
  0
LINE
  5
189
330
1F
100
AcDbEntity
  8
0
  6
Continuous
 62
     7
370
    35
100
AcDbLine
 10
539.4288505036
 20
253.9378986265
 30
0.0
 11
538.927655752
 21
253.9378986265
 31
0.0
  0
ARC
  5
18A
330
1F
100
AcDbEntity
  8
0
  6
Continuous
 62
     7
370
    35
100
AcDbCircle
 10
546.4109705255
 20
254.4378986265
 30
0.0
 40
7.000000000000028
100
AcDbArc
 50
184.0960437582
 51
355.9039562418
  0
LINE
  5
18B
330
1F
100
AcDbEntity
  8
0
  6
Continuous
 62
     7
370
    35
100
AcDbLine
 10
553.8942852991
 20
253.9378986265
 30
0.0
 11
553.3930905474
 21
253.9378986265
 31
0.0
  0
ARC
  5
18C
330
1F
100
AcDbEntity
  8
0
  6
Continuous
 62
     7
370
    35
100
AcDbCircle
 10
546.4109705255
 20
254.4378986265
 30
0.0
 40
7.499999999999935
100
AcDbArc
 50
183.8225537293
 51
356.1774462707
  0
LINE
  5
18D
330
1F
100
AcDbEntity
  8
0
  6
Continuous
 62
     7
370
    35
100
AcDbLine
 10
538.927655752
 20
253.9378986265
 30
0.0
 11
528.4179163101
 21
253.9378986265
 31
0.0
  0
LINE
  5
18E
330
1F
100
AcDbEntity
  8
0
  6
Continuous
 62
     7
370
    35
100
AcDbLine
 10
559.4109705255
 20
253.9378986265
 30
0.0
 11
553.8942852991
 21
253.9378986265
 31
0.0
  0
LINE
  5
18F
330
1F
100
AcDbEntity
  8
0
  6
Continuous
 62
     7
370
    35
100
AcDbLine
 10
538.927655752
 20
254.9378986265
 30
0.0
 11
528.4179163101
 21
254.9378986265
 31
0.0
  0
LINE
  5
190
330
1F
100
AcDbEntity
  8
0
  6
Continuous
 62
     7
370
    35
100
AcDbLine
 10
559.4109705255
 20
254.9378986265
 30
0.0
 11
553.8942852991
 21
254.9378986265
 31
0.0
  0
SPLINE
  5
191
330
1F
100
AcDbEntity
  8
0
  6
Continuous
 62
     7
370
    35
100
AcDbSpline
210
0.0
220
0.0
230
1.0
 70
     8
 71
     3
 72
     9
 73
     5
 74
     0
 42
0.00000001
 43
0.00000001
 40
0.0
 40
0.0
 40
0.0
 40
0.0
 40
0.4986001025411971
 40
1.0
 40
1.0
 40
1.0
 40
1.0
 10
539.428850503639
 20
254.9378986265268
 30
0.0
 10
539.4199272248046
 20
254.7716995704395
 30
0.0
 10
539.4020305601452
 20
254.4383681987846
 30
0.0
 10
539.4198938512906
 20
254.1050329074309
 30
0.0
 10
539.428850503639
 20
253.9378986265268
 30
0.0
  0
ARC
  5
192
330
1F
100
AcDbEntity
  8
0
  6
Continuous
 62
     7
370
    35
100
AcDbCircle
 10
546.4109705255
 20
254.4378986265
 30
0.0
 40
47.99999999999999
100
AcDbArc
 50
65.014559317
 51
68.0223645548
  0
SPLINE
  5
193
330
1F
100
AcDbEntity
  8
0
  6
Continuous
 62
     7
370
    35
100
AcDbSpline
210
0.0
220
0.0
230
1.0
 70
     8
 71
     3
 72
     8
 73
     4
 74
     0
 42
0.00000001
 43
0.00000001
 40
0.0
 40
0.0
 40
0.0
 40
0.0
 40
1.0
 40
1.0
 40
1.0
 40
1.0
 10
566.6855920306162
 20
297.9458257528015
 30
0.0
 10
566.1716843273124
 20
298.185305885762
 30
0.0
 10
565.6108439915913
 20
298.3132284477677
 30
0.0
 10
565.0444815332919
 20
298.3204490230506
 30
0.0
  0
SPLINE
  5
194
330
1F
100
AcDbEntity
  8
0
  6
Continuous
 62
     7
370
    35
100
AcDbSpline
210
0.0
220
0.0
230
1.0
 70
     8
 71
     3
 72
    10
 73
     6
 74
     0
 42
0.00000001
 43
0.00000001
 40
0.0
 40
0.0
 40
0.0
 40
0.0
 40
0.5
 40
0.5
 40
1.0
 40
1.0
 40
1.0
 40
1.0
 10
564.3747138440157
 20
298.9497389163567
 30
0.0
 10
564.1507873034026
 20
299.0401094530854
 30
0.0
 10
563.9172443038699
 20
299.1118814958392
 30
0.0
 10
563.4283710738871
 20
299.2132884821979
 30
0.0
 10
563.1709680379824
 20
299.2425276058825
 30
0.0
 10
562.9129542259519
 20
299.2458719440788
 30
0.0
  0
SPLINE
  5
195
330
1F
100
AcDbEntity
  8
0
  6
Continuous
 62
     7
370
    35
100
AcDbSpline
210
0.0
220
0.0
230
1.0
 70
     8
 71
     3
 72
    14
 73
    10
 74
     0
 42
0.00000001
 43
0.00000001
 40
0.0
 40
0.0
 40
0.0
 40
0.0
 40
0.0000167870118481
 40
0.0000167870118481
 40
0.0000167870118481
 40
0.0000335732500324
 40
0.0000335732500324
 40
0.0000335732500324
 40
0.0000397064056912
 40
0.0000397064056912
 40
0.0000397064056912
 40
0.0000397064056912
 10
527.8134856342467
 20
298.3057919643024
 30
0.0
 10
527.8095305879392
 20
298.3097503905488
 30
0.0
 10
527.8048372676056
 20
298.3130801813298
 30
0.0
 10
527.7997948397988
 20
298.315506176271
 30
0.0
 10
527.7947525487186
 20
298.3179321054307
 30
0.0
 10
527.7892222579034
 20
298.3195212409979
 30
0.0
 10
527.7836613935771
 20
298.3201430283958
 30
0.0
 10
527.7816044057906
 20
298.3203730302459
 30
0.0
 10
527.7795291562232
 20
298.3204754089456
 30
0.0
 10
527.777459517755
 20
298.3204490230506
 30
0.0
  0
ELLIPSE
  5
196
330
1F
100
AcDbEntity
  8
0
  6
Continuous
 62
     7
370
    35
100
AcDbEllipse
 10
527.8792200749
 20
298.2707668547
 30
0.0
 11
0.04590797963760451
 21
0.01993138385608972
 31
0.0
210
0.0
220
0.0
230
1.0
 40
0.9990408504
 41
1.160842518487767
 42
1.946644328579562
  0
ELLIPSE
  5
197
330
1F
100
AcDbEntity
  8
0
  6
Continuous
 62
     7
370
    35
100
AcDbEllipse
 10
564.9427209762
 20
298.2707668547
 30
0.0
 11
-0.04590797963760451
 21
0.01993138385608972
 31
0.0
210
0.0
220
0.0
230
1.0
 40
0.9990408504
 41
4.33654097859942
 42
5.122342788692495
  0
LINE
  5
198
330
1F
100
AcDbEntity
  8
0
  6
Continuous
 62
     7
370
    35
100
AcDbLine
 10
527.8792551579
 20
298.3207744711
 30
0.0
 11
530.9109705255
 21
298.3207744711
 31
0.0
  0
LINE
  5
199
330
1F
100
AcDbEntity
  8
0
  6
Continuous
 62
     7
370
    35
100
AcDbLine
 10
551.9109705255
 20
298.3207744711
 30
0.0
 11
564.9426858931
 21
298.3207744711
 31
0.0
  0
LINE
  5
19A
330
1F
100
AcDbEntity
  8
0
  6
Continuous
 62
     7
370
    35
100
AcDbLine
 10
562.8131942277
 20
299.2453134323
 30
0.0
 11
530.0087468234
 21
299.2453134323
 31
0.0
  0
ARC
  5
19B
330
1F
100
AcDbEntity
  8
0
  6
Continuous
 62
     7
370
    35
100
AcDbCircle
 10
546.4109705255
 20
254.4378986265
 30
0.0
 40
48.00000000000005
100
AcDbArc
 50
114.985440683
 51
117.6971598753
  0
SPLINE
  5
19C
330
1F
100
AcDbEntity
  8
0
  6
Continuous
 62
     7
370
    35
100
AcDbSpline
210
0.0
220
0.0
230
1.0
 70
     8
 71
     3
 72
     8
 73
     4
 74
     0
 42
0.00000001
 43
0.00000001
 40
0.0
 40
0.0
 40
0.0
 40
0.0
 40
1.0
 40
1.0
 40
1.0
 40
1.0
 10
527.777459517755
 20
298.3204490230506
 30
0.0
 10
527.2106948037522
 20
298.3132233193953
 30
0.0
 10
526.6502393674215
 20
298.1852977977491
 30
0.0
 10
526.1363490204307
 20
297.9458257528015
 30
0.0
  0
LINE
  5
19D
330
1F
100
AcDbEntity
  8
0
  6
Continuous
 62
     7
370
    35
100
AcDbLine
 10
527.8134856342
 20
298.3057919643
 30
0.0
 11
527.8284948705
 21
298.2907699013
 31
0.0
  0
LINE
  5
19E
330
1F
100
AcDbEntity
  8
0
  6
Continuous
 62
     7
370
    35
100
AcDbLine
 10
564.9934461805
 20
298.2907699013
 30
0.0
 11
565.0084554168
 21
298.3057919643
 31
0.0
  0
SPLINE
  5
19F
330
1F
100
AcDbEntity
  8
0
  6
Continuous
 62
     7
370
    35
100
AcDbSpline
210
0.0
220
0.0
230
1.0
 70
     8
 71
     3
 72
    14
 73
    10
 74
     0
 42
0.00000001
 43
0.00000001
 40
0.0
 40
0.0
 40
0.0
 40
0.0
 40
0.0000168024516136
 40
0.0000168024516136
 40
0.0000168024516136
 40
0.0000336056860749
 40
0.0000336056860749
 40
0.0000336056860749
 40
0.0000397069546505
 40
0.0000397069546505
 40
0.0000397069546505
 40
0.0000397069546505
 10
565.0444815332919
 20
298.3204490230506
 30
0.0
 10
565.0388811712045
 20
298.3205204222676
 30
0.0
 10
565.0331912267283
 20
298.3196265568018
 30
0.0
 10
565.0278827778899
 20
298.3178406328707
 30
0.0
 10
565.0225741832685
 20
298.3160546598938
 30
0.0
 10
565.0175006503247
 20
298.3133271916703
 30
0.0
 10
565.0130833037779
 20
298.3098836577566
 30
0.0
 10
565.0114593373288
 20
298.3086176978682
 30
0.0
 10
565.0099108032823
 20
298.3072485945418
 30
0.0
 10
565.0084554168002
 20
298.3057919643024
 30
0.0
  0
ARC
  5
1A0
330
1F
100
AcDbEntity
  8
0
  6
Continuous
 62
     7
370
    35
100
AcDbCircle
 10
546.4109705255
 20
254.4378986265
 30
0.0
 40
48.00000000000005
100
AcDbArc
 50
62.3028401247
 51
65.014559317
  0
LINE
  5
1A1
330
1F
100
AcDbEntity
  8
0
  6
Continuous
 62
     7
370
    35
100
AcDbLine
 10
527.8284948705
 20
298.2907699013
 30
0.0
 11
527.8438466999
 21
298.3061133033
 31
0.0
  0
LINE
  5
1A2
330
1F
100
AcDbEntity
  8
0
  6
Continuous
 62
     7
370
    35
100
AcDbLine
 10
564.9780943512
 20
298.3061133033
 30
0.0
 11
564.9934461805
 21
298.2907699013
 31
0.0
  0
LINE
  5
1A3
330
1F
100
AcDbEntity
  8
0
  6
Continuous
 62
     7
370
    35
100
AcDbLine
 10
562.877528491
 20
299.2309550002
 30
0.0
 11
562.8714760405
 21
299.2245264929
 31
0.0
  0
LINE
  5
1A4
330
1F
100
AcDbEntity
  8
0
  6
Continuous
 62
     7
370
    35
100
AcDbLine
 10
529.9504650106
 20
299.2245264929
 30
0.0
 11
529.94441256
 21
299.2309550002
 31
0.0
  0
SPLINE
  5
1A5
330
1F
100
AcDbEntity
  8
0
  6
Continuous
 62
     7
370
    35
100
AcDbSpline
210
0.0
220
0.0
230
1.0
 70
     8
 71
     3
 72
    10
 73
     6
 74
     0
 42
0.00000001
 43
0.00000001
 40
0.0
 40
0.0
 40
0.0
 40
0.0
 40
0.5
 40
0.5
 40
1.0
 40
1.0
 40
1.0
 40
1.0
 10
529.908986825095
 20
299.2458719440788
 30
0.0
 10
529.6516686772097
 20
299.2425366229818
 30
0.0
 10
529.4003728875516
 20
299.2143476673716
 30
0.0
 10
528.9086661460501
 20
299.1130491834155
 30
0.0
 10
528.6710795358013
 20
299.0400795032452
 30
0.0
 10
528.4472272070312
 20
298.9497389163567
 30
0.0
  0
ARC
  5
1A6
330
1F
100
AcDbEntity
  8
0
  6
Continuous
 62
     7
370
    35
100
AcDbCircle
 10
546.4109705255
 20
254.4378986265
 30
0.0
 40
47.99999999999999
100
AcDbArc
 50
111.9776354452
 51
114.985440683
  0
SPLINE
  5
1A7
330
1F
100
AcDbEntity
  8
0
  6
Continuous
 62
     7
370
    35
100
AcDbSpline
210
0.0
220
0.0
230
1.0
 70
     8
 71
     3
 72
    14
 73
    10
 74
     0
 42
0.00000001
 43
0.00000001
 40
0.0
 40
0.0
 40
0.0
 40
0.0
 40
0.000012797974209
 40
0.000012797974209
 40
0.000012797974209
 40
0.0000255093113908
 40
0.0000255093113908
 40
0.0000255093113908
 40
0.0000428115197143
 40
0.0000428115197143
 40
0.0000428115197143
 40
0.0000428115197143
 10
529.908986825095
 20
299.2458719440788
 30
0.0
 10
529.9132520999505
 20
299.2459272299625
 30
0.0
 10
529.9175963163457
 20
299.2454023886169
 30
0.0
 10
529.9216095595007
 20
299.244379509829
 30
0.0
 10
529.9256078233016
 20
299.2433604489167
 30
0.0
 10
529.9293888882714
 20
299.241832246951
 30
0.0
 10
529.9327459386808
 20
299.2399892471876
 30
0.0
 10
529.9373013424481
 20
299.2374883588953
 30
0.0
 10
529.9412165664268
 20
299.2343495703137
 30
0.0
 10
529.9444125600187
 20
299.2309550001683
 30
0.0
  0
SPLINE
  5
1A8
330
1F
100
AcDbEntity
  8
0
  6
Continuous
 62
     7
370
    35
100
AcDbSpline
210
0.0
220
0.0
230
1.0
 70
     8
 71
     3
 72
    14
 73
    10
 74
     0
 42
0.00000001
 43
0.00000001
 40
0.0
 40
0.0
 40
0.0
 40
0.0
 40
0.000016567511187
 40
0.000016567511187
 40
0.000016567511187
 40
0.0000299940847889
 40
0.0000299940847889
 40
0.0000299940847889
 40
0.0000428602625667
 40
0.0000428602625667
 40
0.0000428602625667
 40
0.0000428602625667
 10
562.8775284910282
 20
299.2309550001683
 30
0.0
 10
562.8805888823122
 20
299.2342055426328
 30
0.0
 10
562.8843041495415
 20
299.2372187429398
 30
0.0
 10
562.8886109030848
 20
299.2396631162085
 30
0.0
 10
562.8921030530022
 20
299.2416451469477
 30
0.0
 10
562.8960716215362
 20
299.2432889733193
 30
0.0
 10
562.9002821054161
 20
299.2443668945235
 30
0.0
 10
562.9043094843481
 20
299.2453979392376
 30
0.0
 10
562.9086717354426
 20
299.2459274531094
 30
0.0
 10
562.9129542259519
 20
299.2458719440788
 30
0.0
  0
SPLINE
  5
1A9
330
1F
100
AcDbEntity
  8
0
  6
Continuous
 62
     7
370
    35
100
AcDbSpline
210
0.0
220
0.0
230
1.0
 70
     8
 71
     3
 72
    28
 73
    24
 74
     0
 42
0.00000001
 43
0.00000001
 40
0.0
 40
0.0
 40
0.0
 40
0.0
 40
0.0208215902903375
 40
0.0416549694083219
 40
0.0625224778241871
 40
0.093769321683289
 40
0.125039833631647
 40
0.1875364692332482
 40
0.2500315549498759
 40
0.3125253205067952
 40
0.3750180504656795
 40
0.4375100659583361
 40
0.5000017177965353
 40
0.5624933696347385
 40
0.6249853851273979
 40
0.6874781150862793
 40
0.749971880643196
 40
0.812466966359825
 40
0.8749636019614301
 40
0.9061903568389547
 40
0.9374809578695386
 40
0.9687444805299696
 40
0.9999999999999999
 40
0.9999999999999999
 40
0.9999999999999999
 40
0.9999999999999999
 10
590.2015097463849
 20
290.2475737478759
 30
0.0
 10
590.2006922497135
 20
290.3345592479502
 30
0.0
 10
590.1990567935184
 20
290.5085794977983
 30
0.0
 10
590.1857447367123
 20
290.7694983136697
 30
0.0
 10
590.160983664322
 20
291.0732642732508
 30
0.0
 10
590.1182976147636
 20
291.4191399213138
 30
0.0
 10
590.029037779548
 20
291.9338667476112
 30
0.0
 10
589.8701024052185
 20
292.5681857622894
 30
0.0
 10
589.605935673846
 20
293.3068117216457
 30
0.0
 10
589.2704746596879
 20
294.0159333329292
 30
0.0
 10
588.867284440543
 20
294.6888295916872
 30
0.0
 10
588.3999326071552
 20
295.3188488574702
 30
0.0
 10
587.8732109455746
 20
295.9001390256674
 30
0.0
 10
587.2919207492786
 20
296.4268607846121
 30
0.0
 10
586.6619014985265
 20
296.8942122566393
 30
0.0
 10
585.9890052077432
 20
297.297403823886
 30
0.0
 10
585.2798837095328
 20
297.632859806876
 30
0.0
 10
584.5412573298966
 20
297.8970453153866
 30
0.0
 10
583.9071172458977
 20
298.0558777929243
 30
0.0
 10
583.3923911402874
 20
298.1452743829697
 30
0.0
 10
583.0034037762775
 20
298.1929315857814
 30
0.0
 10
582.6124272080809
 20
298.222912835309
 30
0.0
 10
582.3512283550756
 20
298.2265963338725
 30
0.0
 10
582.2206456468726
 20
298.2284378473882
 30
0.0
  0
SPLINE
  5
1AA
330
1F
100
AcDbEntity
  8
0
  6
Continuous
 62
     7
370
    35
100
AcDbSpline
210
0.0
220
0.0
230
1.0
 70
     8
 71
     3
 72
    29
 73
    25
 74
     0
 42
0.00000001
 43
0.00000001
 40
0.0
 40
0.0
 40
0.0
 40
0.0
 40
0.0216862077639552
 40
0.0432205313710306
 40
0.0646029771214683
 40
0.0858335514594115
 40
0.1069122609769797
 40
0.1278391124185002
 40
0.1486141126848868
 40
0.1692372688381814
 40
0.1897085881062663
 40
0.2100280778877439
 40
0.2301957457570119
 40
0.2502115994695193
 40
0.3759257594208383
 40
0.5000167744249306
 40
0.6241043189130959
 40
0.7498219489439389
 40
0.7899994268438192
 40
0.8307843824721092
 40
0.87217686879805
 40
0.9141769359531213
 40
0.9567846313848771
 40
1.0
 40
1.0
 40
1.0
 40
1.0
 10
582.2206456468726
 20
299.2462030042835
 30
0.0
 10
582.3227410834039
 20
299.2451970488061
 30
0.0
 10
582.5262169084754
 20
299.243192183283
 30
0.0
 10
582.8300065298763
 20
299.2271137779932
 30
0.0
 10
583.1309639276425
 20
299.201737711009
 30
0.0
 10
583.4287685838246
 20
299.1663722252372
 30
0.0
 10
583.7231153244044
 20
299.1215171990019
 30
0.0
 10
584.0137142245857
 20
299.0673662013702
 30
0.0
 10
584.3002907580112
 20
299.0042025133098
 30
0.0
 10
584.5825852132585
 20
298.9322935270407
 30
0.0
 10
584.8603545726403
 20
298.8519165096187
 30
0.0
 10
585.1333651795021
 20
298.7633555905527
 30
0.0
 10
585.4014192571833
 20
298.66688419838
 30
0.0
 10
586.1275780221206
 20
298.3794154680534
 30
0.0
 10
587.2559465826456
 20
297.7755834157339
 30
0.0
 10
588.6240749321233
 20
296.6510526106135
 30
0.0
 10
589.7486880430278
 20
295.2828241012106
 30
0.0
 10
590.3974997597226
 20
294.0703742061337
 30
0.0
 10
590.7414036817357
 20
293.1597769673584
 30
0.0
 10
590.9104109876243
 20
292.6086877004466
 30
0.0
 10
591.0457079683716
 20
292.0395287089664
 30
0.0
 10
591.14417676583
 20
291.4542598515216
 30
0.0
 10
591.2073671993809
 20
290.8551550946378
 30
0.0
 10
591.2152869765613
 20
290.4510546126255
 30
0.0
 10
591.2192749032802
 20
290.2475737478759
 30
0.0
  0
LINE
  5
1AB
330
1F
100
AcDbEntity
  8
0
  6
Continuous
 62
     7
370
    35
100
AcDbLine
 10
501.6026661478
 20
276.6238369387
 30
0.0
 11
501.6026661478
 21
290.2475737479
 31
0.0
  0
LINE
  5
1AC
330
1F
100
AcDbEntity
  8
0
  6
Continuous
 62
     7
370
    35
100
AcDbLine
 10
502.6204313047
 20
290.2475737479
 30
0.0
 11
502.6204313047
 21
278.570628989
 31
0.0
  0
SPLINE
  5
1AD
330
1F
100
AcDbEntity
  8
0
  6
Continuous
 62
     7
370
    35
100
AcDbSpline
210
0.0
220
0.0
230
1.0
 70
     8
 71
     3
 72
    28
 73
    24
 74
     0
 42
0.00000001
 43
0.00000001
 40
0.0
 40
0.0
 40
0.0
 40
0.0
 40
0.0208215902932882
 40
0.0416549694112709
 40
0.0625224778241961
 40
0.093769321687804
 40
0.1250398336316513
 40
0.1875364692332534
 40
0.2500315549498806
 40
0.3125253205067996
 40
0.3750180504656834
 40
0.4375100659583409
 40
0.5000017177965401
 40
0.5624933696347422
 40
0.6249853851274018
 40
0.6874781150862835
 40
0.7499718806432002
 40
0.8124669663598295
 40
0.8749636019614336
 40
0.9061903568369408
 40
0.9374809578695377
 40
0.9687444805277635
 40
1.0
 40
1.0
 40
1.0
 40
1.0
 10
510.6012954041743
 20
298.2284378473882
 30
0.0
 10
510.5143099040877
 20
298.227620350717
 30
0.0
 10
510.3402896542272
 20
298.2259848945221
 30
0.0
 10
510.0793708383558
 20
298.2126728377173
 30
0.0
 10
509.7756048787685
 20
298.1879117653211
 30
0.0
 10
509.429729230718
 20
298.1452257157625
 30
0.0
 10
508.9150024044205
 20
298.0559658805477
 30
0.0
 10
508.2806833897609
 20
297.8970305062215
 30
0.0
 10
507.5420574304046
 20
297.6328637748494
 30
0.0
 10
506.8329358191211
 20
297.2974027606913
 30
0.0
 10
506.160039560363
 20
296.8942125415463
 30
0.0
 10
505.5300202945801
 20
296.4268607081585
 30
0.0
 10
504.9487301263828
 20
295.9001390465778
 30
0.0
 10
504.4220083674381
 20
295.3188488502819
 30
0.0
 10
503.954656895411
 20
294.6888295995298
 30
0.0
 10
503.5514653281642
 20
294.0159333087464
 30
0.0
 10
503.2160093451741
 20
293.3068118105361
 30
0.0
 10
502.9518238366641
 20
292.5681854308998
 30
0.0
 10
502.7929913591267
 20
291.9340453469094
 30
0.0
 10
502.7035947690841
 20
291.4193192412987
 30
0.0
 10
502.6559375662704
 20
291.0303318772985
 30
0.0
 10
502.6259563167397
 20
290.6393553090936
 30
0.0
 10
502.6222728181773
 20
290.3781564560883
 30
0.0
 10
502.6204313046621
 20
290.2475737478759
 30
0.0
  0
SPLINE
  5
1AE
330
1F
100
AcDbEntity
  8
0
  6
Continuous
 62
     7
370
    35
100
AcDbSpline
210
0.0
220
0.0
230
1.0
 70
     8
 71
     3
 72
    29
 73
    25
 74
     0
 42
0.00000001
 43
0.00000001
 40
0.0
 40
0.0
 40
0.0
 40
0.0
 40
0.0216862077635099
 40
0.0432205313702217
 40
0.0646029771203766
 40
0.0858335514581168
 40
0.1069122609755638
 40
0.127839112417044
 40
0.1486141126834708
 40
0.1692372688368871
 40
0.1897085881051733
 40
0.2100280778869342
 40
0.2301957457565665
 40
0.2502115994695181
 40
0.3759257594195705
 40
0.5000167744249288
 40
0.6241043189143601
 40
0.7498219489439373
 40
0.7899994268446043
 40
0.8307843824733656
 40
0.8721768687994643
 40
0.9141769359543783
 40
0.9567846313856625
 40
1.0
 40
1.0
 40
1.0
 40
1.0
 10
501.6026661477668
 20
290.2475737478759
 30
0.0
 10
501.6036721032442
 20
290.3496691844052
 30
0.0
 10
501.6056769687671
 20
290.5531450094728
 30
0.0
 10
501.6217553740564
 20
290.8569346308686
 30
0.0
 10
501.6471314410397
 20
291.1578920286308
 30
0.0
 10
501.6824969268106
 20
291.4556966848103
 30
0.0
 10
501.727351953045
 20
291.7500434253883
 30
0.0
 10
501.781502950676
 20
292.0406423255693
 30
0.0
 10
501.8446666387358
 20
292.3272188589956
 30
0.0
 10
501.9165756250048
 20
292.6095133142446
 30
0.0
 10
501.9969526424272
 20
292.8872826736293
 30
0.0
 10
502.0855135614939
 20
293.1602932804951
 30
0.0
 10
502.1819849536681
 20
293.428347358181
 30
0.0
 10
502.4694536839937
 20
294.1545061231166
 30
0.0
 10
503.073285736313
 20
295.2828746836437
 30
0.0
 10
504.1978165414358
 20
296.6510030331276
 30
0.0
 10
505.5660450508448
 20
297.7756161440345
 30
0.0
 10
506.7784949459253
 20
298.4244278607296
 30
0.0
 10
507.6890921847009
 20
298.7683317827424
 30
0.0
 10
508.2401814516194
 20
298.937339088632
 30
0.0
 10
508.809340443102
 20
299.0726360693787
 30
0.0
 10
509.3946093005448
 20
299.1711048668354
 30
0.0
 10
509.993714057422
 20
299.2342953003846
 30
0.0
 10
510.3978145394285
 20
299.2422150775648
 30
0.0
 10
510.6012954041743
 20
299.2462030042835
 30
0.0
  0
LINE
  5
1AF
330
1F
100
AcDbEntity
  8
0
  6
Continuous
 62
     7
370
    35
100
AcDbLine
 10
526.754198798
 20
298.2284378474
 30
0.0
 11
510.6012954042
 21
298.2284378474
 31
0.0
  0
ARC
  5
1B0
330
1F
100
AcDbEntity
  8
0
  6
Continuous
 62
     7
370
    35
100
AcDbCircle
 10
511.0556314662
 20
289.7932376859
 30
0.0
 40
3.800000000000011
100
AcDbArc
 50
42.8222360487
 51
180.0
  0
ARC
  5
1B1
330
1F
100
AcDbEntity
  8
0
  6
Continuous
 62
     7
370
    35
100
AcDbCircle
 10
511.0556314662
 20
289.7932376859
 30
0.0
 40
3.800000000000011
100
AcDbArc
 50
180.0
 51
227.1777639513
  0
LINE
  5
1B2
330
1F
100
AcDbEntity
  8
0
  6
Continuous
 62
     7
370
    35
100
AcDbLine
 10
590.2015097464
 20
278.570628989
 30
0.0
 11
590.2015097464
 21
290.2475737479
 31
0.0
  0
LINE
  5
1B3
330
1F
100
AcDbEntity
  8
0
  6
Continuous
 62
     7
370
    35
100
AcDbLine
 10
582.2206456469
 20
298.2284378474
 30
0.0
 11
566.067742253
 21
298.2284378474
 31
0.0
  0
ARC
  5
1B4
330
1F
100
AcDbEntity
  8
0
  6
Continuous
 62
     7
370
    35
100
AcDbCircle
 10
581.7663095849
 20
289.7932376859
 30
0.0
 40
3.800000000000006
100
AcDbArc
 50
312.8222360487
 51
137.1777639513
  0
LINE
  5
1B5
330
1F
100
AcDbEntity
  8
0
  6
Continuous
 62
     7
370
    35
100
AcDbLine
 10
591.2192749033
 20
290.2475737479
 30
0.0
 11
591.2192749033
 21
276.6238369387
 31
0.0
  0
SPLINE
  5
1B6
330
1F
100
AcDbEntity
  8
0
  6
Continuous
 62
     7
370
    35
100
AcDbSpline
210
0.0
220
0.0
230
1.0
 70
     8
 71
     3
 72
    28
 73
    24
 74
     0
 42
0.00000001
 43
0.00000001
 40
0.0
 40
0.0
 40
0.0
 40
0.0
 40
0.0208215902914081
 40
0.0416549694093914
 40
0.0625224778241894
 40
0.0937693216860817
 40
0.1250398336316511
 40
0.1875364692332533
 40
0.2500315549498794
 40
0.3125253205067973
 40
0.3750180504656819
 40
0.4375100659583384
 40
0.5000017177965379
 40
0.5624933696347414
 40
0.6249853851274006
 40
0.6874781150862829
 40
0.7499718806431986
 40
0.8124669663598275
 40
0.8749636019614326
 40
0.9061903568398448
 40
0.9374809578695404
 40
0.9687444805300661
 40
1.0
 40
1.0
 40
1.0
 40
1.0
 10
502.6204313046621
 20
218.6282235051776
 30
0.0
 10
502.6212488013333
 20
218.5412380050989
 30
0.0
 10
502.6228842575285
 20
218.3672177552463
 30
0.0
 10
502.6361963143339
 20
218.1062989393749
 30
0.0
 10
502.660957386727
 20
217.8025329797868
 30
0.0
 10
502.7036434362844
 20
217.4566573317281
 30
0.0
 10
502.792903271502
 20
216.9419305054311
 30
0.0
 10
502.9518386458283
 20
216.3076114907642
 30
0.0
 10
503.216005377201
 20
215.5689855314079
 30
0.0
 10
503.5514663913589
 20
214.8598639201244
 30
0.0
 10
503.9546566105039
 20
214.1869676613664
 30
0.0
 10
504.4220084438917
 20
213.5569483955834
 30
0.0
 10
504.9487301054724
 20
212.9756582273861
 30
0.0
 10
505.5300203017683
 20
212.4489364684415
 30
0.0
 10
506.1600395525205
 20
211.9815849964143
 30
0.0
 10
506.8329358433038
 20
211.5783934291675
 30
0.0
 10
507.5420573415141
 20
211.2429374461775
 30
0.0
 10
508.2806837211504
 20
210.9787519376671
 30
0.0
 10
508.9148238051528
 20
210.819919460128
 30
0.0
 10
509.4295499107633
 20
210.7305228700841
 30
0.0
 10
509.8185372747734
 20
210.6828656672715
 30
0.0
 10
510.2095138429664
 20
210.6528844177447
 30
0.0
 10
510.4707126959717
 20
210.6492009191811
 30
0.0
 10
510.6012954041743
 20
210.6473594056654
 30
0.0
  0
SPLINE
  5
1B7
330
1F
100
AcDbEntity
  8
0
  6
Continuous
 62
     7
370
    35
100
AcDbSpline
210
0.0
220
0.0
230
1.0
 70
     8
 71
     3
 72
    29
 73
    25
 74
     0
 42
0.00000001
 43
0.00000001
 40
0.0
 40
0.0
 40
0.0
 40
0.0
 40
0.0216862077630959
 40
0.0432205313694686
 40
0.0646029771193601
 40
0.0858335514569123
 40
0.106912260974246
 40
0.127839112415688
 40
0.1486141126821533
 40
0.1692372688356813
 40
0.1897085881041564
 40
0.2100280778861809
 40
0.2301957457561521
 40
0.2502115994695186
 40
0.3759257594183194
 40
0.5000167744249303
 40
0.6241043189130948
 40
0.7498219489439376
 40
0.7899994268437981
 40
0.8307843824720756
 40
0.8721768687980131
 40
0.9141769359530877
 40
0.9567846313848563
 40
0.9999999999999999
 40
0.9999999999999999
 40
0.9999999999999999
 40
0.9999999999999999
 10
510.6012954041743
 20
209.6295942487701
 30
0.0
 10
510.499199967647
 20
209.6306002042475
 30
0.0
 10
510.295724142583
 20
209.6326050697703
 30
0.0
 10
509.9919345211919
 20
209.6486834750591
 30
0.0
 10
509.6909771234334
 20
209.6740595420417
 30
0.0
 10
509.3931724672564
 20
209.7094250278118
 30
0.0
 10
509.09882572668
 20
209.7542800540454
 30
0.0
 10
508.8082268264994
 20
209.8084310516756
 30
0.0
 10
508.5216502930725
 20
209.8715947397349
 30
0.0
 10
508.2393558378217
 20
209.9435037260037
 30
0.0
 10
507.9615864784344
 20
210.0238807434264
 30
0.0
 10
507.688575871565
 20
210.1124416624939
 30
0.0
 10
507.4205217938743
 20
210.2089130546694
 30
0.0
 10
506.6943630289409
 20
210.4963817849939
 30
0.0
 10
505.5659944684116
 20
211.1002138373129
 30
0.0
 10
504.1978661189311
 20
212.2247446424309
 30
0.0
 10
503.0732530080192
 20
213.592973151843
 30
0.0
 10
502.4244412913245
 20
214.8054230469198
 30
0.0
 10
502.0805373693112
 20
215.716020285695
 30
0.0
 10
501.9115300634227
 20
216.2671095526066
 30
0.0
 10
501.7762330826752
 20
216.8362685440867
 30
0.0
 10
501.677764285217
 20
217.4215374015316
 30
0.0
 10
501.614573851666
 20
218.0206421584155
 30
0.0
 10
501.6066540744856
 20
218.424742640428
 30
0.0
 10
501.6026661477668
 20
218.6282235051777
 30
0.0
  0
LINE
  5
1B8
330
1F
100
AcDbEntity
  8
0
  6
Continuous
 62
     7
370
    35
100
AcDbLine
 10
591.2192749033
 20
232.2519603144
 30
0.0
 11
591.2192749033
 21
218.6282235052
 31
0.0
  0
LINE
  5
1B9
330
1F
100
AcDbEntity
  8
0
  6
Continuous
 62
     7
370
    35
100
AcDbLine
 10
590.2015097464
 20
218.6282235052
 30
0.0
 11
590.2015097464
 21
230.3051682641
 31
0.0
  0
LINE
  5
1BA
330
1F
100
AcDbEntity
  8
0
  6
Continuous
 62
     7
370
    35
100
AcDbLine
 10
502.6204313047
 20
230.3051682641
 30
0.0
 11
502.6204313047
 21
218.6282235052
 31
0.0
  0
LINE
  5
1BB
330
1F
100
AcDbEntity
  8
0
  6
Continuous
 62
     7
370
    35
100
AcDbLine
 10
510.6012954042
 20
210.6473594057
 30
0.0
 11
522.2782401631
 21
210.6473594057
 31
0.0
  0
ARC
  5
1BC
330
1F
100
AcDbEntity
  8
0
  6
Continuous
 62
     7
370
    35
100
AcDbCircle
 10
511.0556314662
 20
219.0825595672
 30
0.0
 40
3.800000000000006
100
AcDbArc
 50
132.8222360487
 51
180.0
  0
ARC
  5
1BD
330
1F
100
AcDbEntity
  8
0
  6
Continuous
 62
     7
370
    35
100
AcDbCircle
 10
511.0556314662
 20
219.0825595672
 30
0.0
 40
3.800000000000006
100
AcDbArc
 50
180.0
 51
317.1777639513
  0
LINE
  5
1BE
330
1F
100
AcDbEntity
  8
0
  6
Continuous
 62
     7
370
    35
100
AcDbLine
 10
570.543700888
 20
210.6473594057
 30
0.0
 11
582.2206456469
 21
210.6473594057
 31
0.0
  0
LINE
  5
1BF
330
1F
100
AcDbEntity
  8
0
  6
Continuous
 62
     7
370
    35
100
AcDbLine
 10
582.2206456469
 20
209.6295942488
 30
0.0
 11
568.5969088377
 21
209.6295942488
 31
0.0
  0
LINE
  5
1C0
330
1F
100
AcDbEntity
  8
0
  6
Continuous
 62
     7
370
    35
100
AcDbLine
 10
562.8500663147
 20
299.2462030043
 30
0.0
 11
562.861884513
 21
299.2462030043
 31
0.0
  0
LINE
  5
1C1
330
1F
100
AcDbEntity
  8
0
  6
Continuous
 62
     7
370
    35
100
AcDbLine
 10
562.861884513
 20
299.2462030043
 30
0.0
 11
562.891884513
 21
299.2462030043
 31
0.0
  0
LINE
  5
1C2
330
1F
100
AcDbEntity
  8
0
  6
Continuous
 62
     7
370
    35
100
AcDbLine
 10
562.891884513
 20
299.2462030043
 30
0.0
 11
582.2206456469
 21
299.2462030043
 31
0.0
  0
LINE
  5
1C3
330
1F
100
AcDbEntity
  8
0
  6
Continuous
 62
     7
370
    35
100
AcDbLine
 10
562.8500663147
 20
299.233821728
 30
0.0
 11
562.8500663147
 21
299.2462030043
 31
0.0
  0
SPLINE
  5
1C4
330
1F
100
AcDbEntity
  8
0
  6
Continuous
 62
     7
370
    35
100
AcDbSpline
210
0.0
220
0.0
230
1.0
 70
     8
 71
     3
 72
    28
 73
    24
 74
     0
 42
0.00000001
 43
0.00000001
 40
0.0
 40
0.0
 40
0.0
 40
0.0
 40
0.0208215902931989
 40
0.0416549694111822
 40
0.062522477824195
 40
0.0937693216877048
 40
0.1250398336316506
 40
0.1875364692332528
 40
0.2500315549498791
 40
0.3125253205067972
 40
0.3750180504656815
 40
0.437510065958337
 40
0.5000017177965368
 40
0.5624933696347405
 40
0.6249853851274002
 40
0.6874781150862809
 40
0.749971880643197
 40
0.8124669663598262
 40
0.8749636019614316
 40
0.9061903568369432
 40
0.9374809578695372
 40
0.9687444805281539
 40
1.0
 40
1.0
 40
1.0
 40
1.0
 10
582.2206456468726
 20
210.6473594056654
 30
0.0
 10
582.3076311469588
 20
210.6481769023366
 30
0.0
 10
582.481651396819
 20
210.6498123585315
 30
0.0
 10
582.7425702126903
 20
210.6631244153363
 30
0.0
 10
583.0463361722776
 20
210.6878854877323
 30
0.0
 10
583.3922118203285
 20
210.7305715372909
 30
0.0
 10
583.9069386466259
 20
210.8198313725058
 30
0.0
 10
584.541257661286
 20
210.9787667468321
 30
0.0
 10
585.2798836206424
 20
211.2429334782042
 30
0.0
 10
585.9890052319258
 20
211.5783944923623
 30
0.0
 10
586.6619014906838
 20
211.9815847115073
 30
0.0
 10
587.2919207564669
 20
212.4489365448951
 30
0.0
 10
587.873210924664
 20
212.9756582064757
 30
0.0
 10
588.3999326836088
 20
213.5569484027717
 30
0.0
 10
588.867284155636
 20
214.1869676535237
 30
0.0
 10
589.2704757228827
 20
214.8598639443071
 30
0.0
 10
589.6059317058728
 20
215.5689854425175
 30
0.0
 10
589.870117214383
 20
216.3076118221537
 30
0.0
 10
590.0289496919197
 20
216.9417519061443
 30
0.0
 10
590.1183462819636
 20
217.4564780117548
 30
0.0
 10
590.1660034847765
 20
217.8454653757567
 30
0.0
 10
590.1959847343069
 20
218.2364419439617
 30
0.0
 10
590.1996682328695
 20
218.497640796967
 30
0.0
 10
590.2015097463849
 20
218.6282235051777
 30
0.0
  0
SPLINE
  5
1C5
330
1F
100
AcDbEntity
  8
0
  6
Continuous
 62
     7
370
    35
100
AcDbSpline
210
0.0
220
0.0
230
1.0
 70
     8
 71
     3
 72
    29
 73
    25
 74
     0
 42
0.00000001
 43
0.00000001
 40
0.0
 40
0.0
 40
0.0
 40
0.0
 40
0.0216862077639609
 40
0.0432205313710411
 40
0.0646029771214822
 40
0.0858335514594269
 40
0.1069122609769965
 40
0.127839112418516
 40
0.1486141126849007
 40
0.1692372688381925
 40
0.1897085881062723
 40
0.2100280778877446
 40
0.2301957457570062
 40
0.2502115994695051
 40
0.3759257594208322
 40
0.5000167744249047
 40
0.6241043191755427
 40
0.7498219489439382
 40
0.7899994270068607
 40
0.8307843827329744
 40
0.8721768690915205
 40
0.9141769362139817
 40
0.956784631547913
 40
1.0
 40
1.0
 40
1.0
 40
1.0
 10
591.2192749032802
 20
218.6282235051777
 30
0.0
 10
591.2182689478027
 20
218.5261280686463
 30
0.0
 10
591.2162640822797
 20
218.3226522435747
 30
0.0
 10
591.2001856769898
 20
218.0188626221738
 30
0.0
 10
591.1748096100057
 20
217.7179052244076
 30
0.0
 10
591.1394441242338
 20
217.4201005682253
 30
0.0
 10
591.0945890979986
 20
217.1257538276457
 30
0.0
 10
591.0404381003668
 20
216.8351549274643
 30
0.0
 10
590.9772744123064
 20
216.5485783940387
 30
0.0
 10
590.9053654260373
 20
216.2662839387915
 30
0.0
 10
590.8249884086152
 20
215.9885145794098
 30
0.0
 10
590.7364274895493
 20
215.715503972548
 30
0.0
 10
590.6399560973766
 20
215.447449894867
 30
0.0
 10
590.35248736705
 20
214.7212911299296
 30
0.0
 10
589.748655314729
 20
213.5929225694039
 30
0.0
 10
588.6241245088258
 20
212.2247942189692
 30
0.0
 10
587.255895999141
 20
211.1001811083092
 30
0.0
 10
586.043446103295
 20
210.4513693915277
 30
0.0
 10
585.1328488644765
 20
210.1074654696315
 30
0.0
 10
584.5817595961851
 20
209.9384581635206
 30
0.0
 10
584.0126006041969
 20
209.8031611829143
 30
0.0
 10
583.4273317471641
 20
209.7046923857857
 30
0.0
 10
582.8282269916376
 20
209.6415019525867
 30
0.0
 10
582.4241265108541
 20
209.6335821754593
 30
0.0
 10
582.2206456468726
 20
209.6295942487701
 30
0.0
  0
LINE
  5
1C6
330
1F
100
AcDbEntity
  8
0
  6
Continuous
 62
     7
370
    35
100
AcDbLine
 10
510.6012954042
 20
299.2462030043
 30
0.0
 11
529.9300565381
 21
299.2462030043
 31
0.0
  0
LINE
  5
1C7
330
1F
100
AcDbEntity
  8
0
  6
Continuous
 62
     7
370
    35
100
AcDbLine
 10
529.9300565381
 20
299.2462030043
 30
0.0
 11
529.9600565381
 21
299.2462030043
 31
0.0
  0
LINE
  5
1C8
330
1F
100
AcDbEntity
  8
0
  6
Continuous
 62
     7
370
    35
100
AcDbLine
 10
529.9600565381
 20
299.2462030043
 30
0.0
 11
529.9718747411
 21
299.2462030043
 31
0.0
  0
LINE
  5
1C9
330
1F
100
AcDbEntity
  8
0
  6
Continuous
 62
     7
370
    35
100
AcDbLine
 10
529.9718747411
 20
299.2338217301
 30
0.0
 11
529.9718747411
 21
299.2462030043
 31
0.0
  0
ARC
  5
1CA
330
1F
100
AcDbEntity
  8
0
  6
Continuous
 62
     7
370
    35
100
AcDbCircle
 10
581.7663095849
 20
219.0825595672
 30
0.0
 40
3.799999999999986
100
AcDbArc
 50
222.8222360487
 51
47.1777639513
  0
LINE
  5
1CB
330
1F
100
AcDbEntity
  8
0
  6
Continuous
 62
     7
370
    35
100
AcDbLine
 10
524.2250322134
 20
209.6295942488
 30
0.0
 11
510.6012954042
 21
209.6295942488
 31
0.0
  0
LINE
  5
1CC
330
1F
100
AcDbEntity
  8
0
  6
Continuous
 62
     7
370
    35
100
AcDbLine
 10
501.6026661478
 20
218.6282235052
 30
0.0
 11
501.6026661478
 21
232.2519603144
 31
0.0
  0
ARC
  5
1CD
330
1F
100
AcDbEntity
  8
0
  6
Continuous
 62
     7
370
    35
100
AcDbCircle
 10
511.0556314662
 20
219.0825595672
 30
0.0
 40
3.300000000000011
100
AcDbArc
 50
133.1088959347
 51
180.0
  0
ARC
  5
1CE
330
1F
100
AcDbEntity
  8
0
  6
Continuous
 62
     7
370
    35
100
AcDbCircle
 10
511.0556314662
 20
219.0825595672
 30
0.0
 40
3.300000000000072
100
AcDbArc
 50
180.0
 51
316.8911040653
  0
ARC
  5
1CF
330
1F
100
AcDbEntity
  8
0
  6
Continuous
 62
     7
370
    35
100
AcDbCircle
 10
511.0556314662
 20
289.7932376859
 30
0.0
 40
3.300000000000068
100
AcDbArc
 50
43.1088959347
 51
180.0
  0
ARC
  5
1D0
330
1F
100
AcDbEntity
  8
0
  6
Continuous
 62
     7
370
    35
100
AcDbCircle
 10
511.0556314662
 20
289.7932376859
 30
0.0
 40
3.30000000000007
100
AcDbArc
 50
180.0
 51
226.8911040653
  0
ARC
  5
1D1
330
1F
100
AcDbEntity
  8
0
  6
Continuous
 62
     7
370
    35
100
AcDbCircle
 10
581.7663095849
 20
289.7932376859
 30
0.0
 40
3.299999999999989
100
AcDbArc
 50
313.1088959347
 51
136.8911040653
  0
ARC
  5
1D2
330
1F
100
AcDbEntity
  8
0
  6
Continuous
 62
     7
370
    35
100
AcDbCircle
 10
581.7663095849
 20
219.0825595672
 30
0.0
 40
3.300000000000072
100
AcDbArc
 50
223.1088959347
 51
46.8911040653
  0
LINE
  5
1D3
330
1F
100
AcDbEntity
  8
0
  6
Continuous
 62
     7
370
    35
100
AcDbLine
 10
591.4022429931
 20
218.4452554154
 30
0.0
 11
591.4022429931
 21
232.625392999
 31
0.0
  0
LINE
  5
1D4
330
1F
100
AcDbEntity
  8
0
  6
Continuous
 62
     7
370
    35
100
AcDbLine
 10
591.4022429931
 20
276.2504042541
 30
0.0
 11
591.4022429931
 21
290.4305418377
 31
0.0
  0
LINE
  5
1D5
330
1F
100
AcDbEntity
  8
0
  6
Continuous
 62
     7
370
    35
100
AcDbLine
 10
501.419698058
 20
290.4305418377
 30
0.0
 11
501.419698058
 21
276.2504042541
 31
0.0
  0
LINE
  5
1D6
330
1F
100
AcDbEntity
  8
0
  6
Continuous
 62
     7
370
    35
100
AcDbLine
 10
501.419698058
 20
232.625392999
 30
0.0
 11
501.419698058
 21
218.4452554154
 31
0.0
  0
LINE
  5
1D7
330
1F
100
AcDbEntity
  8
0
  6
Continuous
 62
     7
370
    35
100
AcDbLine
 10
510.4183273144
 20
209.446626159
 30
0.0
 11
524.598464898
 21
209.446626159
 31
0.0
  0
LINE
  5
1D8
330
1F
100
AcDbEntity
  8
0
  6
Continuous
 62
     7
370
    35
100
AcDbLine
 10
568.2234761531
 20
209.446626159
 30
0.0
 11
582.4036137367
 21
209.446626159
 31
0.0
  0
LINE
  5
1D9
330
1F
100
AcDbEntity
  8
0
  6
Continuous
 62
     7
370
    35
100
AcDbLine
 10
582.4036137367
 20
299.4291710941
 30
0.0
 11
570.3828813058
 21
299.4291710941
 31
0.0
  0
LINE
  5
1DA
330
1F
100
AcDbEntity
  8
0
  6
Continuous
 62
     7
370
    35
100
AcDbLine
 10
522.4390597452
 20
299.4291710941
 30
0.0
 11
510.4183273144
 21
299.4291710941
 31
0.0
  0
LINE
  5
1DB
330
1F
100
AcDbEntity
  8
0
  6
Continuous
 62
     7
370
    35
100
AcDbLine
 10
562.8500663147
 20
299.2462030043
 30
0.0
 11
562.8500663147
 21
299.2470836546
 31
0.0
  0
LINE
  5
1DC
330
1F
100
AcDbEntity
  8
0
  6
Continuous
 62
     7
370
    35
100
AcDbLine
 10
529.9718747411
 20
299.2462030043
 30
0.0
 11
529.9718747411
 21
299.2470836546
 31
0.0
  0
ARC
  5
1DD
330
1F
100
AcDbEntity
  8
0
  6
Continuous
 62
     7
370
    35
100
AcDbCircle
 10
510.4109705255
 20
218.4378986265
 30
0.0
 40
9.0
100
AcDbArc
 50
180.0
 51
270.0
  0
LINE
  5
1DE
330
1F
100
AcDbEntity
  8
0
  6
Continuous
 62
     7
370
    35
100
AcDbLine
 10
501.4109705255
 20
218.4378986265
 30
0.0
 11
501.4109705255
 21
232.6434039088
 31
0.0
  0
LINE
  5
1DF
330
1F
100
AcDbEntity
  8
0
  6
Continuous
 62
     7
370
    35
100
AcDbLine
 10
501.4109705255
 20
276.2323933442
 30
0.0
 11
501.4109705255
 21
290.4378986265
 31
0.0
  0
LINE
  5
1E0
330
1F
100
AcDbEntity
  8
0
  6
Continuous
 62
     7
370
    35
100
AcDbLine
 10
582.4109705255
 20
209.4378986265
 30
0.0
 11
568.2054652432
 21
209.4378986265
 31
0.0
  0
LINE
  5
1E1
330
1F
100
AcDbEntity
  8
0
  6
Continuous
 62
     7
370
    35
100
AcDbLine
 10
524.6164758078
 20
209.4378986265
 30
0.0
 11
510.4109705255
 21
209.4378986265
 31
0.0
  0
LINE
  5
1E2
330
1F
100
AcDbEntity
  8
0
  6
Continuous
 62
     7
370
    35
100
AcDbLine
 10
591.4109705255
 20
290.4378986265
 30
0.0
 11
591.4109705255
 21
276.2323933442
 31
0.0
  0
LINE
  5
1E3
330
1F
100
AcDbEntity
  8
0
  6
Continuous
 62
     7
370
    35
100
AcDbLine
 10
591.4109705255
 20
232.6434039088
 30
0.0
 11
591.4109705255
 21
218.4378986265
 31
0.0
  0
ARC
  5
1E4
330
1F
100
AcDbEntity
  8
0
  6
Continuous
 62
     7
370
    35
100
AcDbCircle
 10
582.4109705255
 20
290.4378986265
 30
0.0
 40
9.0
100
AcDbArc
 50
0.0
 51
90.0
  0
ARC
  5
1E5
330
1F
100
AcDbEntity
  8
0
  6
Continuous
 62
     7
370
    35
100
AcDbCircle
 10
510.4109705255
 20
290.4378986265
 30
0.0
 40
9.0
100
AcDbArc
 50
90.0
 51
180.0
  0
ARC
  5
1E6
330
1F
100
AcDbEntity
  8
0
  6
Continuous
 62
     7
370
    35
100
AcDbCircle
 10
582.4109705255
 20
218.4378986265
 30
0.0
 40
9.0
100
AcDbArc
 50
270.0
 51
0.0
  0
LINE
  5
1E7
330
1F
100
AcDbEntity
  8
0
  6
Continuous
 62
     7
370
    35
100
AcDbLine
 10
510.4109705255
 20
299.4378986265
 30
0.0
 11
522.7333652255
 21
299.4378986265
 31
0.0
  0
LINE
  5
1E8
330
1F
100
AcDbEntity
  8
0
  6
Continuous
 62
     7
370
    35
100
AcDbLine
 10
570.0885758256
 20
299.4378986265
 30
0.0
 11
582.4109705255
 21
299.4378986265
 31
0.0
  0
LINE
  5
1E9
330
1F
100
AcDbEntity
  8
0
  6
HIDDEN
 62
     7
370
    18
100
AcDbLine
 10
541.4109705255
 20
298.9378986265
 30
0.0
 11
531.4109705255
 21
298.9378986265
 31
0.0
  0
LINE
  5
1EA
330
1F
100
AcDbEntity
  8
0
  6
HIDDEN
 62
     7
370
    18
100
AcDbLine
 10
551.4109705255
 20
298.9378986265
 30
0.0
 11
541.4109705255
 21
298.9378986265
 31
0.0
  0
LINE
  5
1EB
330
1F
100
AcDbEntity
  8
0
  6
HIDDEN
 62
     7
370
    18
100
AcDbLine
 10
530.9128508375
 20
296.9378986265
 30
0.0
 11
551.9090902136
 21
296.9378986265
 31
0.0
  0
LINE
  5
1EC
330
1F
100
AcDbEntity
  8
0
  6
HIDDEN
 62
     7
370
    18
100
AcDbLine
 10
533.0684941577
 20
296.9378986265
 30
0.0
 11
549.7534468933
 21
296.9378986265
 31
0.0
  0
LINE
  5
1ED
330
1F
100
AcDbEntity
  8
0
  6
HIDDEN
 62
     7
370
    18
100
AcDbLine
 10
549.4609705255
 20
291.9378986265
 30
0.0
 11
533.3609705255
 21
291.9378986265
 31
0.0
  0
LINE
  5
1EE
330
1F
100
AcDbEntity
  8
0
  6
HIDDEN
 62
     7
370
    18
100
AcDbLine
 10
534.0209705255
 20
260.4378986265
 30
0.0
 11
526.8009705255
 21
260.4378986265
 31
0.0
  0
LINE
  5
1EF
330
1F
100
AcDbEntity
  8
0
  6
HIDDEN
 62
     7
370
    18
100
AcDbLine
 10
533.8209705003
 20
264.4378986265
 30
0.0
 11
527.0009705255
 21
264.4378986265
 31
0.0
  0
LINE
  5
1F0
330
1F
100
AcDbEntity
  8
0
  6
HIDDEN
 62
     7
370
    18
100
AcDbLine
 10
532.6109705255
 20
260.4378986265
 30
0.0
 11
528.2109705255
 21
260.4378986265
 31
0.0
  0
LINE
  5
1F1
330
1F
100
AcDbEntity
  8
0
  6
HIDDEN
 62
     7
370
    18
100
AcDbLine
 10
528.7899705255
 20
244.4378986265
 30
0.0
 11
532.0319705255
 21
244.4378986265
 31
0.0
  0
LINE
  5
1F2
330
1F
100
AcDbEntity
  8
0
  6
HIDDEN
 62
     7
370
    18
100
AcDbLine
 10
528.4109705255
 20
244.8168986265
 30
0.0
 11
532.4109705255
 21
244.8168986265
 31
0.0
  0
LINE
  5
1F3
330
1F
100
AcDbEntity
  8
0
  6
HIDDEN
 62
     7
370
    18
100
AcDbLine
 10
530.4109705255
 20
264.4378986265
 30
0.0
 11
531.9509705255
 21
264.4378986265
 31
0.0
  0
LINE
  5
1F4
330
1F
100
AcDbEntity
  8
0
  6
HIDDEN
 62
     7
370
    18
100
AcDbLine
 10
549.4109705255
 20
296.9378986265
 30
0.0
 11
533.4109705255
 21
296.9378986265
 31
0.0
  0
ARC
  5
1F5
330
1F
100
AcDbEntity
  8
0
  6
HIDDEN
 62
     7
370
    18
100
AcDbCircle
 10
546.4109705255
 20
254.4378986265
 30
0.0
 40
21.00000000000002
100
AcDbArc
 50
139.6324064558
 51
163.398450401
  0
LINE
  5
1F6
330
1F
100
AcDbEntity
  8
0
  6
HIDDEN
 62
     7
370
    18
100
AcDbLine
 10
526.286358728
 20
260.4378986265
 30
0.0
 11
530.4109705255
 21
260.4378986265
 31
0.0
  0
LINE
  5
1F7
330
1F
100
AcDbEntity
  8
0
  6
HIDDEN
 62
     7
370
    18
100
AcDbLine
 10
530.4109705255
 20
260.4378986265
 30
0.0
 11
534.4109705255
 21
260.4378986265
 31
0.0
  0
SPLINE
  5
1F8
330
1F
100
AcDbEntity
  8
0
  6
HIDDEN
 62
     7
370
    18
100
AcDbSpline
210
0.0
220
0.0
230
1.0
 70
    11
 71
     3
 72
    28
 73
    24
 74
     0
 42
0.00000001
 43
0.00000001
 40
0.0
 40
0.0
 40
0.0
 40
0.0
 40
0.0557509334731089
 40
0.1116399689582275
 40
0.1672733370045376
 40
0.2205524784898326
 40
0.2737733804432234
 40
0.3184837165300419
 40
0.3631563631891624
 40
0.4081525728458137
 40
0.4531189404912616
 40
0.4924349489125028
 40
0.5317492890710013
 40
0.5687737754411594
 40
0.605809311668912
 40
0.6438974044019067
 40
0.6820050185564682
 40
0.724083677175757
 40
0.7661900708357189
 40
0.8288355126468178
 40
0.8915690912013258
 40
0.9457719902778003
 40
1.0
 40
1.0
 40
1.0
 40
1.0
 10
530.4109705255235
 20
268.0393691352622
 30
0.0
 10
530.5939695809086
 20
268.249400254388
 30
0.0
 10
530.9604210031514
 20
268.6699827659037
 30
0.0
 10
531.5351999976125
 20
269.2666950231626
 30
0.0
 10
532.1080705195519
 20
269.8210499013616
 30
0.0
 10
532.6662184215247
 20
270.3198468053341
 30
0.0
 10
533.1621527062753
 20
270.7348242707476
 30
0.0
 10
533.5855720612359
 20
271.0685310942452
 30
0.0
 10
533.9296150405345
 20
271.3276805917155
 30
0.0
 10
534.1952410121844
 20
271.5201325872686
 30
0.0
 10
534.3612301655329
 20
271.6369365322784
 30
0.0
 10
534.4230329734968
 20
271.680107955705
 30
0.0
 10
534.3978058787941
 20
271.6624142922928
 30
0.0
 10
534.2910130097589
 20
271.5877798188975
 30
0.0
 10
534.1163330090646
 20
271.4632701599069
 30
0.0
 10
533.8751172577033
 20
271.2869050854894
 30
0.0
 10
533.5693738726284
 20
271.0557843239512
 30
0.0
 10
533.2065478639281
 20
270.7695525743734
 30
0.0
 10
532.7322054409365
 20
270.3769672334841
 30
0.0
 10
532.1571488463251
 20
269.8676320772605
 30
0.0
 10
531.531481427612
 20
269.2648171727032
 30
0.0
 10
530.9444009220249
 20
268.6525400989057
 30
0.0
 10
530.5888081073213
 20
268.2437910094527
 30
0.0
 10
530.4109705255235
 20
268.0393691352622
 30
0.0
  0
LINE
  5
1F9
330
1F
100
AcDbEntity
  8
0
  6
HIDDEN
 62
     7
370
    18
100
AcDbLine
 10
532.6532856348
 20
260.4378986265
 30
0.0
 11
528.1686554163
 21
260.4378986265
 31
0.0
  0
LINE
  5
1FA
330
1F
100
AcDbEntity
  8
0
  6
HIDDEN
 62
     7
370
    18
100
AcDbLine
 10
532.6532856348
 20
254.9378986265
 30
0.0
 11
528.1686554163
 21
254.9378986265
 31
0.0
  0
LINE
  5
1FB
330
1F
100
AcDbEntity
  8
0
  6
HIDDEN
 62
     7
370
    18
100
AcDbLine
 10
532.6609705255
 20
253.4378986265
 30
0.0
 11
528.1609705255
 21
253.4378986265
 31
0.0
  0
LINE
  5
1FC
330
1F
100
AcDbEntity
  8
0
  6
HIDDEN
 62
     7
370
    18
100
AcDbLine
 10
532.6532856348
 20
253.9378986265
 30
0.0
 11
528.1686554163
 21
253.9378986265
 31
0.0
  0
LINE
  5
1FD
330
1F
100
AcDbEntity
  8
0
  6
HIDDEN
 62
     7
370
    18
100
AcDbLine
 10
532.0591016352
 20
253.4378986265
 30
0.0
 11
528.7628394159
 21
253.4378986265
 31
0.0
  0
SPLINE
  5
1FE
330
1F
100
AcDbEntity
  8
0
  6
HIDDEN
 62
     7
370
    18
100
AcDbSpline
210
0.0
220
0.0
230
1.0
 70
    11
 71
     3
 72
    35
 73
    31
 74
     0
 42
0.00000001
 43
0.00000001
 40
0.0
 40
0.0
 40
0.0
 40
0.0
 40
0.0442512194082778
 40
0.0884217885925277
 40
0.1145061305564236
 40
0.1405588568097499
 40
0.1817529530602305
 40
0.2151294026362924
 40
0.2486441607313643
 40
0.2791190379310535
 40
0.310722705147829
 40
0.3341040998723298
 40
0.3575185052615087
 40
0.390167721842546
 40
0.4228670003200313
 40
0.4683123519125326
 40
0.5138052743498598
 40
0.5603473598639441
 40
0.606847127424562
 40
0.6567093669288205
 40
0.6952492055793215
 40
0.7213070501715307
 40
0.7475567187730027
 40
0.7703631205920872
 40
0.8030669171183157
 40
0.8294202836929374
 40
0.8558303560099282
 40
0.8993627934855226
 40
0.9429535136626545
 40
1.0
 40
1.0
 40
1.0
 40
1.0
 10
530.4109705255235
 20
240.8364281177913
 30
0.0
 10
530.5405543751109
 20
240.6866209122448
 30
0.0
 10
530.7994859007601
 20
240.3872795328299
 30
0.0
 10
531.1395546763949
 20
240.0209470278825
 30
0.0
 10
531.4139601548746
 20
239.7368773338153
 30
0.0
 10
531.6635313408743
 20
239.4859846857109
 30
0.0
 10
531.8951845813652
 20
239.2616418300592
 30
0.0
 10
532.049287453026
 20
239.1164888472246
 30
0.0
 10
532.075921339779
 20
239.0916954692326
 30
0.0
 10
531.9884292626225
 20
239.1735523197185
 30
0.0
 10
531.8323941197135
 20
239.322125627684
 30
0.0
 10
531.6491451813691
 20
239.5011347230743
 30
0.0
 10
531.4404395323279
 20
239.7096782553837
 30
0.0
 10
531.1880229770383
 20
239.9702116901049
 30
0.0
 10
530.8615808064476
 20
240.3202062495081
 30
0.0
 10
530.4953860039456
 20
240.7335342913403
 30
0.0
 10
530.0998558169345
 20
241.2061629999023
 30
0.0
 10
529.7225024177992
 20
241.6861429755652
 30
0.0
 10
529.3630720831887
 20
242.1704983495291
 30
0.0
 10
529.0635534174965
 20
242.5998126018168
 30
0.0
 10
528.8631570922512
 20
242.9012799913326
 30
0.0
 10
528.7663306196828
 20
243.0506773800907
 30
0.0
 10
528.7528127791061
 20
243.0717467168719
 30
0.0
 10
528.8123775448119
 20
242.9793790014405
 30
0.0
 10
528.9333412900475
 20
242.7948804169428
 30
0.0
 10
529.0959062125465
 20
242.5546048736832
 30
0.0
 10
529.3044803849248
 20
242.2547411052999
 30
0.0
 10
529.5796228785512
 20
241.8764140061788
 30
0.0
 10
529.9592512823468
 20
241.3791126842585
 30
0.0
 10
530.247548454616
 20
241.0327594387197
 30
0.0
 10
530.4109705255235
 20
240.8364281177913
 30
0.0
  0
ARC
  5
1FF
330
1F
100
AcDbEntity
  8
0
  6
HIDDEN
 62
     7
370
    18
100
AcDbCircle
 10
546.4109705255
 20
254.4378986265
 30
0.0
 40
21.00000000000002
100
AcDbArc
 50
139.6324064558
 51
163.398450401
  0
LINE
  5
200
330
1F
100
AcDbEntity
  8
0
  6
HIDDEN
 62
     7
370
    18
100
AcDbLine
 10
553.4109705255
 20
254.4378986265
 30
0.0
 11
553.4109705255
 21
274.2368884998
 31
0.0
  0
ARC
  5
201
330
1F
100
AcDbEntity
  8
0
  6
HIDDEN
 62
     7
370
    18
100
AcDbCircle
 10
546.4109705255
 20
254.4378986265
 30
0.0
 40
21.00000000000003
100
AcDbArc
 50
70.5287793655
 51
178.6356858493
  0
ARC
  5
202
330
1F
100
AcDbEntity
  8
0
  6
HIDDEN
 62
     7
370
    18
100
AcDbCircle
 10
546.4109705255
 20
254.4378986265
 30
0.0
 40
7.000000000000026
100
AcDbArc
 50
0.0
 51
175.9039562418
  0
LINE
  5
203
330
1F
100
AcDbEntity
  8
0
  6
HIDDEN
 62
     7
370
    18
100
AcDbLine
 10
525.4169237503
 20
254.9378986265
 30
0.0
 11
539.4288505036
 21
254.9378986265
 31
0.0
  0
LINE
  5
204
330
1F
100
AcDbEntity
  8
0
  6
HIDDEN
 62
     7
370
    18
100
AcDbLine
 10
553.4109705255
 20
234.6389087533
 30
0.0
 11
553.4109705255
 21
254.4378986265
 31
0.0
  0
ARC
  5
205
330
1F
100
AcDbEntity
  8
0
  6
HIDDEN
 62
     7
370
    18
100
AcDbCircle
 10
546.4109705255
 20
254.4378986265
 30
0.0
 40
21.00000000000003
100
AcDbArc
 50
181.3643141507
 51
289.4712206345
  0
ARC
  5
206
330
1F
100
AcDbEntity
  8
0
  6
HIDDEN
 62
     7
370
    18
100
AcDbCircle
 10
546.4109705255
 20
254.4378986265
 30
0.0
 40
7.000000000000028
100
AcDbArc
 50
184.0960437582
 51
0.0
  0
LINE
  5
207
330
1F
100
AcDbEntity
  8
0
  6
HIDDEN
 62
     7
370
    18
100
AcDbLine
 10
525.4169237503
 20
253.9378986265
 30
0.0
 11
539.4288505036
 21
253.9378986265
 31
0.0
  0
ARC
  5
208
330
1F
100
AcDbEntity
  8
0
  6
HIDDEN
 62
     7
370
    18
100
AcDbCircle
 10
546.4109705255
 20
254.4378986265
 30
0.0
 40
7.000000000000028
100
AcDbArc
 50
184.0960437582
 51
0.0
  0
ARC
  5
209
330
1F
100
AcDbEntity
  8
0
  6
HIDDEN
 62
     7
370
    18
100
AcDbCircle
 10
546.4109705255
 20
254.4378986265
 30
0.0
 40
21.00000000000003
100
AcDbArc
 50
181.3643141507
 51
289.4712206345
  0
ARC
  5
20A
330
1F
100
AcDbEntity
  8
0
  6
HIDDEN
 62
     7
370
    18
100
AcDbCircle
 10
546.4109705255
 20
254.4378986265
 30
0.0
 40
7.000000000000026
100
AcDbArc
 50
0.0
 51
175.9039562418
  0
ARC
  5
20B
330
1F
100
AcDbEntity
  8
0
  6
HIDDEN
 62
     7
370
    18
100
AcDbCircle
 10
546.4109705255
 20
254.4378986265
 30
0.0
 40
21.00000000000003
100
AcDbArc
 50
70.5287793655
 51
178.6356858493
  0
LINE
  5
20C
330
1F
100
AcDbEntity
  8
0
  6
HIDDEN
 62
     7
370
    18
100
AcDbLine
 10
549.7609705255
 20
292.2378986265
 30
0.0
 11
549.7609705255
 21
296.9378986265
 31
0.0
  0
LINE
  5
20D
330
1F
100
AcDbEntity
  8
0
  6
HIDDEN
 62
     7
370
    18
100
AcDbLine
 10
533.0609705255
 20
296.9378986265
 30
0.0
 11
533.0609705255
 21
292.2378986265
 31
0.0
  0
ARC
  5
20E
330
1F
100
AcDbEntity
  8
0
  6
HIDDEN
 62
     7
370
    18
100
AcDbCircle
 10
533.3609705255
 20
292.2378986265
 30
0.0
 40
0.3000000000000114
100
AcDbArc
 50
180.0
 51
270.0
  0
ARC
  5
20F
330
1F
100
AcDbEntity
  8
0
  6
HIDDEN
 62
     7
370
    18
100
AcDbCircle
 10
549.4609705255
 20
292.2378986265
 30
0.0
 40
0.3000000000000114
100
AcDbArc
 50
270.0
 51
0.0
  0
LINE
  5
210
330
1F
100
AcDbEntity
  8
0
  6
HIDDEN
 62
     7
370
    18
100
AcDbLine
 10
534.0209705255
 20
260.4378986265
 30
0.0
 11
534.0209705255
 21
264.2378986265
 31
0.0
  0
LINE
  5
211
330
1F
100
AcDbEntity
  8
0
  6
HIDDEN
 62
     7
370
    18
100
AcDbLine
 10
526.8009705255
 20
264.2378986265
 30
0.0
 11
526.8009705255
 21
260.4378986265
 31
0.0
  0
ARC
  5
212
330
1F
100
AcDbEntity
  8
0
  6
HIDDEN
 62
     7
370
    18
100
AcDbCircle
 10
527.0009705255
 20
264.2378986265
 30
0.0
 40
0.2000000000000455
100
AcDbArc
 50
90.0
 51
180.0
  0
ARC
  5
213
330
1F
100
AcDbEntity
  8
0
  6
HIDDEN
 62
     7
370
    18
100
AcDbCircle
 10
533.8209705255
 20
264.2378986265
 30
0.0
 40
0.1999999999999886
100
AcDbArc
 50
0.0
 51
90.0
  0
ARC
  5
214
330
1F
100
AcDbEntity
  8
0
  6
HIDDEN
 62
     7
370
    18
100
AcDbCircle
 10
532.6109705255
 20
260.2378986265
 30
0.0
 40
0.2000000000000455
100
AcDbArc
 50
90.0
 51
180.0
  0
ARC
  5
215
330
1F
100
AcDbEntity
  8
0
  6
HIDDEN
 62
     7
370
    18
100
AcDbCircle
 10
528.2109705255
 20
260.2378986265
 30
0.0
 40
0.2000000000000455
100
AcDbArc
 50
0.0
 51
90.0
  0
LINE
  5
216
330
1F
100
AcDbEntity
  8
0
  6
HIDDEN
 62
     7
370
    18
100
AcDbLine
 10
528.4109705255
 20
244.8168986265
 30
0.0
 11
528.7899705255
 21
244.4378986265
 31
0.0
  0
LINE
  5
217
330
1F
100
AcDbEntity
  8
0
  6
HIDDEN
 62
     7
370
    18
100
AcDbLine
 10
532.0319705255
 20
244.4378986265
 30
0.0
 11
532.4109705255
 21
244.8168986265
 31
0.0
  0
LINE
  5
218
330
1F
100
AcDbEntity
  8
0
  6
HIDDEN
 62
     7
370
    18
100
AcDbLine
 10
532.4109705255
 20
244.8168986265
 30
0.0
 11
532.4109705255
 21
253.9378986265
 31
0.0
  0
LINE
  5
219
330
1F
100
AcDbEntity
  8
0
  6
HIDDEN
 62
     7
370
    18
100
AcDbLine
 10
532.4109705255
 20
254.9378986265
 30
0.0
 11
532.4109705255
 21
260.2378986265
 31
0.0
  0
LINE
  5
21A
330
1F
100
AcDbEntity
  8
0
  6
HIDDEN
 62
     7
370
    18
100
AcDbLine
 10
528.4109705255
 20
260.2378986265
 30
0.0
 11
528.4109705255
 21
244.8168986265
 31
0.0
  0
LINE
  5
21B
330
1F
100
AcDbEntity
  8
0
  6
HIDDEN
 62
     7
370
    18
100
AcDbLine
 10
533.4109705255
 20
296.9378986265
 30
0.0
 11
533.4109705255
 21
275.7986431717
 31
0.0
  0
LINE
  5
21C
330
1F
100
AcDbEntity
  8
0
  6
HIDDEN
 62
     7
370
    18
100
AcDbLine
 10
549.4109705255
 20
279.2603060733
 30
0.0
 11
549.4109705255
 21
296.9378986265
 31
0.0
  0
LINE
  5
21D
330
1F
100
AcDbEntity
  8
0
  6
HIDDEN
 62
     7
370
    18
100
AcDbLine
 10
534.4109705255
 20
260.4378986265
 30
0.0
 11
534.4109705255
 21
271.6667091449
 31
0.0
  0
LINE
  5
21E
330
1F
100
AcDbEntity
  8
0
  6
HIDDEN
 62
     7
370
    18
100
AcDbLine
 10
528.1609705255
 20
260.4378986265
 30
0.0
 11
528.1609705255
 21
254.9378986265
 31
0.0
  0
LINE
  5
21F
330
1F
100
AcDbEntity
  8
0
  6
HIDDEN
 62
     7
370
    18
100
AcDbLine
 10
532.6609705255
 20
254.9378986265
 30
0.0
 11
532.6609705255
 21
260.4378986265
 31
0.0
  0
LINE
  5
220
330
1F
100
AcDbEntity
  8
0
  6
HIDDEN
 62
     7
370
    18
100
AcDbLine
 10
528.1609705255
 20
253.9378986265
 30
0.0
 11
528.1609705255
 21
253.4378986265
 31
0.0
  0
LINE
  5
221
330
1F
100
AcDbEntity
  8
0
  6
HIDDEN
 62
     7
370
    18
100
AcDbLine
 10
532.6609705255
 20
253.4378986265
 30
0.0
 11
532.6609705255
 21
253.9378986265
 31
0.0
  0
LINE
  5
222
330
1F
100
AcDbEntity
  8
0
  6
HIDDEN
 62
     7
370
    18
100
AcDbLine
 10
528.7609705255
 20
253.4378986265
 30
0.0
 11
528.7609705255
 21
243.0463168496
 31
0.0
  0
LINE
  5
223
330
1F
100
AcDbEntity
  8
0
  6
HIDDEN
 62
     7
370
    18
100
AcDbLine
 10
532.0609705255
 20
239.11742388
 30
0.0
 11
532.0609705255
 21
253.4378986265
 31
0.0
  0
ARC
  5
224
330
1F
100
AcDbEntity
  8
0
  6
HIDDEN
 62
     1
370
    18
100
AcDbCircle
 10
546.4109705255
 20
254.4378986265
 30
0.0
 40
21.00000000000002
100
AcDbArc
 50
289.4712206345
 51
70.5287793655
  0
CIRCLE
  5
225
330
1F
100
AcDbEntity
  8
0
  6
HIDDEN
 62
     1
370
    18
100
AcDbCircle
 10
546.4109705255
 20
254.4378986265
 30
0.0
 40
25.00000000000006
  0
INSERT
  5
271
330
1F
100
AcDbEntity
  8
0
  6
Continuous
 62
     7
370
     0
100
AcDbBlockReference
  2
SW_CENTERMARKSYMBOL_2
 10
510.6135960614
 20
272.2858111509
 30
0.0
  0
INSERT
  5
291
330
1F
100
AcDbEntity
  8
0
  6
Continuous
 62
     7
370
     0
100
AcDbBlockReference
  2
SW_CENTERMARKSYMBOL_3
 10
521.4147458106
 20
279.4341233415
 30
0.0
  0
INSERT
  5
2B1
330
1F
100
AcDbEntity
  8
0
  6
Continuous
 62
     7
370
     0
100
AcDbBlockReference
  2
SW_CENTERMARKSYMBOL_4
 10
521.4147458106
 20
279.4341233415
 30
0.0
  0
INSERT
  5
2D5
330
1F
100
AcDbEntity
  8
0
  6
Continuous
 62
     7
370
     0
100
AcDbBlockReference
  2
SW_CENTERMARKSYMBOL_5
 10
511.0556314662
 20
289.7932376859
 30
0.0
  0
LINE
  5
2D6
330
1F
100
AcDbEntity
  8
0
  6
CENTER
 62
     7
370
    18
100
AcDbLine
 10
528.7333009959
 20
236.7602290969
 30
0.0
 11
496.5874244038
 21
204.6143525048
 31
0.0
  0
LINE
  5
2D7
330
1F
100
AcDbEntity
  8
0
  6
Continuous
 62
     7
370
    18
100
AcDbLine
 10
518.7838984074
 20
242.4669909982
 30
0.0
 11
526.6119806523
 21
234.6389087533
 31
0.0
  0
SOLID
  5
2D8
330
1F
100
AcDbEntity
  8
0
  6
Continuous
 62
     7
370
    18
100
AcDbTrace
 10
526.6119806523
 20
234.6389087533
 30
0.0
 11
522.2859352012
 21
240.6129715192
 31
0.0
 12
520.6379178864
 22
238.9649542044
 32
0.0
 13
520.6379178864
 23
238.9649542044
 33
0.0
  0
LINE
  5
2D9
330
1F
100
AcDbEntity
  8
0
  6
Continuous
 62
     7
370
    18
100
AcDbLine
 10
490.8806625025
 20
214.5637550933
 30
0.0
 11
498.7087447474
 21
206.7356728484
 31
0.0
  0
SOLID
  5
2DA
330
1F
100
AcDbEntity
  8
0
  6
Continuous
 62
     7
370
    18
100
AcDbTrace
 10
498.7087447474
 20
206.7356728484
 30
0.0
 11
494.3826992962
 21
212.7097356142
 31
0.0
 12
492.7346819815
 22
211.0617182995
 32
0.0
 13
492.7346819815
 23
211.0617182995
 33
0.0
  0
MTEXT
  5
2DB
330
1F
100
AcDbEntity
  8
0
  6
Continuous
 62
     7
100
AcDbMText
 10
513.0742179647
 20
249.2412910505
 30
0.0
 40
7.2832763672
 41
0.0
 71
     1
 72
     1
  1
X
  7
SLDTEXTSTYLE2
 73
     1
 44
1.0
  0
MTEXT
  5
2DC
330
1F
100
AcDbEntity
  8
0
  6
Continuous
 62
     7
100
AcDbMText
 10
484.1063624501
 20
219.6693719636
 30
0.0
 40
7.2832763672
 41
0.0
 71
     1
 72
     1
  1
X
  7
SLDTEXTSTYLE2
 73
     1
 44
1.0
  0
LINE
  5
2DD
330
1F
100
AcDbEntity
  8
0
  6
Continuous
 62
     7
370
    18
100
AcDbLine
 10
528.7899705255
 20
254.9378986265
 30
0.0
 11
528.7899705255
 21
253.9378986265
 31
0.0
  0
LINE
  5
2DE
330
1F
100
AcDbEntity
  8
0
  6
Continuous
 62
     7
370
    18
100
AcDbLine
 10
532.0319705255
 20
253.9378986265
 30
0.0
 11
532.0319705255
 21
254.9378986265
 31
0.0
  0
CIRCLE
  5
2DF
330
1F
100
AcDbEntity
  8
0
  6
Continuous
 62
     7
370
     0
100
AcDbCircle
 10
571.4071952405
 20
279.4341233415
 30
0.0
 40
2.0
  0
CIRCLE
  5
2E0
330
1F
100
AcDbEntity
  8
0
  6
Continuous
 62
     7
370
     0
100
AcDbCircle
 10
521.4147458106
 20
279.4341233415
 30
0.0
 40
2.0
  0
CIRCLE
  5
2E1
330
1F
100
AcDbEntity
  8
0
  6
Continuous
 62
     7
370
     0
100
AcDbCircle
 10
521.4147458106
 20
229.4416739116
 30
0.0
 40
2.0
  0
CIRCLE
  5
2E2
330
1F
100
AcDbEntity
  8
0
  6
Continuous
 62
     7
370
     0
100
AcDbCircle
 10
571.4071952405
 20
229.4416739116
 30
0.0
 40
2.0
  0
LINE
  5
2E3
330
1F
100
AcDbEntity
  8
0
  6
CENTERX2
 62
     7
370
    18
100
AcDbLine
 10
541.4109705255
 20
272.7051868018
 30
0.0
 11
541.4109705255
 21
302.943224142
 31
0.0
  0
LINE
  5
2E4
330
1F
100
AcDbEntity
  8
0
  6
CENTERX2
 62
     7
370
    18
100
AcDbLine
 10
530.4109705255
 20
238.118095544
 30
0.0
 11
530.4109705255
 21
270.6103547946
 31
0.0
  0
LINE
  5
2E5
330
1F
100
AcDbEntity
  8
0
  6
Continuous
 62
     7
370
    35
100
AcDbLine
 10
291.9241342366
 20
266.8878986265
 30
0.0
 11
290.9241342366
 21
266.3105483573
 31
0.0
  0
LINE
  5
2E6
330
1F
100
AcDbEntity
  8
0
  6
Continuous
 62
     7
370
    35
100
AcDbLine
 10
290.9241342366
 20
242.5652488957
 30
0.0
 11
291.9241342366
 21
241.9878986265
 31
0.0
  0
ARC
  5
2E7
330
1F
100
AcDbEntity
  8
0
  6
Continuous
 62
     7
370
    35
100
AcDbCircle
 10
290.5241342366
 20
243.1378986265
 30
0.0
 40
0.4000000000000133
100
AcDbArc
 50
0.0
 51
107.5
  0
ARC
  5
2E8
330
1F
100
AcDbEntity
  8
0
  6
Continuous
 62
     7
370
    35
100
AcDbCircle
 10
290.5241342366
 20
265.7378986265
 30
0.0
 40
0.3999999999999863
100
AcDbArc
 50
252.5
 51
0.0
  0
LINE
  5
2E9
330
1F
100
AcDbEntity
  8
0
  6
Continuous
 62
     7
370
    35
100
AcDbLine
 10
255.4241342366
 20
243.4378986265
 30
0.0
 11
290.1454088679
 21
243.4378986265
 31
0.0
  0
LINE
  5
2EA
330
1F
100
AcDbEntity
  8
0
  6
Continuous
 62
     7
370
    35
100
AcDbLine
 10
290.1454088679
 20
265.4378986265
 30
0.0
 11
287.0729230934
 21
265.4378986265
 31
0.0
  0
LINE
  5
2EB
330
1F
100
AcDbEntity
  8
0
  6
Continuous
 62
     7
370
    35
100
AcDbLine
 10
290.1454088679
 20
243.4378986265
 30
0.0
 11
290.4038519168
 21
243.5193854068
 31
0.0
  0
LINE
  5
2EC
330
1F
100
AcDbEntity
  8
0
  6
Continuous
 62
     7
370
    35
100
AcDbLine
 10
290.4038519168
 20
265.3564118462
 30
0.0
 11
290.1454088679
 21
265.4378986265
 31
0.0
  0
LINE
  5
2ED
330
1F
100
AcDbEntity
  8
0
  6
Continuous
 62
     7
370
    35
100
AcDbLine
 10
254.9241342366
 20
243.9378986265
 30
0.0
 11
255.4241342366
 21
243.4378986265
 31
0.0
  0
LINE
  5
2EE
330
1F
100
AcDbEntity
  8
0
  6
Continuous
 62
     7
370
    35
100
AcDbLine
 10
283.9241342366
 20
264.967083744
 30
0.0
 11
255.416802894
 21
264.967083744
 31
0.0
  0
LINE
  5
2EF
330
1F
100
AcDbEntity
  8
0
  6
Continuous
 62
     7
370
    35
100
AcDbLine
 10
366.9241342366
 20
209.9378986265
 30
0.0
 11
367.4241342366
 21
209.4378986265
 31
0.0
  0
LINE
  5
2F0
330
1F
100
AcDbEntity
  8
0
  6
Continuous
 62
     7
370
    35
100
AcDbLine
 10
367.4241342366
 20
209.4378986265
 30
0.0
 11
377.8588728479
 21
209.4378986265
 31
0.0
  0
LINE
  5
2F1
330
1F
100
AcDbEntity
  8
0
  6
Continuous
 62
     7
370
    35
100
AcDbLine
 10
403.4241342366
 20
296.9378986265
 30
0.0
 11
403.4241342366
 21
298.4378986265
 31
0.0
  0
LINE
  5
2F2
330
1F
100
AcDbEntity
  8
0
  6
Continuous
 62
     7
370
    35
100
AcDbLine
 10
382.4241342366
 20
298.4378986265
 30
0.0
 11
382.4241342366
 21
296.9378986265
 31
0.0
  0
ARC
  5
2F3
330
1F
100
AcDbEntity
  8
0
  6
Continuous
 62
     7
370
    35
100
AcDbCircle
 10
402.9241342366
 20
298.4378986265
 30
0.0
 40
0.5
100
AcDbArc
 50
0.0
 51
90.0
  0
ARC
  5
2F4
330
1F
100
AcDbEntity
  8
0
  6
Continuous
 62
     7
370
    35
100
AcDbCircle
 10
382.9241342366
 20
298.4378986265
 30
0.0
 40
0.5
100
AcDbArc
 50
90.0
 51
180.0
  0
ARC
  5
2F5
330
1F
100
AcDbEntity
  8
0
  6
Continuous
 62
     7
370
    35
100
AcDbCircle
 10
384.8741342366
 20
292.2378986265
 30
0.0
 40
0.3000000000000114
100
AcDbArc
 50
180.0
 51
270.0
  0
ARC
  5
2F6
330
1F
100
AcDbEntity
  8
0
  6
Continuous
 62
     7
370
    35
100
AcDbCircle
 10
400.9741342366
 20
292.2378986265
 30
0.0
 40
0.3000000000000682
100
AcDbArc
 50
270.0
 51
0.0
  0
LINE
  5
2F7
330
1F
100
AcDbEntity
  8
0
  6
Continuous
 62
     7
370
    35
100
AcDbLine
 10
401.2741342366
 20
292.2378986265
 30
0.0
 11
401.2741342366
 21
296.9378986265
 31
0.0
  0
LINE
  5
2F8
330
1F
100
AcDbEntity
  8
0
  6
Continuous
 62
     7
370
    35
100
AcDbLine
 10
384.5741342366
 20
296.9378986265
 30
0.0
 11
384.5741342366
 21
292.2378986265
 31
0.0
  0
LINE
  5
2F9
330
1F
100
AcDbEntity
  8
0
  6
Continuous
 62
     7
370
    35
100
AcDbLine
 10
397.5341342366
 20
260.4378986265
 30
0.0
 11
397.5341342366
 21
264.2378986265
 31
0.0
  0
LINE
  5
2FA
330
1F
100
AcDbEntity
  8
0
  6
Continuous
 62
     7
370
    35
100
AcDbLine
 10
390.3141342366
 20
264.2378986265
 30
0.0
 11
390.3141342366
 21
260.4378986265
 31
0.0
  0
ARC
  5
2FB
330
1F
100
AcDbEntity
  8
0
  6
Continuous
 62
     7
370
    35
100
AcDbCircle
 10
390.5141342366
 20
264.2378986265
 30
0.0
 40
0.1999999999999886
100
AcDbArc
 50
90.0
 51
180.0
  0
ARC
  5
2FC
330
1F
100
AcDbEntity
  8
0
  6
Continuous
 62
     7
370
    35
100
AcDbCircle
 10
397.3341342366
 20
264.2378986265
 30
0.0
 40
0.2000000000000455
100
AcDbArc
 50
0.0
 51
90.0
  0
LINE
  5
2FD
330
1F
100
AcDbEntity
  8
0
  6
Continuous
 62
     7
370
    35
100
AcDbLine
 10
395.9241342366
 20
253.9378986265
 30
0.0
 11
395.9241342366
 21
254.9378986265
 31
0.0
  0
LINE
  5
2FE
330
1F
100
AcDbEntity
  8
0
  6
Continuous
 62
     7
370
    35
100
AcDbLine
 10
391.9241342366
 20
254.9378986265
 30
0.0
 11
391.9241342366
 21
253.9378986265
 31
0.0
  0
LINE
  5
2FF
330
1F
100
AcDbEntity
  8
0
  6
Continuous
 62
     7
370
    35
100
AcDbLine
 10
380.1241342366
 20
276.9378986265
 30
0.0
 11
379.7310244447
 21
276.9378986265
 31
0.0
  0
LINE
  5
300
330
1F
100
AcDbEntity
  8
0
  6
Continuous
 62
     7
370
    35
100
AcDbLine
 10
380.4241342366
 20
276.6378986265
 30
0.0
 11
380.1241342366
 21
276.9378986265
 31
0.0
  0
LINE
  5
301
330
1F
100
AcDbEntity
  8
0
  6
Continuous
 62
     7
370
    35
100
AcDbLine
 10
387.9241342366
 20
275.4378986265
 30
0.0
 11
380.4241342366
 21
275.4378986265
 31
0.0
  0
LINE
  5
302
330
1F
100
AcDbEntity
  8
0
  6
Continuous
 62
     7
370
    35
100
AcDbLine
 10
398.4241342366
 20
275.4378986265
 30
0.0
 11
388.9241342366
 21
275.4378986265
 31
0.0
  0
LINE
  5
303
330
1F
100
AcDbEntity
  8
0
  6
Continuous
 62
     7
370
    35
100
AcDbLine
 10
388.9241342366
 20
233.4378986265
 30
0.0
 11
398.4241342366
 21
233.4378986265
 31
0.0
  0
LINE
  5
304
330
1F
100
AcDbEntity
  8
0
  6
Continuous
 62
     7
370
    35
100
AcDbLine
 10
380.4241342366
 20
233.4378986265
 30
0.0
 11
387.9241342366
 21
233.4378986265
 31
0.0
  0
LINE
  5
305
330
1F
100
AcDbEntity
  8
0
  6
Continuous
 62
     7
370
    35
100
AcDbLine
 10
398.4241342366
 20
233.4378986265
 30
0.0
 11
398.9241342366
 21
233.9378986265
 31
0.0
  0
LINE
  5
306
330
1F
100
AcDbEntity
  8
0
  6
Continuous
 62
     7
370
    35
100
AcDbLine
 10
398.9241342366
 20
274.9378986265
 30
0.0
 11
398.4241342366
 21
275.4378986265
 31
0.0
  0
LINE
  5
307
330
1F
100
AcDbEntity
  8
0
  6
Continuous
 62
     7
370
    35
100
AcDbLine
 10
286.9241342366
 20
267.6878986265
 30
0.0
 11
286.6741342366
 21
267.9378986265
 31
0.0
  0
LINE
  5
308
330
1F
100
AcDbEntity
  8
0
  6
Continuous
 62
     7
370
    35
100
AcDbLine
 10
286.9241342366
 20
265.391953457
 30
0.0
 11
286.9241342366
 21
267.6878986265
 31
0.0
  0
LINE
  5
309
330
1F
100
AcDbEntity
  8
0
  6
Continuous
 62
     7
370
    35
100
AcDbLine
 10
297.9241342366
 20
214.4378986265
 30
0.0
 11
302.9241342366
 21
214.4378986265
 31
0.0
  0
LINE
  5
30A
330
1F
100
AcDbEntity
  8
0
  6
Continuous
 62
     7
370
    35
100
AcDbLine
 10
302.9241342366
 20
294.4378986265
 30
0.0
 11
297.9241342366
 21
294.4378986265
 31
0.0
  0
LINE
  5
30B
330
1F
100
AcDbEntity
  8
0
  6
Continuous
 62
     7
370
    35
100
AcDbLine
 10
297.9241342366
 20
294.4378986265
 30
0.0
 11
297.4241342366
 21
293.4378986265
 31
0.0
  0
LINE
  5
30C
330
1F
100
AcDbEntity
  8
0
  6
Continuous
 62
     7
370
    35
100
AcDbLine
 10
297.4241342366
 20
215.4378986265
 30
0.0
 11
297.9241342366
 21
214.4378986265
 31
0.0
  0
LINE
  5
30D
330
1F
100
AcDbEntity
  8
0
  6
Continuous
 62
     7
370
    35
100
AcDbLine
 10
366.9241342366
 20
283.3972776282
 30
0.0
 11
314.9241342366
 21
283.3972776282
 31
0.0
  0
LINE
  5
30E
330
1F
100
AcDbEntity
  8
0
  6
Continuous
 62
     7
370
    35
100
AcDbLine
 10
314.9241342366
 20
225.4785196248
 30
0.0
 11
366.9241342366
 21
225.4785196248
 31
0.0
  0
LINE
  5
30F
330
1F
100
AcDbEntity
  8
0
  6
Continuous
 62
     7
370
    35
100
AcDbLine
 10
292.9241342366
 20
293.4378986265
 30
0.0
 11
291.9241342366
 21
292.4378986265
 31
0.0
  0
LINE
  5
310
330
1F
100
AcDbEntity
  8
0
  6
Continuous
 62
     7
370
    35
100
AcDbLine
 10
291.9241342366
 20
216.4378986265
 30
0.0
 11
292.9241342366
 21
215.4378986265
 31
0.0
  0
LINE
  5
311
330
1F
100
AcDbEntity
  8
0
  6
Continuous
 62
     7
370
    35
100
AcDbLine
 10
292.9241342366
 20
215.4378986265
 30
0.0
 11
297.4241342366
 21
215.4378986265
 31
0.0
  0
LINE
  5
312
330
1F
100
AcDbEntity
  8
0
  6
Continuous
 62
     7
370
    35
100
AcDbLine
 10
297.4241342366
 20
293.4378986265
 30
0.0
 11
292.9241342366
 21
293.4378986265
 31
0.0
  0
LINE
  5
313
330
1F
100
AcDbEntity
  8
0
  6
Continuous
 62
     7
370
    35
100
AcDbLine
 10
317.0662192032
 20
209.6849768427
 30
0.0
 11
318.5199385235
 21
209.7103037247
 31
0.0
  0
LINE
  5
314
330
1F
100
AcDbEntity
  8
0
  6
Continuous
 62
     7
370
    35
100
AcDbLine
 10
290.9241342366
 20
254.4378986265
 30
0.0
 11
290.9241342366
 21
266.3105483573
 31
0.0
  0
LINE
  5
315
330
1F
100
AcDbEntity
  8
0
  6
Continuous
 62
     7
370
    35
100
AcDbLine
 10
290.9241342366
 20
242.5652488957
 30
0.0
 11
290.9241342366
 21
254.4378986265
 31
0.0
  0
LINE
  5
316
330
1F
100
AcDbEntity
  8
0
  6
Continuous
 62
     7
370
    35
100
AcDbLine
 10
290.1454088679
 20
254.4378986265
 30
0.0
 11
290.1454088679
 21
265.4378986265
 31
0.0
  0
LINE
  5
317
330
1F
100
AcDbEntity
  8
0
  6
Continuous
 62
     7
370
    35
100
AcDbLine
 10
290.1454088679
 20
243.4378986265
 30
0.0
 11
290.1454088679
 21
254.4378986265
 31
0.0
  0
SPLINE
  5
318
330
1F
100
AcDbEntity
  8
0
  6
Continuous
 62
     7
370
    35
100
AcDbSpline
210
0.0
220
0.0
230
1.0
 70
     8
 71
     3
 72
    17
 73
    13
 74
     0
 42
0.00000001
 43
0.00000001
 40
0.0
 40
0.0
 40
0.0
 40
0.0
 40
0.0611504864454934
 40
0.1632142306490051
 40
0.2681089951229803
 40
0.3710437019597178
 40
0.4767246452681113
 40
0.5828444977961449
 40
0.6919957274393824
 40
0.7984143276844581
 40
0.9082118094418985
 40
0.9999999999999999
 40
0.9999999999999999
 40
0.9999999999999999
 40
0.9999999999999999
 10
287.0729230933642
 20
265.4345879426909
 30
0.0
 10
287.0745195458309
 20
265.4350570790295
 30
0.0
 10
287.0787805709883
 20
265.4363092314001
 30
0.0
 10
286.9909555796692
 20
265.4104635667042
 30
0.0
 10
286.8242705872973
 20
265.3633237530748
 30
0.0
 10
286.5753472933431
 20
265.2974455654695
 30
0.0
 10
286.256170534742
 20
265.2210543040651
 30
0.0
 10
285.8656136498368
 20
265.1402528833322
 30
0.0
 10
285.4175347146418
 20
265.0650459756388
 30
0.0
 10
284.9186488368765
 20
265.0044608362544
 30
0.0
 10
284.4157301973451
 20
264.9666713004538
 30
0.0
 10
284.0779403843969
 20
264.9621796391255
 30
0.0
 10
283.9241342365525
 20
264.96013444682
 30
0.0
  0
LINE
  5
319
330
1F
100
AcDbEntity
  8
0
  6
Continuous
 62
     7
370
    35
100
AcDbLine
 10
255.4241342366
 20
247.9394112836
 30
0.0
 11
255.4241342366
 21
243.4378986265
 31
0.0
  0
SPLINE
  5
31A
330
1F
100
AcDbEntity
  8
0
  6
Continuous
 62
     7
370
    18
100
AcDbSpline
210
0.0
220
0.0
230
1.0
 70
     8
 71
     3
 72
    52
 73
    48
 74
     0
 42
0.00000001
 43
0.00000001
 40
0.0
 40
0.0
 40
0.0
 40
0.0
 40
0.1250000000000004
 40
0.1250000000000004
 40
0.2500000000000007
 40
0.2500000000000007
 40
0.3125000000000009
 40
0.3125000000000009
 40
0.3750000000000011
 40
0.3750000000000011
 40
0.4062500000000012
 40
0.4062500000000012
 40
0.4375000000000013
 40
0.4375000000000013
 40
0.4531250000000013
 40
0.4531250000000013
 40
0.4687500000000012
 40
0.4687500000000012
 40
0.4843750000000012
 40
0.4843750000000012
 40
0.4921875000000012
 40
0.4921875000000012
 40
0.5000000000000011
 40
0.5000000000000011
 40
0.5078125000000011
 40
0.5078125000000011
 40
0.515625000000001
 40
0.515625000000001
 40
0.531250000000001
 40
0.531250000000001
 40
0.5468750000000009
 40
0.5468750000000009
 40
0.5625000000000009
 40
0.5625000000000009
 40
0.5937500000000008
 40
0.5937500000000008
 40
0.6250000000000008
 40
0.6250000000000008
 40
0.6875000000000007
 40
0.6875000000000007
 40
0.7500000000000004
 40
0.7500000000000004
 40
0.8125000000000003
 40
0.8125000000000003
 40
0.8750000000000002
 40
0.8750000000000002
 40
1.0
 40
1.0
 40
1.0
 40
1.0
 10
255.4241342365525
 20
261.3423650613952
 30
0.0
 10
258.0788702678977
 20
261.2841463184048
 30
0.0
 10
260.730608983387
 20
261.1589385021775
 30
0.0
 10
266.0169836940498
 20
260.7548163947513
 30
0.0
 10
268.6522394391995
 20
260.4775759972882
 30
0.0
 10
272.5776687708234
 20
259.8970231921166
 30
0.0
 10
273.881001805544
 20
259.675783774227
 30
0.0
 10
276.4703068656451
 20
259.1555514678345
 30
0.0
 10
277.7589113703922
 20
258.8572708117935
 30
0.0
 10
279.6601516788557
 20
258.3140288064778
 30
0.0
 10
280.2887943525557
 20
258.1167477100827
 30
0.0
 10
281.5307588496565
 20
257.6727656221079
 30
0.0
 10
282.1459348943476
 20
257.4261878256535
 30
0.0
 10
283.0357433750825
 20
256.9949843972507
 30
0.0
 10
283.3270992308442
 20
256.8407951491302
 30
0.0
 10
283.8935944062865
 20
256.4999970836986
 30
0.0
 10
284.1692506676981
 20
256.3134369889343
 30
0.0
 10
284.6800870609351
 20
255.891522570927
 30
0.0
 10
284.9173340459558
 20
255.6557663823735
 30
0.0
 10
285.1937941208108
 20
255.2447429017733
 30
0.0
 10
285.2736077013973
 20
255.0948285403909
 30
0.0
 10
285.3840549630497
 20
254.7807601520839
 30
0.0
 10
285.4151725269437
 20
254.612436740519
 30
0.0
 10
285.4149463946388
 20
254.2802633396106
 30
0.0
 10
285.3837080574269
 20
254.1123714975705
 30
0.0
 10
285.2720041170908
 20
253.7979559590345
 30
0.0
 10
285.1914809311087
 20
253.6484909784422
 30
0.0
 10
284.9107881301771
 20
253.2372810291694
 30
0.0
 10
284.6687031078993
 20
253.0019970042246
 30
0.0
 10
284.1562231537793
 20
252.5880276227138
 30
0.0
 10
283.8826569329108
 20
252.407261310747
 30
0.0
 10
283.316191901549
 20
252.0749007703858
 30
0.0
 10
283.0220599002731
 20
251.9234257759151
 30
0.0
 10
282.1273989845589
 20
251.5028056550209
 30
0.0
 10
281.5146764897345
 20
251.2659421611853
 30
0.0
 10
280.2716511790545
 20
250.8386297825156
 30
0.0
 10
279.6402626682456
 20
250.6490297369123
 30
0.0
 10
277.7336560661043
 20
250.1301139247682
 30
0.0
 10
276.4449642979702
 20
249.8492010362266
 30
0.0
 10
273.8536607825127
 20
249.3631442845605
 30
0.0
 10
272.5513606462004
 20
249.1593833652344
 30
0.0
 10
269.9367811146533
 20
248.8071978627669
 30
0.0
 10
268.623830145175
 20
248.6590814004274
 30
0.0
 10
265.9936969335651
 20
248.4078799327794
 30
0.0
 10
264.6762263602351
 20
248.3048513393655
 30
0.0
 10
260.7172610846549
 20
248.0538270366191
 30
0.0
 10
258.0716949593758
 20
247.9632930321389
 30
0.0
 10
255.4241342365525
 20
247.9394112836023
 30
0.0
  0
LINE
  5
31B
330
1F
100
AcDbEntity
  8
0
  6
Continuous
 62
     7
370
    35
100
AcDbLine
 10
255.4241342366
 20
264.9601344468
 30
0.0
 11
255.4241342366
 21
261.3423650614
 31
0.0
  0
LINE
  5
31C
330
1F
100
AcDbEntity
  8
0
  6
Continuous
 62
     7
370
    35
100
AcDbLine
 10
254.9241342366
 20
243.9378986265
 30
0.0
 11
254.9241342366
 21
247.9357070516
 31
0.0
  0
SPLINE
  5
31D
330
1F
100
AcDbEntity
  8
0
  6
Continuous
 62
     7
370
    18
100
AcDbSpline
210
0.0
220
0.0
230
1.0
 70
     8
 71
     3
 72
     8
 73
     4
 74
     0
 42
0.00000001
 43
0.00000001
 40
0.0
 40
0.0
 40
0.0
 40
0.0
 40
0.0008048924859264
 40
0.0008048924859264
 40
0.0008048924859264
 40
0.0008048924859264
 10
254.9241342365525
 20
247.9357070515981
 30
0.0
 10
255.0894571258366
 20
247.9366656449433
 30
0.0
 10
255.2562061132471
 20
247.9378965243077
 30
0.0
 10
255.4241342365525
 20
247.9394112836023
 30
0.0
  0
LINE
  5
31E
330
1F
100
AcDbEntity
  8
0
  6
Continuous
 62
     7
370
    35
100
AcDbLine
 10
254.9241342366
 20
261.3525242235
 30
0.0
 11
254.9241342366
 21
264.5002045253
 31
0.0
  0
SPLINE
  5
31F
330
1F
100
AcDbEntity
  8
0
  6
Continuous
 62
     7
370
    35
100
AcDbSpline
210
0.0
220
0.0
230
1.0
 70
     8
 71
     3
 72
     8
 73
     4
 74
     0
 42
0.00000001
 43
0.00000001
 40
0.0
 40
0.0
 40
0.0
 40
0.0
 40
1.0
 40
1.0
 40
1.0
 40
1.0
 10
254.9241342365525
 20
264.5002045252758
 30
0.0
 10
255.0222204108112
 20
264.602557290147
 30
0.0
 10
255.120369828678
 20
264.70484866805
 30
0.0
 10
255.2185772513634
 20
264.8070837439794
 30
0.0
  0
SPLINE
  5
320
330
1F
100
AcDbEntity
  8
0
  6
Continuous
 62
     7
370
    35
100
AcDbSpline
210
0.0
220
0.0
230
1.0
 70
     8
 71
     3
 72
    12
 73
     8
 74
     0
 42
0.00000001
 43
0.00000001
 40
0.0
 40
0.0
 40
0.0
 40
0.0
 40
0.2499999999999995
 40
0.2499999999999995
 40
0.499999999999999
 40
0.499999999999999
 40
1.0
 40
1.0
 40
1.0
 40
1.0
 10
255.4241342365525
 20
264.96013444682
 30
0.0
 10
255.4241342365525
 20
264.9692909836379
 30
0.0
 10
255.4146428426722
 20
264.9687695698994
 30
0.0
 10
255.3858399370905
 20
264.9545108591227
 30
0.0
 10
255.3670756772297
 20
264.9413983846215
 30
0.0
 10
255.3072130125339
 20
264.8942139703597
 30
0.0
 10
255.2616985142968
 20
264.8519734831623
 30
0.0
 10
255.2185772513633
 20
264.8070837439794
 30
0.0
  0
SPLINE
  5
321
330
1F
100
AcDbEntity
  8
0
  6
Continuous
 62
     7
370
    18
100
AcDbSpline
210
0.0
220
0.0
230
1.0
 70
     8
 71
     3
 72
     8
 73
     4
 74
     0
 42
0.00000001
 43
0.00000001
 40
0.0
 40
0.0
 40
0.0
 40
0.0
 40
0.0008292106352684
 40
0.0008292106352684
 40
0.0008292106352684
 40
0.0008292106352684
 10
255.4241342365525
 20
261.3423650613952
 30
0.0
 10
255.2558060730919
 20
261.3460565222301
 30
0.0
 10
255.0890263144129
 20
261.3494393944722
 30
0.0
 10
254.9241342365525
 20
261.352524223519
 30
0.0
  0
LINE
  5
322
330
1F
100
AcDbEntity
  8
0
  6
Continuous
 62
     7
370
    18
100
AcDbLine
 10
283.9241342366
 20
264.9601344468
 30
0.0
 11
283.9241342366
 21
264.967083744
 31
0.0
  0
LINE
  5
323
330
1F
100
AcDbEntity
  8
0
  6
Continuous
 62
     7
370
    35
100
AcDbLine
 10
256.0499672615
 20
249.3378986265
 30
0.0
 11
254.9241342366
 21
248.6878986265
 31
0.0
  0
LINE
  5
324
330
1F
100
AcDbEntity
  8
0
  6
Continuous
 62
     7
370
    35
100
AcDbLine
 10
259.4241342366
 20
249.3378986265
 30
0.0
 11
256.0499672615
 21
249.3378986265
 31
0.0
  0
LINE
  5
325
330
1F
100
AcDbEntity
  8
0
  6
Continuous
 62
     7
370
    35
100
AcDbLine
 10
260.3478946673
 20
250.9378986265
 30
0.0
 11
259.4241342366
 21
249.3378986265
 31
0.0
  0
LINE
  5
326
330
1F
100
AcDbEntity
  8
0
  6
Continuous
 62
     7
370
    35
100
AcDbLine
 10
279.9241342366
 20
250.9378986265
 30
0.0
 11
260.3478946673
 21
250.9378986265
 31
0.0
  0
LINE
  5
327
330
1F
100
AcDbEntity
  8
0
  6
Continuous
 62
     7
370
    35
100
AcDbLine
 10
282.0271464031
 20
254.4378986265
 30
0.0
 11
279.9241342366
 21
250.9378986265
 31
0.0
  0
LINE
  5
328
330
1F
100
AcDbEntity
  8
0
  6
Continuous
 62
     7
370
    35
100
AcDbLine
 10
279.9241342366
 20
257.9378986265
 30
0.0
 11
282.0271464031
 21
254.4378986265
 31
0.0
  0
LINE
  5
329
330
1F
100
AcDbEntity
  8
0
  6
Continuous
 62
     7
370
    35
100
AcDbLine
 10
260.3478946673
 20
257.9378986265
 30
0.0
 11
279.9241342366
 21
257.9378986265
 31
0.0
  0
LINE
  5
32A
330
1F
100
AcDbEntity
  8
0
  6
Continuous
 62
     7
370
    35
100
AcDbLine
 10
259.4241342366
 20
259.5378986265
 30
0.0
 11
260.3478946673
 21
257.9378986265
 31
0.0
  0
LINE
  5
32B
330
1F
100
AcDbEntity
  8
0
  6
Continuous
 62
     7
370
    35
100
AcDbLine
 10
256.0499672615
 20
259.5378986265
 30
0.0
 11
259.4241342366
 21
259.5378986265
 31
0.0
  0
LINE
  5
32C
330
1F
100
AcDbEntity
  8
0
  6
Continuous
 62
     7
370
    35
100
AcDbLine
 10
254.9241342366
 20
260.1878986265
 30
0.0
 11
256.0499672615
 21
259.5378986265
 31
0.0
  0
LINE
  5
32D
330
1F
100
AcDbEntity
  8
0
  6
Continuous
 62
     7
370
    35
100
AcDbLine
 10
254.9241342366
 20
248.6878986265
 30
0.0
 11
254.9241342366
 21
247.9357070516
 31
0.0
  0
LINE
  5
32E
330
1F
100
AcDbEntity
  8
0
  6
Continuous
 62
     7
370
    35
100
AcDbLine
 10
254.9241342366
 20
261.3525242235
 30
0.0
 11
254.9241342366
 21
260.1878986265
 31
0.0
  0
LINE
  5
32F
330
1F
100
AcDbEntity
  8
0
  6
Continuous
 62
     7
370
    18
100
AcDbLine
 10
259.4241342366
 20
259.5378986265
 30
0.0
 11
259.4241342366
 21
249.3378986265
 31
0.0
  0
LINE
  5
330
330
1F
100
AcDbEntity
  8
0
  6
Continuous
 62
     7
370
    35
100
AcDbLine
 10
256.0499672615
 20
259.5378986265
 30
0.0
 11
256.0499672615
 21
249.3378986265
 31
0.0
  0
LINE
  5
331
330
1F
100
AcDbEntity
  8
0
  6
Continuous
 62
     7
370
    35
100
AcDbLine
 10
254.9241342366
 20
260.1878986265
 30
0.0
 11
254.9241342366
 21
248.6878986265
 31
0.0
  0
LINE
  5
332
330
1F
100
AcDbEntity
  8
0
  6
Continuous
 62
     7
370
    35
100
AcDbLine
 10
260.3478946673
 20
250.9378986265
 30
0.0
 11
260.3478946673
 21
257.9378986265
 31
0.0
  0
LINE
  5
333
330
1F
100
AcDbEntity
  8
0
  6
Continuous
 62
     7
370
    35
100
AcDbLine
 10
279.9241342366
 20
257.9378986265
 30
0.0
 11
279.9241342366
 21
250.9378986265
 31
0.0
  0
SPLINE
  5
334
330
1F
100
AcDbEntity
  8
0
  6
Continuous
 62
     7
370
    18
100
AcDbSpline
210
0.0
220
0.0
230
1.0
 70
     8
 71
     3
 72
    19
 73
    15
 74
     0
 42
0.00000001
 43
0.00000001
 40
0.0
 40
0.0
 40
0.0
 40
0.0
 40
0.0324998177717975
 40
0.1510820540773352
 40
0.2703242195508203
 40
0.3926720497449565
 40
0.5195058676545172
 40
0.5852241227615596
 40
0.6509424817398466
 40
0.7175993084915129
 40
0.784247688120313
 40
0.8500830055151002
 40
0.915904917066183
 40
1.0
 40
1.0
 40
1.0
 40
1.0
 10
379.0236884593305
 20
274.2643060829346
 30
0.0
 10
379.0254613312438
 20
274.270663999625
 30
0.0
 10
379.0337028891553
 20
274.3002200765229
 30
0.0
 10
378.9884787849044
 20
274.1379426431254
 30
0.0
 10
378.8911435307355
 20
273.7905872959753
 30
0.0
 10
378.7423269160286
 20
273.2634999484471
 30
0.0
 10
378.590900932202
 20
272.7313060938949
 30
0.0
 10
378.4616086643861
 20
272.2785816532717
 30
0.0
 10
378.3622894074513
 20
271.9312873316756
 30
0.0
 10
378.2653982774577
 20
271.5926124487253
 30
0.0
 10
378.1739657326056
 20
271.2728568821234
 30
0.0
 10
378.091948799649
 20
270.9855964004421
 30
0.0
 10
378.0131987051038
 20
270.7093008811326
 30
0.0
 10
377.9743559606044
 20
270.5726153799517
 30
0.0
 10
377.9525673446354
 20
270.4959424277147
 30
0.0
  0
LINE
  5
335
330
1F
100
AcDbEntity
  8
0
  6
Continuous
 62
     7
370
    35
100
AcDbLine
 10
367.4241342366
 20
296.9378986265
 30
0.0
 11
367.4241342366
 21
209.4378986265
 31
0.0
  0
LINE
  5
336
330
1F
100
AcDbEntity
  8
0
  6
Continuous
 62
     7
370
    35
100
AcDbLine
 10
366.9241342366
 20
209.9378986265
 30
0.0
 11
366.9241342366
 21
210.4771459907
 31
0.0
  0
LINE
  5
337
330
1F
100
AcDbEntity
  8
0
  6
Continuous
 62
     7
370
    35
100
AcDbLine
 10
366.9241342366
 20
220.7472140736
 30
0.0
 11
366.9241342366
 21
225.3657852813
 31
0.0
  0
LINE
  5
338
330
1F
100
AcDbEntity
  8
0
  6
Continuous
 62
     7
370
    35
100
AcDbLine
 10
366.9241342366
 20
247.0525612877
 30
0.0
 11
366.9241342366
 21
261.8232359653
 31
0.0
  0
LINE
  5
339
330
1F
100
AcDbEntity
  8
0
  6
Continuous
 62
     7
370
    35
100
AcDbLine
 10
366.9241342366
 20
283.5100119718
 30
0.0
 11
366.9241342366
 21
288.1285831794
 31
0.0
  0
LINE
  5
33A
330
1F
100
AcDbEntity
  8
0
  6
Continuous
 62
     7
370
    35
100
AcDbLine
 10
366.9241342366
 20
296.9378986265
 30
0.0
 11
367.4241342366
 21
296.9378986265
 31
0.0
  0
LINE
  5
33B
330
1F
100
AcDbEntity
  8
0
  6
Continuous
 62
     7
370
    35
100
AcDbLine
 10
367.4241342366
 20
296.9378986265
 30
0.0
 11
380.3533274587
 21
296.9378986265
 31
0.0
  0
LINE
  5
33C
330
1F
100
AcDbEntity
  8
0
  6
Continuous
 62
     7
370
    35
100
AcDbLine
 10
392.9241342366
 20
209.4378986265
 30
0.0
 11
377.8588728479
 21
209.437898613
 31
0.0
  0
SPLINE
  5
33D
330
1F
100
AcDbEntity
  8
0
  6
Continuous
 62
     7
370
    18
100
AcDbSpline
210
0.0
220
0.0
230
1.0
 70
     8
 71
     3
 72
    57
 73
    53
 74
     0
 42
0.00000001
 43
0.00000001
 40
0.0
 40
0.0
 40
0.0
 40
0.0
 40
0.0232795606683177
 40
0.0466393654424904
 40
0.0700262138482685
 40
0.0933856511623909
 40
0.1166649025727182
 40
0.1399292734693861
 40
0.1632697765355702
 40
0.1866391145062315
 40
0.2099850523895096
 40
0.2332539965195256
 40
0.253109194840465
 40
0.2730614286895572
 40
0.2930436006236008
 40
0.3129998579446742
 40
0.3328921478973393
 40
0.352707208071153
 40
0.3731201846048657
 40
0.3935987241963887
 40
0.4141185106099317
 40
0.4346319195468497
 40
0.455074239157234
 40
0.4723418548834566
 40
0.4896766990180073
 40
0.507025459719852
 40
0.5243456082582508
 40
0.541614299581588
 40
0.5588376695219581
 40
0.5748380793948463
 40
0.5909029269226027
 40
0.6070140371900022
 40
0.6231238543875117
 40
0.6391621408219422
 40
0.6595089519153182
 40
0.6799227769195559
 40
0.7003723936260624
 40
0.7208193369721946
 40
0.7412269813349078
 40
0.7615696586355262
 40
0.7816548257741917
 40
0.8018098983538867
 40
0.8219864157241356
 40
0.8421371514549035
 40
0.8622186686378132
 40
0.8822390674509509
 40
0.9023128580729745
 40
0.9224131189215176
 40
0.9425017939538135
 40
0.9625347104855353
 40
0.9812674070048419
 40
1.0
 40
1.0
 40
1.0
 40
1.0
 10
377.8588728479428
 20
209.4378986129533
 30
0.0
 10
377.8628744115074
 20
209.4573355450962
 30
0.0
 10
377.8708913319333
 20
209.4962764080364
 30
0.0
 10
377.9366659538626
 20
209.8056176427468
 30
0.0
 10
378.0432546996412
 20
210.293673426012
 30
0.0
 10
378.1961737469077
 20
210.9752063822146
 30
0.0
 10
378.3945005143133
 20
211.8433201618232
 30
0.0
 10
378.6467012095805
 20
212.8996076586157
 30
0.0
 10
378.9456292138602
 20
214.1352564150041
 30
0.0
 10
379.2775708627744
 20
215.5435134031883
 30
0.0
 10
379.6290977452211
 20
217.11550437764
 30
0.0
 10
379.9736203628332
 20
218.7603633116271
 30
0.0
 10
380.2890202866128
 20
220.454030612647
 30
0.0
 10
380.5456016516836
 20
222.1705128057698
 30
0.0
 10
380.7415225230533
 20
223.9945738291838
 30
0.0
 10
380.8529801740361
 20
225.9157006760892
 30
0.0
 10
380.8579918934104
 20
227.9231209517038
 30
0.0
 10
380.7292852364497
 20
230.0295978665123
 30
0.0
 10
380.4476785128068
 20
232.2284095488223
 30
0.0
 10
380.042175622584
 20
234.5113557034698
 30
0.0
 10
379.5358855836433
 20
236.8465887216251
 30
0.0
 10
378.9530364196128
 20
239.2214070408154
 30
0.0
 10
378.3474602764477
 20
241.50452914414
 30
0.0
 10
377.7471445779343
 20
243.689664890673
 30
0.0
 10
377.1858178801904
 20
245.7775016991012
 30
0.0
 10
376.6558676865518
 20
247.895172615058
 30
0.0
 10
376.1856742874725
 20
250.0390061601159
 30
0.0
 10
375.8062808170993
 20
252.2055632656347
 30
0.0
 10
375.5453061995196
 20
254.3390870559273
 30
0.0
 10
375.447935853196
 20
256.4356846504404
 30
0.0
 10
375.5076405938064
 20
258.481602267429
 30
0.0
 10
375.6952622237959
 20
260.5156394065109
 30
0.0
 10
375.9922869006009
 20
262.5233759832346
 30
0.0
 10
376.4196336893991
 20
264.67163007799
 30
0.0
 10
376.9680084278127
 20
266.9508371530738
 30
0.0
 10
377.6101139808786
 20
269.3555050676688
 30
0.0
 10
378.2791175108767
 20
271.7107193419775
 30
0.0
 10
378.9420615961576
 20
274.0128660166123
 30
0.0
 10
379.5679822765979
 20
276.2575944277416
 30
0.0
 10
380.1231165512827
 20
278.4348388754539
 30
0.0
 10
380.5792205984263
 20
280.5425184217967
 30
0.0
 10
380.9398012259112
 20
282.5731380583971
 30
0.0
 10
381.2050983109228
 20
284.5261332099104
 30
0.0
 10
381.3733074217026
 20
286.3870700280896
 30
0.0
 10
381.4414103544997
 20
288.1427844021842
 30
0.0
 10
381.4101002904462
 20
289.7845069471483
 30
0.0
 10
381.3037705744925
 20
291.3112351283234
 30
0.0
 10
381.1417882297267
 20
292.7195323963057
 30
0.0
 10
380.9443692424227
 20
294.004000584037
 30
0.0
 10
380.7365804555938
 20
295.1315881765707
 30
0.0
 10
380.5351911516192
 20
296.1198576377278
 30
0.0
 10
380.4139485779764
 20
296.6652187992414
 30
0.0
 10
380.3533274586638
 20
296.9378986265268
 30
0.0
  0
LINE
  5
33E
330
1F
100
AcDbEntity
  8
0
  6
Continuous
 62
     7
370
    35
100
AcDbLine
 10
380.7574146912
 20
229.4378986118
 30
0.0
 11
404.9241342366
 21
229.4378986265
 31
0.0
  0
LINE
  5
33F
330
1F
100
AcDbEntity
  8
0
  6
Continuous
 62
     7
370
    35
100
AcDbLine
 10
386.6791362382
 20
279.4378986265
 30
0.0
 11
380.337935321
 21
279.4378986265
 31
0.0
  0
SPLINE
  5
340
330
1F
100
AcDbEntity
  8
0
  6
Continuous
 62
     7
370
    35
100
AcDbSpline
210
0.0
220
0.0
230
1.0
 70
     8
 71
     3
 72
    21
 73
    17
 74
     0
 42
0.00000001
 43
0.00000001
 40
0.0
 40
0.0
 40
0.0
 40
0.0
 40
0.0482130095040222
 40
0.0967993736020113
 40
0.1879342067586232
 40
0.2816141860966014
 40
0.3744054362986431
 40
0.4221997117400986
 40
0.4699937885690559
 40
0.562433989697519
 40
0.610045824484019
 40
0.6576579045286709
 40
0.749887028424364
 40
0.8447539593035942
 40
0.9216146458671851
 40
1.0
 40
1.0
 40
1.0
 40
1.0
 10
399.1691322349509
 20
279.4378986265268
 30
0.0
 10
399.0207044133264
 20
279.4367736687137
 30
0.0
 10
398.7226993664281
 20
279.4345150415763
 30
0.0
 10
398.0722052312844
 20
279.4142222289793
 30
0.0
 10
397.1765502817962
 20
279.3750019222128
 30
0.0
 10
395.9930544224041
 20
279.3213869991175
 30
0.0
 10
394.9225493407315
 20
279.2843651607853
 30
0.0
 10
394.0371762107618
 20
279.2654657715877
 30
0.0
 10
393.1427911302698
 20
279.2549554259689
 30
0.0
 10
392.241343329408
 20
279.2582035373738
 30
0.0
 10
391.3552845723395
 20
279.2745574927869
 30
0.0
 10
390.4852622849765
 20
279.2983688482968
 30
0.0
 10
389.4334576655221
 20
279.339696533804
 30
0.0
 10
388.3456176627073
 20
279.3898099903152
 30
0.0
 10
387.4123222917374
 20
279.4290503349091
 30
0.0
 10
386.9251265019942
 20
279.4349299481416
 30
0.0
 10
386.6791362381541
 20
279.4378986265268
 30
0.0
  0
LINE
  5
341
330
1F
100
AcDbEntity
  8
0
  6
Continuous
 62
     7
370
    35
100
AcDbLine
 10
404.9241342366
 20
279.4378986265
 30
0.0
 11
399.169132235
 21
279.4378986265
 31
0.0
  0
LINE
  5
342
330
1F
100
AcDbEntity
  8
0
  6
Continuous
 62
     7
370
    35
100
AcDbLine
 10
399.169132235
 20
279.4378986265
 30
0.0
 11
399.169132235
 21
291.9378986265
 31
0.0
  0
LINE
  5
343
330
1F
100
AcDbEntity
  8
0
  6
Continuous
 62
     7
370
    35
100
AcDbLine
 10
386.6791362382
 20
291.9378986265
 30
0.0
 11
386.6791362382
 21
279.4378986265
 31
0.0
  0
LINE
  5
344
330
1F
100
AcDbEntity
  8
0
  6
Continuous
 62
     7
370
    35
100
AcDbLine
 10
407.9241342366
 20
272.9378986265
 30
0.0
 11
407.9241342366
 21
235.9378986265
 31
0.0
  0
LINE
  5
345
330
1F
100
AcDbEntity
  8
0
  6
Continuous
 62
     7
370
    35
100
AcDbLine
 10
407.9241342366
 20
235.9378986265
 30
0.0
 11
407.4241342366
 21
236.4378986265
 31
0.0
  0
LINE
  5
346
330
1F
100
AcDbEntity
  8
0
  6
Continuous
 62
     7
370
    35
100
AcDbLine
 10
407.4241342366
 20
272.4378986265
 30
0.0
 11
407.9241342366
 21
272.9378986265
 31
0.0
  0
LINE
  5
347
330
1F
100
AcDbEntity
  8
0
  6
Continuous
 62
     7
370
    35
100
AcDbLine
 10
380.3533274583
 20
296.9378986281
 30
0.0
 11
382.4241342366
 21
296.9378986265
 31
0.0
  0
LINE
  5
348
330
1F
100
AcDbEntity
  8
0
  6
Continuous
 62
     7
370
    35
100
AcDbLine
 10
407.9241342366
 20
296.9378986265
 30
0.0
 11
407.9241342366
 21
272.9378986265
 31
0.0
  0
LINE
  5
349
330
1F
100
AcDbEntity
  8
0
  6
Continuous
 62
     7
370
    35
100
AcDbLine
 10
407.4241342366
 20
272.4378986265
 30
0.0
 11
404.9241342366
 21
272.4378986265
 31
0.0
  0
LINE
  5
34A
330
1F
100
AcDbEntity
  8
0
  6
Continuous
 62
     7
370
    35
100
AcDbLine
 10
404.9241342366
 20
272.4378986265
 30
0.0
 11
404.9241342366
 21
279.4378986265
 31
0.0
  0
LINE
  5
34B
330
1F
100
AcDbEntity
  8
0
  6
Continuous
 62
     7
370
    35
100
AcDbLine
 10
403.4241342366
 20
296.9378986265
 30
0.0
 11
407.9241342366
 21
296.9378986265
 31
0.0
  0
LINE
  5
34C
330
1F
100
AcDbEntity
  8
0
  6
Continuous
 62
     7
370
    35
100
AcDbLine
 10
404.9241342366
 20
236.4378986265
 30
0.0
 11
407.4241342366
 21
236.4378986265
 31
0.0
  0
LINE
  5
34D
330
1F
100
AcDbEntity
  8
0
  6
Continuous
 62
     7
370
    35
100
AcDbLine
 10
404.9241342366
 20
236.4378986265
 30
0.0
 11
404.9241342366
 21
272.4378986265
 31
0.0
  0
LINE
  5
34E
330
1F
100
AcDbEntity
  8
0
  6
Continuous
 62
     7
370
    35
100
AcDbLine
 10
407.4241342366
 20
204.4378986265
 30
0.0
 11
397.9241342366
 21
204.4378986265
 31
0.0
  0
LINE
  5
34F
330
1F
100
AcDbEntity
  8
0
  6
Continuous
 62
     7
370
    35
100
AcDbLine
 10
397.9241342366
 20
204.4378986265
 30
0.0
 11
392.9241342366
 21
209.4378986265
 31
0.0
  0
LINE
  5
350
330
1F
100
AcDbEntity
  8
0
  6
Continuous
 62
     7
370
    35
100
AcDbLine
 10
407.4241342366
 20
204.4378986265
 30
0.0
 11
407.9241342366
 21
204.9378986265
 31
0.0
  0
LINE
  5
351
330
1F
100
AcDbEntity
  8
0
  6
Continuous
 62
     7
370
    35
100
AcDbLine
 10
407.9241342366
 20
235.9378986265
 30
0.0
 11
407.9241342366
 21
204.9378986265
 31
0.0
  0
LINE
  5
352
330
1F
100
AcDbEntity
  8
0
  6
Continuous
 62
     7
370
    35
100
AcDbLine
 10
404.9241342366
 20
229.4378986265
 30
0.0
 11
404.9241342366
 21
236.4378986265
 31
0.0
  0
LINE
  5
353
330
1F
100
AcDbEntity
  8
0
  6
Continuous
 62
     7
370
    35
100
AcDbLine
 10
305.5236621031
 20
299.3925236988
 30
0.0
 11
305.5245347235
 21
299.4425160836
 31
0.0
  0
LINE
  5
354
330
1F
100
AcDbEntity
  8
0
  6
Continuous
 62
     7
370
    35
100
AcDbLine
 10
306.5243824186
 20
299.4250636772
 30
0.0
 11
305.5245347235
 21
299.4425160836
 31
0.0
  0
LINE
  5
355
330
1F
100
AcDbEntity
  8
0
  6
Continuous
 62
     7
370
    35
100
AcDbLine
 10
310.9237122773
 20
299.3482730888
 30
0.0
 11
306.5243824186
 21
299.4250636772
 31
0.0
  0
LINE
  5
356
330
1F
100
AcDbEntity
  8
0
  6
Continuous
 62
     7
370
    35
100
AcDbLine
 10
311.9226873521
 20
299.2808282976
 30
0.0
 11
311.9235599725
 21
299.3308206824
 31
0.0
  0
LINE
  5
357
330
1F
100
AcDbEntity
  8
0
  6
Continuous
 62
     7
370
    35
100
AcDbLine
 10
311.9235599725
 20
299.3308206824
 30
0.0
 11
310.9237122773
 21
299.3482730888
 31
0.0
  0
LINE
  5
358
330
1F
100
AcDbEntity
  8
0
  6
Continuous
 62
     7
370
    35
100
AcDbLine
 10
403.4241342366
 20
296.9378986265
 30
0.0
 11
382.4241342366
 21
296.9378986265
 31
0.0
  0
LINE
  5
359
330
1F
100
AcDbEntity
  8
0
  6
Continuous
 62
     7
370
    35
100
AcDbLine
 10
382.9241342366
 20
298.9378986265
 30
0.0
 11
402.9241342365
 21
298.9378986265
 31
0.0
  0
LINE
  5
35A
330
1F
100
AcDbEntity
  8
0
  6
Continuous
 62
     7
370
    35
100
AcDbLine
 10
400.9741342366
 20
291.9378986265
 30
0.0
 11
384.874134239
 21
291.9378986265
 31
0.0
  0
LINE
  5
35B
330
1F
100
AcDbEntity
  8
0
  6
Continuous
 62
     7
370
    35
100
AcDbLine
 10
393.9241342366
 20
264.4378986265
 30
0.0
 11
397.3341342366
 21
264.4378986265
 31
0.0
  0
LINE
  5
35C
330
1F
100
AcDbEntity
  8
0
  6
Continuous
 62
     7
370
    35
100
AcDbLine
 10
390.5141342366
 20
264.4378986265
 30
0.0
 11
393.9241342366
 21
264.4378986265
 31
0.0
  0
LINE
  5
35D
330
1F
100
AcDbEntity
  8
0
  6
Continuous
 62
     7
370
    35
100
AcDbLine
 10
378.2241342366
 20
254.4378986265
 30
0.0
 11
378.2241342366
 21
241.9339423849
 31
0.0
  0
LINE
  5
35E
330
1F
100
AcDbEntity
  8
0
  6
Continuous
 62
     7
370
    35
100
AcDbLine
 10
378.2241342366
 20
271.4530446023
 30
0.0
 11
378.2241342366
 21
254.4378986265
 31
0.0
  0
LINE
  5
35F
330
1F
100
AcDbEntity
  8
0
  6
Continuous
 62
     7
370
    35
100
AcDbLine
 10
380.1241342366
 20
233.9330881767
 30
0.0
 11
380.1241342366
 21
276.9378986265
 31
0.0
  0
LINE
  5
360
330
1F
100
AcDbEntity
  8
0
  6
Continuous
 62
     7
370
    35
100
AcDbLine
 10
377.9241342366
 20
254.4378986265
 30
0.0
 11
377.9241342366
 21
270.3957737152
 31
0.0
  0
LINE
  5
361
330
1F
100
AcDbEntity
  8
0
  6
Continuous
 62
     7
370
    35
100
AcDbLine
 10
377.9241342366
 20
243.0517081375
 30
0.0
 11
377.9241342366
 21
254.4378986265
 31
0.0
  0
LINE
  5
362
330
1F
100
AcDbEntity
  8
0
  6
Continuous
 62
     7
370
    35
100
AcDbLine
 10
380.4241342366
 20
276.6378986265
 30
0.0
 11
380.4241342366
 21
232.2378986265
 31
0.0
  0
SPLINE
  5
363
330
1F
100
AcDbEntity
  8
0
  6
Continuous
 62
     7
370
    35
100
AcDbSpline
210
0.0
220
0.0
230
1.0
 70
     8
 71
     3
 72
     9
 73
     5
 74
     0
 42
0.00000001
 43
0.00000001
 40
0.0
 40
0.0
 40
0.0
 40
0.0
 40
0.4986001025411971
 40
1.0
 40
1.0
 40
1.0
 40
1.0
 10
387.1355961491526
 20
254.9378986265268
 30
0.0
 10
387.1328487893381
 20
254.7716995704395
 30
0.0
 10
387.1273386424281
 20
254.4383681987846
 30
0.0
 10
387.1328385140735
 20
254.1050329074309
 30
0.0
 10
387.1355961491526
 20
253.9378986265268
 30
0.0
  0
LINE
  5
364
330
1F
100
AcDbEntity
  8
0
  6
Continuous
 62
     7
370
    35
100
AcDbLine
 10
384.924218402
 20
254.9378986265
 30
0.0
 11
384.924218402
 21
253.9378986265
 31
0.0
  0
LINE
  5
365
330
1F
100
AcDbEntity
  8
0
  6
Continuous
 62
     7
370
    35
100
AcDbLine
 10
389.9241342366
 20
260.4378986265
 30
0.0
 11
389.9241342366
 21
268.0393691353
 31
0.0
  0
LINE
  5
366
330
1F
100
AcDbEntity
  8
0
  6
Continuous
 62
     7
370
    35
100
AcDbLine
 10
397.9241342366
 20
260.4378986265
 30
0.0
 11
389.9241342366
 21
260.4378986265
 31
0.0
  0
LINE
  5
367
330
1F
100
AcDbEntity
  8
0
  6
Continuous
 62
     7
370
    35
100
AcDbLine
 10
397.9241342366
 20
268.0393691353
 30
0.0
 11
397.9241342366
 21
260.4378986265
 31
0.0
  0
SPLINE
  5
368
330
1F
100
AcDbEntity
  8
0
  6
Continuous
 62
     7
370
    35
100
AcDbSpline
210
0.0
220
0.0
230
1.0
 70
     8
 71
     3
 72
    28
 73
    24
 74
     0
 42
0.00000001
 43
0.00000001
 40
0.0
 40
0.0
 40
0.0
 40
0.0
 40
0.0557509334731089
 40
0.1116399689582275
 40
0.1672733370045376
 40
0.2205524784898326
 40
0.2737733804432234
 40
0.3184837165300419
 40
0.3631563631891624
 40
0.4081525728458137
 40
0.4531189404912616
 40
0.4924349489125028
 40
0.5317492890710013
 40
0.5687737754411594
 40
0.605809311668912
 40
0.6438974044019067
 40
0.6820050185564682
 40
0.724083677175757
 40
0.7661900708357189
 40
0.8288355126468178
 40
0.8915690912013258
 40
0.9457719902778003
 40
1.0
 40
1.0
 40
1.0
 40
1.0
 10
389.9241342365524
 20
268.0393691352622
 30
0.0
 10
389.9312358931797
 20
268.249400254388
 30
0.0
 10
389.9454567981231
 20
268.6699827659037
 30
0.0
 10
390.0705451285985
 20
269.2666950231626
 30
0.0
 10
390.2836880633077
 20
269.8210499013616
 30
0.0
 10
390.5998614816039
 20
270.3198468053341
 30
0.0
 10
390.9969075605746
 20
270.7348242707476
 30
0.0
 10
391.4665923919433
 20
271.0685310942452
 30
0.0
 10
391.9857043707115
 20
271.3276805917155
 30
0.0
 10
392.5771246325043
 20
271.5201325872686
 30
0.0
 10
393.194637554044
 20
271.6369365322784
 30
0.0
 10
393.8105276515551
 20
271.680107955705
 30
0.0
 10
394.3904259703929
 20
271.6624142922928
 30
0.0
 10
394.9441104665142
 20
271.5877798188975
 30
0.0
 10
395.4640541520702
 20
271.4632701599069
 30
0.0
 10
395.9469213896177
 20
271.2869050854894
 30
0.0
 10
396.399049613772
 20
271.0557843239512
 30
0.0
 10
396.801921619167
 20
270.7695525743734
 30
0.0
 10
397.2038588658753
 20
270.3769672334841
 30
0.0
 10
397.546795219971
 20
269.8676320772605
 30
0.0
 10
397.7803604611669
 20
269.2648171727032
 30
0.0
 10
397.90411674798
 20
268.6525400989057
 30
0.0
 10
397.9174607102879
 20
268.2437910094527
 30
0.0
 10
397.9241342365524
 20
268.0393691352622
 30
0.0
  0
LINE
  5
369
330
1F
100
AcDbEntity
  8
0
  6
Continuous
 62
     7
370
    35
100
AcDbLine
 10
388.9241342366
 20
275.4378986265
 30
0.0
 11
388.9241342366
 21
254.9378986265
 31
0.0
  0
LINE
  5
36A
330
1F
100
AcDbEntity
  8
0
  6
Continuous
 62
     7
370
    35
100
AcDbLine
 10
388.9241342366
 20
274.2368884998
 30
0.0
 11
387.9241342366
 21
274.2368884998
 31
0.0
  0
LINE
  5
36B
330
1F
100
AcDbEntity
  8
0
  6
Continuous
 62
     7
370
    35
100
AcDbLine
 10
387.9241342366
 20
275.4378986265
 30
0.0
 11
387.9241342366
 21
254.9378986265
 31
0.0
  0
LINE
  5
36C
330
1F
100
AcDbEntity
  8
0
  6
Continuous
 62
     7
370
    18
100
AcDbLine
 10
387.9241342366
 20
254.9378986265
 30
0.0
 11
384.924218402
 21
254.9378986265
 31
0.0
  0
LINE
  5
36D
330
1F
100
AcDbEntity
  8
0
  6
Continuous
 62
     7
370
    35
100
AcDbLine
 10
387.9241342366
 20
253.9378986265
 30
0.0
 11
384.924218402
 21
253.9378986265
 31
0.0
  0
LINE
  5
36E
330
1F
100
AcDbEntity
  8
0
  6
Continuous
 62
     7
370
    35
100
AcDbLine
 10
387.9241342366
 20
253.9378986265
 30
0.0
 11
387.9241342366
 21
233.4378986265
 31
0.0
  0
LINE
  5
36F
330
1F
100
AcDbEntity
  8
0
  6
Continuous
 62
     7
370
    35
100
AcDbLine
 10
388.9241342366
 20
234.6389087533
 30
0.0
 11
387.9241342366
 21
234.6389087533
 31
0.0
  0
LINE
  5
370
330
1F
100
AcDbEntity
  8
0
  6
Continuous
 62
     7
370
    35
100
AcDbLine
 10
388.9241342366
 20
253.9378986265
 30
0.0
 11
388.9241342366
 21
233.4378986265
 31
0.0
  0
LINE
  5
371
330
1F
100
AcDbEntity
  8
0
  6
Continuous
 62
     7
370
    35
100
AcDbLine
 10
398.4241342366
 20
253.9378986265
 30
0.0
 11
388.9241342366
 21
253.9378986265
 31
0.0
  0
LINE
  5
372
330
1F
100
AcDbEntity
  8
0
  6
Continuous
 62
     7
370
    35
100
AcDbLine
 10
398.4241342366
 20
254.9378986265
 30
0.0
 11
398.4241342366
 21
275.4378986265
 31
0.0
  0
LINE
  5
373
330
1F
100
AcDbEntity
  8
0
  6
Continuous
 62
     7
370
    35
100
AcDbLine
 10
398.4241342366
 20
233.4378986265
 30
0.0
 11
398.4241342366
 21
253.9378986265
 31
0.0
  0
LINE
  5
374
330
1F
100
AcDbEntity
  8
0
  6
Continuous
 62
     7
370
    35
100
AcDbLine
 10
398.4241342366
 20
254.9378986265
 30
0.0
 11
388.9241342366
 21
254.9378986265
 31
0.0
  0
SPLINE
  5
375
330
1F
100
AcDbEntity
  8
0
  6
Continuous
 62
     7
370
    35
100
AcDbSpline
210
0.0
220
0.0
230
1.0
 70
    11
 71
     3
 72
    35
 73
    31
 74
     0
 42
0.00000001
 43
0.00000001
 40
0.0
 40
0.0
 40
0.0
 40
0.0
 40
0.0442512194082778
 40
0.0884217885925277
 40
0.1145061305564236
 40
0.1405588568097499
 40
0.1817529530602305
 40
0.2151294026362924
 40
0.2486441607313643
 40
0.2791190379310535
 40
0.310722705147829
 40
0.3341040998723298
 40
0.3575185052615087
 40
0.390167721842546
 40
0.4228670003200313
 40
0.4683123519125326
 40
0.5138052743498598
 40
0.5603473598639441
 40
0.606847127424562
 40
0.6567093669288205
 40
0.6952492055793215
 40
0.7213070501715307
 40
0.7475567187730027
 40
0.7703631205920872
 40
0.8030669171183157
 40
0.8294202836929374
 40
0.8558303560099282
 40
0.8993627934855226
 40
0.9429535136626545
 40
1.0
 40
1.0
 40
1.0
 40
1.0
 10
392.2741342365525
 20
240.8364281177913
 30
0.0
 10
392.2826693058584
 20
240.6866209122448
 30
0.0
 10
392.2997238888482
 20
240.3872795328299
 30
0.0
 10
392.4303968660198
 20
240.0209470278825
 30
0.0
 10
392.6045956381788
 20
239.7368773338153
 30
0.0
 10
392.8283665235327
 20
239.4859846857109
 30
0.0
 10
393.1541190449819
 20
239.2616418300592
 30
0.0
 10
393.5984204574996
 20
239.1164888472246
 30
0.0
 10
394.0430608832049
 20
239.0916954692326
 30
0.0
 10
394.4612674065584
 20
239.1735523197185
 30
0.0
 10
394.7834632132707
 20
239.322125627684
 30
0.0
 10
395.0250317544608
 20
239.5011347230743
 30
0.0
 10
395.225178599319
 20
239.7096782553837
 30
0.0
 10
395.3914594707159
 20
239.9702116901049
 30
0.0
 10
395.5253048200225
 20
240.3202062495081
 30
0.0
 10
395.5881533236911
 20
240.7335342913403
 30
0.0
 10
395.5601541989168
 20
241.2061629999023
 30
0.0
 10
395.4419776160442
 20
241.6861429755652
 30
0.0
 10
395.2230369748993
 20
242.1704983495291
 30
0.0
 10
394.9124379302651
 20
242.5998126018168
 30
0.0
 10
394.5390132216554
 20
242.9012799913326
 30
0.0
 10
394.1662869591607
 20
243.0506773800907
 30
0.0
 10
393.8219177398518
 20
243.0717467168719
 30
0.0
 10
393.4669810578231
 20
242.9793790014405
 30
0.0
 10
393.166458080023
 20
242.7948804169428
 30
0.0
 10
392.9157125428979
 20
242.5546048736832
 30
0.0
 10
392.6851639399885
 20
242.2547411052999
 30
0.0
 10
392.4826551575143
 20
241.8764140061788
 30
0.0
 10
392.3129146374224
 20
241.3791126842585
 30
0.0
 10
392.2881641312637
 20
241.0327594387197
 30
0.0
 10
392.2741342365525
 20
240.8364281177913
 30
0.0
  0
LINE
  5
376
330
1F
100
AcDbEntity
  8
0
  6
Continuous
 62
     7
370
    35
100
AcDbLine
 10
398.9241342366
 20
253.9378986265
 30
0.0
 11
398.9241342366
 21
233.9378986265
 31
0.0
  0
LINE
  5
377
330
1F
100
AcDbEntity
  8
0
  6
Continuous
 62
     7
370
    35
100
AcDbLine
 10
398.9241342366
 20
274.9378986265
 30
0.0
 11
398.9241342366
 21
254.9378986265
 31
0.0
  0
LINE
  5
378
330
1F
100
AcDbEntity
  8
0
  6
Continuous
 62
     7
370
    35
100
AcDbLine
 10
398.9241342366
 20
254.9378986265
 30
0.0
 11
398.4241342366
 21
254.9378986265
 31
0.0
  0
LINE
  5
379
330
1F
100
AcDbEntity
  8
0
  6
Continuous
 62
     7
370
    35
100
AcDbLine
 10
398.4241342366
 20
253.9378986265
 30
0.0
 11
398.9241342366
 21
253.9378986265
 31
0.0
  0
LINE
  5
37A
330
1F
100
AcDbEntity
  8
0
  6
Continuous
 62
     7
370
    35
100
AcDbLine
 10
387.9241342366
 20
254.9378986265
 30
0.0
 11
387.9241342366
 21
254.4378986265
 31
0.0
  0
LINE
  5
37B
330
1F
100
AcDbEntity
  8
0
  6
Continuous
 62
     7
370
    35
100
AcDbLine
 10
387.9241342366
 20
254.4378986265
 30
0.0
 11
387.9241342366
 21
253.9378986265
 31
0.0
  0
LINE
  5
37C
330
1F
100
AcDbEntity
  8
0
  6
Continuous
 62
     7
370
    35
100
AcDbLine
 10
388.9241342366
 20
254.4378986265
 30
0.0
 11
388.9241342366
 21
253.9378986265
 31
0.0
  0
LINE
  5
37D
330
1F
100
AcDbEntity
  8
0
  6
Continuous
 62
     7
370
    35
100
AcDbLine
 10
388.9241342366
 20
254.9378986265
 30
0.0
 11
388.9241342366
 21
254.4378986265
 31
0.0
  0
LINE
  5
37E
330
1F
100
AcDbEntity
  8
0
  6
Continuous
 62
     7
370
    35
100
AcDbLine
 10
398.9241342366
 20
253.9378986265
 30
0.0
 11
398.9241342366
 21
254.9378986265
 31
0.0
  0
LINE
  5
37F
330
1F
100
AcDbEntity
  8
0
  6
Continuous
 62
     7
370
    35
100
AcDbLine
 10
283.9241342366
 20
267.6878986265
 30
0.0
 11
254.9241342366
 21
267.6878986265
 31
0.0
  0
LINE
  5
380
330
1F
100
AcDbEntity
  8
0
  6
Continuous
 62
     7
370
    35
100
AcDbLine
 10
254.9241342366
 20
267.6878986265
 30
0.0
 11
254.9241342366
 21
264.5002045253
 31
0.0
  0
LINE
  5
381
330
1F
100
AcDbEntity
  8
0
  6
Continuous
 62
     7
370
    35
100
AcDbLine
 10
255.1741342366
 20
267.9378986265
 30
0.0
 11
283.9241342366
 21
267.9378986265
 31
0.0
  0
LINE
  5
382
330
1F
100
AcDbEntity
  8
0
  6
Continuous
 62
     7
370
    35
100
AcDbLine
 10
255.1741342366
 20
267.9378986265
 30
0.0
 11
254.9241342366
 21
267.6878986265
 31
0.0
  0
LINE
  5
383
330
1F
100
AcDbEntity
  8
0
  6
Continuous
 62
     7
370
    35
100
AcDbLine
 10
286.9241342366
 20
267.6878986265
 30
0.0
 11
283.9241342366
 21
267.6878986265
 31
0.0
  0
LINE
  5
384
330
1F
100
AcDbEntity
  8
0
  6
Continuous
 62
     7
370
    35
100
AcDbLine
 10
283.9241342366
 20
267.9378986265
 30
0.0
 11
286.6741342366
 21
267.9378986265
 31
0.0
  0
SPLINE
  5
385
330
1F
100
AcDbEntity
  8
0
  6
Continuous
 62
     7
370
    35
100
AcDbSpline
210
0.0
220
0.0
230
1.0
 70
     8
 71
     3
 72
    10
 73
     6
 74
     0
 42
0.00000001
 43
0.00000001
 40
0.0
 40
0.0
 40
0.0
 40
0.0
 40
0.5
 40
0.5
 40
1.0
 40
1.0
 40
1.0
 40
1.0
 10
314.202833167584
 20
272.4016419450191
 30
0.0
 10
314.1124626308552
 20
272.1777154044058
 30
0.0
 10
314.0406905881014
 20
271.9441724048732
 30
0.0
 10
313.9392836017428
 20
271.4552991748903
 30
0.0
 10
313.9100444780582
 20
271.1978961389857
 30
0.0
 10
313.9067001398618
 20
270.9398823269549
 30
0.0
  0
SPLINE
  5
386
330
1F
100
AcDbEntity
  8
0
  6
Continuous
 62
     7
370
    35
100
AcDbSpline
210
0.0
220
0.0
230
1.0
 70
    24
 71
     3
 72
    10
 73
     6
 74
     0
 42
0.00000001
 43
0.00000001
 40
0.0
 40
0.0
 40
0.0
 40
0.0
 40
0.5
 40
0.5
 40
1.0
 40
1.0
 40
1.0
 40
1.0
 10
366.9241342365524
 20
274.7125201316196
 30
0.0
 10
366.9241342365524
 20
274.4542321006653
 30
0.0
 10
366.9241342365524
 20
274.183248085237
 30
0.0
 10
366.9241342365524
 20
273.6349043879829
 30
0.0
 10
366.9241342365524
 20
273.3557397353784
 30
0.0
 10
366.9241342365524
 20
273.0714096342949
 30
0.0
  0
LINE
  5
387
330
1F
100
AcDbEntity
  8
0
  6
Continuous
 62
     7
370
    35
100
AcDbLine
 10
313.9063690797
 20
270.8769944157
 30
0.0
 11
313.9063690797
 21
270.888812614
 31
0.0
  0
LINE
  5
388
330
1F
100
AcDbEntity
  8
0
  6
Continuous
 62
     7
370
    35
100
AcDbLine
 10
313.9063690797
 20
270.888812614
 30
0.0
 11
313.9063690797
 21
270.918812614
 31
0.0
  0
LINE
  5
389
330
1F
100
AcDbEntity
  8
0
  6
Continuous
 62
     7
370
    35
100
AcDbLine
 10
313.9063690797
 20
270.918812614
 30
0.0
 11
313.9063690797
 21
290.2475737479
 31
0.0
  0
LINE
  5
38A
330
1F
100
AcDbEntity
  8
0
  6
Continuous
 62
     7
370
    35
100
AcDbLine
 10
314.9241342366
 20
290.2475737479
 30
0.0
 11
314.9241342366
 21
274.094670354
 31
0.0
  0
ARC
  5
38B
330
1F
100
AcDbEntity
  8
0
  6
Continuous
 62
     7
370
    35
100
AcDbCircle
 10
358.7146734574
 20
254.4378986265
 30
0.0
 40
47.99999999999942
100
AcDbArc
 50
155.8255608171
 51
158.0223645548
  0
SPLINE
  5
38C
330
1F
100
AcDbEntity
  8
0
  6
Continuous
 62
     7
370
    35
100
AcDbSpline
210
0.0
220
0.0
230
1.0
 70
     8
 71
     3
 72
    14
 73
    10
 74
     0
 42
0.00000001
 43
0.00000001
 40
0.0
 40
0.0
 40
0.0
 40
0.0
 40
0.000016567511187
 40
0.000016567511187
 40
0.000016567511187
 40
0.000029994084789
 40
0.000029994084789
 40
0.000029994084789
 40
0.0000428602625668
 40
0.0000428602625668
 40
0.0000428602625668
 40
0.0000428602625668
 10
313.9216170837723
 20
270.9044565920313
 30
0.0
 10
313.9183665413079
 20
270.9075169833152
 30
0.0
 10
313.9153533410009
 20
270.9112322505446
 30
0.0
 10
313.9129089677321
 20
270.9155390040879
 30
0.0
 10
313.9109269369929
 20
270.9190311540053
 30
0.0
 10
313.9092831106213
 20
270.9229997225393
 30
0.0
 10
313.9082051894171
 20
270.9272102064192
 30
0.0
 10
313.907174144703
 20
270.9312375853511
 30
0.0
 10
313.9066446308312
 20
270.9355998364457
 30
0.0
 10
313.9067001398618
 20
270.939882326955
 30
0.0
  0
LINE
  5
38D
330
1F
100
AcDbEntity
  8
0
  6
Continuous
 62
     7
370
    35
100
AcDbLine
 10
313.9216170838
 20
270.904456592
 30
0.0
 11
313.9369066854
 21
270.890061406
 31
0.0
  0
LINE
  5
38E
330
1F
100
AcDbEntity
  8
0
  6
Continuous
 62
     7
370
    35
100
AcDbLine
 10
313.9369066854
 20
270.890061406
 30
0.0
 11
313.9241370846
 21
270.8769944157
 31
0.0
  0
LINE
  5
38F
330
1F
100
AcDbEntity
  8
0
  6
Continuous
 62
     7
370
    35
100
AcDbLine
 10
313.9241370846
 20
270.8769944157
 30
0.0
 11
313.9063690797
 21
270.8769944157
 31
0.0
  0
LINE
  5
390
330
1F
100
AcDbEntity
  8
0
  6
Continuous
 62
     7
370
    35
100
AcDbLine
 10
302.9241342366
 20
218.4378986265
 30
0.0
 11
302.9241342366
 21
290.4378986265
 31
0.0
  0
LINE
  5
391
330
1F
100
AcDbEntity
  8
0
  6
Continuous
 62
     7
370
    35
100
AcDbLine
 10
303.4241342366
 20
218.4378986265
 30
0.0
 11
303.4241342366
 21
290.4378986265
 31
0.0
  0
LINE
  5
392
330
1F
100
AcDbEntity
  8
0
  6
Continuous
 62
     7
370
    35
100
AcDbLine
 10
302.9241342366
 20
290.4378986265
 30
0.0
 11
302.9241342366
 21
298.9378986265
 31
0.0
  0
LINE
  5
393
330
1F
100
AcDbEntity
  8
0
  6
Continuous
 62
     7
370
    35
100
AcDbLine
 10
302.9241342366
 20
298.9378986265
 30
0.0
 11
303.4241342366
 21
299.4378986265
 31
0.0
  0
LINE
  5
394
330
1F
100
AcDbEntity
  8
0
  6
Continuous
 62
     7
370
    35
100
AcDbLine
 10
303.4241342366
 20
299.4378986265
 30
0.0
 11
303.4241342366
 21
290.4378986265
 31
0.0
  0
LINE
  5
395
330
1F
100
AcDbEntity
  8
0
  6
Continuous
 62
     7
370
    35
100
AcDbLine
 10
302.9241342366
 20
209.9378986265
 30
0.0
 11
302.9241342366
 21
218.4378986265
 31
0.0
  0
LINE
  5
396
330
1F
100
AcDbEntity
  8
0
  6
Continuous
 62
     7
370
    35
100
AcDbLine
 10
303.4241342366
 20
209.4378986265
 30
0.0
 11
302.9241342366
 21
209.9378986265
 31
0.0
  0
LINE
  5
397
330
1F
100
AcDbEntity
  8
0
  6
Continuous
 62
     7
370
    35
100
AcDbLine
 10
303.4241342366
 20
218.4378986265
 30
0.0
 11
303.4241342366
 21
209.4378986265
 31
0.0
  0
LINE
  5
398
330
1F
100
AcDbEntity
  8
0
  6
Continuous
 62
     7
370
    35
100
AcDbLine
 10
303.4241342366
 20
299.4291710941
 30
0.0
 11
313.9063690797
 21
299.2462030043
 31
0.0
  0
SPLINE
  5
399
330
1F
100
AcDbEntity
  8
0
  6
Continuous
 62
     7
370
    35
100
AcDbSpline
210
0.0
220
0.0
230
1.0
 70
     8
 71
     3
 72
    29
 73
    25
 74
     0
 42
0.00000001
 43
0.00000001
 40
0.0
 40
0.0
 40
0.0
 40
0.0
 40
0.0216862077635099
 40
0.0432205313702217
 40
0.0646029771203766
 40
0.0858335514581168
 40
0.1069122609755638
 40
0.127839112417044
 40
0.1486141126834708
 40
0.1692372688368871
 40
0.1897085881051733
 40
0.2100280778869342
 40
0.2301957457565665
 40
0.2502115994695181
 40
0.3759257594195705
 40
0.5000167744249288
 40
0.6241043189143601
 40
0.7498219489439373
 40
0.7899994268446043
 40
0.8307843824733656
 40
0.8721768687994643
 40
0.9141769359543783
 40
0.9567846313856625
 40
1.0
 40
1.0
 40
1.0
 40
1.0
 10
313.9063690796572
 20
290.2475737478759
 30
0.0
 10
313.9065688357887
 20
290.3496691844052
 30
0.0
 10
313.9069669490155
 20
290.5531450094728
 30
0.0
 10
313.9075388571569
 20
290.8569346308686
 30
0.0
 10
313.9080871998219
 20
291.1578920286308
 30
0.0
 10
313.908609162801
 20
291.4556966848103
 30
0.0
 10
313.9091042061041
 20
291.7500434253883
 30
0.0
 10
313.9095716919607
 20
292.0406423255693
 30
0.0
 10
313.9100114951175
 20
292.3272188589956
 30
0.0
 10
313.910423826978
 20
292.6095133142446
 30
0.0
 10
313.9108092502661
 20
292.8872826736293
 30
0.0
 10
313.9111687079662
 20
293.1602932804951
 30
0.0
 10
313.9115033085042
 20
293.428347358181
 30
0.0
 10
313.9123646077798
 20
294.1545061231166
 30
0.0
 10
313.9134286140658
 20
295.2828746836437
 30
0.0
 10
313.9138704221005
 20
296.6510030331276
 30
0.0
 10
313.9134287938542
 20
297.7756161440345
 30
0.0
 10
313.9122846120077
 20
298.4244278607296
 30
0.0
 10
313.9111769406652
 20
298.7683317827424
 30
0.0
 10
313.910432836938
 20
298.937339088632
 30
0.0
 10
313.9095807679681
 20
299.0726360693787
 30
0.0
 10
313.9086164937435
 20
299.1711048668354
 30
0.0
 10
313.9075484202122
 20
299.2342953003846
 30
0.0
 10
313.9067640444422
 20
299.2422150775648
 30
0.0
 10
313.9063690796572
 20
299.2462030042835
 30
0.0
  0
SPLINE
  5
39A
330
1F
100
AcDbEntity
  8
0
  6
Continuous
 62
     7
370
    35
100
AcDbSpline
210
0.0
220
0.0
230
1.0
 70
     8
 71
     3
 72
    29
 73
    25
 74
     0
 42
0.00000001
 43
0.00000001
 40
0.0
 40
0.0
 40
0.0
 40
0.0
 40
0.0216862077630959
 40
0.0432205313694686
 40
0.0646029771193601
 40
0.0858335514569123
 40
0.106912260974246
 40
0.127839112415688
 40
0.1486141126821533
 40
0.1692372688356813
 40
0.1897085881041564
 40
0.2100280778861809
 40
0.2301957457561521
 40
0.2502115994695186
 40
0.3759257594183194
 40
0.5000167744249303
 40
0.6241043189130948
 40
0.7498219489439376
 40
0.7899994268437981
 40
0.8307843824720756
 40
0.8721768687980131
 40
0.9141769359530877
 40
0.9567846313848563
 40
0.9999999999999999
 40
0.9999999999999999
 40
0.9999999999999999
 40
0.9999999999999999
 10
313.9063690796572
 20
209.6295942487701
 30
0.0
 10
313.9065688357887
 20
209.6306002042475
 30
0.0
 10
313.9069669490155
 20
209.6326050697703
 30
0.0
 10
313.9075388571569
 20
209.6486834750591
 30
0.0
 10
313.9080871998219
 20
209.6740595420417
 30
0.0
 10
313.908609162801
 20
209.7094250278118
 30
0.0
 10
313.9091042061041
 20
209.7542800540454
 30
0.0
 10
313.9095716919608
 20
209.8084310516756
 30
0.0
 10
313.9100114951175
 20
209.8715947397349
 30
0.0
 10
313.9104238269781
 20
209.9435037260037
 30
0.0
 10
313.9108092502662
 20
210.0238807434264
 30
0.0
 10
313.9111687079663
 20
210.1124416624939
 30
0.0
 10
313.9115033085042
 20
210.2089130546694
 30
0.0
 10
313.9123646077797
 20
210.4963817849939
 30
0.0
 10
313.9134286140657
 20
211.1002138373129
 30
0.0
 10
313.9138704221005
 20
212.2247446424309
 30
0.0
 10
313.9134287938543
 20
213.592973151843
 30
0.0
 10
313.9122846120078
 20
214.8054230469198
 30
0.0
 10
313.9111769406651
 20
215.716020285695
 30
0.0
 10
313.910432836938
 20
216.2671095526066
 30
0.0
 10
313.909580767968
 20
216.8362685440867
 30
0.0
 10
313.9086164937435
 20
217.4215374015316
 30
0.0
 10
313.9075484202122
 20
218.0206421584155
 30
0.0
 10
313.9067640444422
 20
218.424742640428
 30
0.0
 10
313.9063690796572
 20
218.6282235051777
 30
0.0
  0
LINE
  5
39B
330
1F
100
AcDbEntity
  8
0
  6
Continuous
 62
     7
370
    35
100
AcDbLine
 10
313.9063690797
 20
209.6295942488
 30
0.0
 11
303.4241342366
 21
209.446626159
 31
0.0
  0
LINE
  5
39C
330
1F
100
AcDbEntity
  8
0
  6
Continuous
 62
     7
370
    35
100
AcDbLine
 10
313.9063690797
 20
237.9988028421
 30
0.0
 11
313.8559166551
 21
237.9988028421
 31
0.0
  0
LINE
  5
39D
330
1F
100
AcDbEntity
  8
0
  6
Continuous
 62
     7
370
    35
100
AcDbLine
 10
313.9063690797
 20
237.9869846391
 30
0.0
 11
313.9063690797
 21
237.9988028421
 31
0.0
  0
LINE
  5
39E
330
1F
100
AcDbEntity
  8
0
  6
Continuous
 62
     7
370
    35
100
AcDbLine
 10
313.9063690797
 20
237.9569846391
 30
0.0
 11
313.9063690797
 21
237.9869846391
 31
0.0
  0
LINE
  5
39F
330
1F
100
AcDbEntity
  8
0
  6
Continuous
 62
     7
370
    35
100
AcDbLine
 10
313.9063690797
 20
218.6282235052
 30
0.0
 11
313.9063690797
 21
237.9569846391
 31
0.0
  0
LINE
  5
3A0
330
1F
100
AcDbEntity
  8
0
  6
Continuous
 62
     7
370
    35
100
AcDbLine
 10
313.9063690797
 20
270.8769944157
 30
0.0
 11
313.8559166551
 21
270.8769944157
 31
0.0
  0
LINE
  5
3A1
330
1F
100
AcDbEntity
  8
0
  6
Continuous
 62
     7
370
    35
100
AcDbLine
 10
313.9369066854
 20
237.9857358471
 30
0.0
 11
313.9216170838
 21
237.971340661
 31
0.0
  0
SPLINE
  5
3A2
330
1F
100
AcDbEntity
  8
0
  6
Continuous
 62
     7
370
    35
100
AcDbSpline
210
0.0
220
0.0
230
1.0
 70
     8
 71
     3
 72
    14
 73
    10
 74
     0
 42
0.00000001
 43
0.00000001
 40
0.0
 40
0.0
 40
0.0
 40
0.0
 40
0.000012797974209
 40
0.000012797974209
 40
0.000012797974209
 40
0.0000255093113908
 40
0.0000255093113908
 40
0.0000255093113908
 40
0.0000428115197143
 40
0.0000428115197143
 40
0.0000428115197143
 40
0.0000428115197143
 10
313.9067001398619
 20
237.9359149260981
 30
0.0
 10
313.9066448539782
 20
237.9401802009536
 30
0.0
 10
313.9071696953237
 20
237.9445244173488
 30
0.0
 10
313.9081925741117
 20
237.9485376605038
 30
0.0
 10
313.9092116350239
 20
237.9525359243047
 30
0.0
 10
313.9107398369896
 20
237.9563169892746
 30
0.0
 10
313.912582836753
 20
237.959674039684
 30
0.0
 10
313.9150837250453
 20
237.9642294434513
 30
0.0
 10
313.9182225136269
 20
237.96814466743
 30
0.0
 10
313.9216170837723
 20
237.9713406610219
 30
0.0
  0
SPLINE
  5
3A3
330
1F
100
AcDbEntity
  8
0
  6
Continuous
 62
     7
370
    35
100
AcDbSpline
210
0.0
220
0.0
230
1.0
 70
     8
 71
     3
 72
    10
 73
     6
 74
     0
 42
0.00000001
 43
0.00000001
 40
0.0
 40
0.0
 40
0.0
 40
0.0
 40
0.5
 40
0.5
 40
1.0
 40
1.0
 40
1.0
 40
1.0
 10
313.9067001398618
 20
237.9359149260981
 30
0.0
 10
313.9100354609589
 20
237.6785967782129
 30
0.0
 10
313.938224416569
 20
237.4273009885548
 30
0.0
 10
314.0395229005252
 20
236.9355942470534
 30
0.0
 10
314.1124925806954
 20
236.6980076368045
 30
0.0
 10
314.2028331675839
 20
236.4741553080344
 30
0.0
  0
ARC
  5
3A4
330
1F
100
AcDbEntity
  8
0
  6
Continuous
 62
     7
370
    35
100
AcDbCircle
 10
358.7146734574
 20
254.4378986265
 30
0.0
 40
47.99999999999943
100
AcDbArc
 50
201.9776354452
 51
204.1744391829
  0
LINE
  5
3A5
330
1F
100
AcDbEntity
  8
0
  6
Continuous
 62
     7
370
    35
100
AcDbLine
 10
314.9241342366
 20
234.781126899
 30
0.0
 11
314.9241342366
 21
218.6282235052
 31
0.0
  0
LINE
  5
3A6
330
1F
100
AcDbEntity
  8
0
  6
Continuous
 62
     7
370
    35
100
AcDbLine
 10
313.9241370801
 20
237.9988028421
 30
0.0
 11
313.9063690797
 21
237.9988028421
 31
0.0
  0
LINE
  5
3A7
330
1F
100
AcDbEntity
  8
0
  6
Continuous
 62
     7
370
    35
100
AcDbLine
 10
313.9241370801
 20
237.9988028421
 30
0.0
 11
313.9369066854
 21
237.9857358471
 31
0.0
  0
SPLINE
  5
3A8
330
1F
100
AcDbEntity
  8
0
  6
Continuous
 62
     7
370
    35
100
AcDbSpline
210
0.0
220
0.0
230
1.0
 70
    24
 71
     3
 72
    10
 73
     6
 74
     0
 42
0.00000001
 43
0.00000001
 40
0.0
 40
0.0
 40
0.0
 40
0.0
 40
0.5
 40
0.5
 40
1.0
 40
1.0
 40
1.0
 40
1.0
 10
366.9241342365524
 20
235.8043876187582
 30
0.0
 10
366.9241342365524
 20
235.5196093086855
 30
0.0
 10
366.9241342365524
 20
235.2357321342892
 30
0.0
 10
366.9241342365524
 20
234.6878364955948
 30
0.0
 10
366.9241342365524
 20
234.421559266271
 30
0.0
 10
366.9241342365524
 20
234.1632771214339
 30
0.0
  0
SPLINE
  5
3A9
330
1F
100
AcDbEntity
  8
0
  6
Continuous
 62
     7
370
    35
100
AcDbSpline
210
0.0
220
0.0
230
1.0
 70
    24
 71
     3
 72
    28
 73
    24
 74
     0
 42
0.00000001
 43
0.00000001
 40
0.0
 40
0.0
 40
0.0
 40
0.0
 40
0.0208215902914081
 40
0.0416549694093914
 40
0.0625224778241894
 40
0.0937693216860817
 40
0.1250398336316511
 40
0.1875364692332533
 40
0.2500315549498794
 40
0.3125253205067973
 40
0.3750180504656819
 40
0.4375100659583384
 40
0.5000017177965379
 40
0.5624933696347414
 40
0.6249853851274006
 40
0.6874781150862829
 40
0.7499718806431986
 40
0.8124669663598275
 40
0.8749636019614326
 40
0.9061903568398448
 40
0.9374809578695404
 40
0.9687444805300661
 40
1.0
 40
1.0
 40
1.0
 40
1.0
 10
314.9241342365525
 20
218.6282235051776
 30
0.0
 10
314.9241342365525
 20
218.5412380050989
 30
0.0
 10
314.9241342365525
 20
218.3672177552463
 30
0.0
 10
314.9241342365525
 20
218.1062989393749
 30
0.0
 10
314.9241342365525
 20
217.8025329797868
 30
0.0
 10
314.9241342365525
 20
217.4566573317281
 30
0.0
 10
314.9241342365525
 20
216.9419305054311
 30
0.0
 10
314.9241342365525
 20
216.3076114907642
 30
0.0
 10
314.9241342365525
 20
215.5689855314079
 30
0.0
 10
314.9241342365525
 20
214.8598639201244
 30
0.0
 10
314.9241342365525
 20
214.1869676613664
 30
0.0
 10
314.9241342365525
 20
213.5569483955834
 30
0.0
 10
314.9241342365525
 20
212.9756582273861
 30
0.0
 10
314.9241342365525
 20
212.4489364684415
 30
0.0
 10
314.9241342365525
 20
211.9815849964143
 30
0.0
 10
314.9241342365525
 20
211.5783934291675
 30
0.0
 10
314.9241342365525
 20
211.2429374461775
 30
0.0
 10
314.9241342365525
 20
210.9787519376671
 30
0.0
 10
314.9241342365525
 20
210.819919460128
 30
0.0
 10
314.9241342365525
 20
210.7305228700841
 30
0.0
 10
314.9241342365525
 20
210.6828656672715
 30
0.0
 10
314.9241342365525
 20
210.6528844177447
 30
0.0
 10
314.9241342365525
 20
210.6492009191811
 30
0.0
 10
314.9241342365525
 20
210.6473594056654
 30
0.0
  0
LINE
  5
3AA
330
1F
100
AcDbEntity
  8
0
  6
Continuous
 62
     7
370
    35
100
AcDbLine
 10
314.9241342366
 20
210.6473594057
 30
0.0
 11
313.9063690797
 21
209.6295942488
 31
0.0
  0
SPLINE
  5
3AB
330
1F
100
AcDbEntity
  8
0
  6
Continuous
 62
     7
370
    35
100
AcDbSpline
210
0.0
220
0.0
230
1.0
 70
    24
 71
     3
 72
    28
 73
    24
 74
     0
 42
0.00000001
 43
0.00000001
 40
0.0
 40
0.0
 40
0.0
 40
0.0
 40
0.0208215902932882
 40
0.0416549694112709
 40
0.0625224778241961
 40
0.093769321687804
 40
0.1250398336316513
 40
0.1875364692332534
 40
0.2500315549498806
 40
0.3125253205067996
 40
0.3750180504656834
 40
0.4375100659583409
 40
0.5000017177965401
 40
0.5624933696347422
 40
0.6249853851274018
 40
0.6874781150862835
 40
0.7499718806432002
 40
0.8124669663598295
 40
0.8749636019614336
 40
0.9061903568369408
 40
0.9374809578695377
 40
0.9687444805277635
 40
1.0
 40
1.0
 40
1.0
 40
1.0
 10
314.9241342365525
 20
298.2284378473882
 30
0.0
 10
314.9241342365525
 20
298.227620350717
 30
0.0
 10
314.9241342365525
 20
298.2259848945221
 30
0.0
 10
314.9241342365525
 20
298.2126728377173
 30
0.0
 10
314.9241342365525
 20
298.1879117653211
 30
0.0
 10
314.9241342365525
 20
298.1452257157625
 30
0.0
 10
314.9241342365525
 20
298.0559658805477
 30
0.0
 10
314.9241342365525
 20
297.8970305062215
 30
0.0
 10
314.9241342365525
 20
297.6328637748494
 30
0.0
 10
314.9241342365525
 20
297.2974027606913
 30
0.0
 10
314.9241342365525
 20
296.8942125415463
 30
0.0
 10
314.9241342365525
 20
296.4268607081585
 30
0.0
 10
314.9241342365525
 20
295.9001390465778
 30
0.0
 10
314.9241342365525
 20
295.3188488502819
 30
0.0
 10
314.9241342365525
 20
294.6888295995298
 30
0.0
 10
314.9241342365525
 20
294.0159333087464
 30
0.0
 10
314.9241342365525
 20
293.3068118105361
 30
0.0
 10
314.9241342365525
 20
292.5681854308998
 30
0.0
 10
314.9241342365525
 20
291.9340453469094
 30
0.0
 10
314.9241342365525
 20
291.4193192412987
 30
0.0
 10
314.9241342365525
 20
291.0303318772985
 30
0.0
 10
314.9241342365525
 20
290.6393553090936
 30
0.0
 10
314.9241342365525
 20
290.3781564560883
 30
0.0
 10
314.9241342365525
 20
290.2475737478759
 30
0.0
  0
LINE
  5
3AC
330
1F
100
AcDbEntity
  8
0
  6
Continuous
 62
     7
370
    35
100
AcDbLine
 10
314.9241342366
 20
298.2284378474
 30
0.0
 11
313.9063690797
 21
299.2462030043
 31
0.0
  0
LINE
  5
3AD
330
1F
100
AcDbEntity
  8
0
  6
Continuous
 62
     7
370
    35
100
AcDbLine
 10
366.9241342366
 20
235.9061832589
 30
0.0
 11
366.9241342366
 21
235.8707748009
 31
0.0
  0
LINE
  5
3AE
330
1F
100
AcDbEntity
  8
0
  6
Continuous
 62
     7
370
    35
100
AcDbLine
 10
366.9241342366
 20
273.0050224522
 30
0.0
 11
366.9241342366
 21
272.9696139941
 31
0.0
  0
LINE
  5
3AF
330
1F
100
AcDbEntity
  8
0
  6
Continuous
 62
     7
370
    35
100
AcDbLine
 10
366.9241342366
 20
235.9061832589
 30
0.0
 11
366.9241342366
 21
247.0525612877
 31
0.0
  0
LINE
  5
3B0
330
1F
100
AcDbEntity
  8
0
  6
Continuous
 62
     7
370
    35
100
AcDbLine
 10
366.9241342366
 20
261.8232359653
 30
0.0
 11
366.9241342366
 21
272.9696139941
 31
0.0
  0
ELLIPSE
  5
3B1
330
1F
100
AcDbEntity
  8
0
  6
Continuous
 62
     7
370
    35
100
AcDbEllipse
 10
313.9414145429
 20
238.0212237962
 30
0.0
 11
0.0
 21
0.06060792073830612
 31
0.0
210
0.0
220
0.0
230
1.0
 40
0.5782323958
 41
1.570796326793959
 42
1.949734725963121
  0
ELLIPSE
  5
3B2
330
1F
100
AcDbEntity
  8
0
  6
Continuous
 62
     7
370
    35
100
AcDbEllipse
 10
313.9414145429
 20
270.8545734568
 30
0.0
 11
0.0
 21
0.06060792073833454
 31
0.0
210
0.0
220
0.0
230
1.0
 40
0.5782323958
 41
1.191857844187104
 42
1.570796326794897
  0
LINE
  5
3B3
330
1F
100
AcDbEntity
  8
0
  6
Continuous
 62
     7
370
    35
100
AcDbLine
 10
313.9063690797
 20
238.0212237962
 30
0.0
 11
313.9063690797
 21
270.8545734568
 31
0.0
  0
LINE
  5
3B4
330
1F
100
AcDbEntity
  8
0
  6
Continuous
 62
     7
370
    35
100
AcDbLine
 10
313.9369066854
 20
237.9857358471
 30
0.0
 11
366.9241342366
 21
235.8554229715
 31
0.0
  0
LINE
  5
3B5
330
1F
100
AcDbEntity
  8
0
  6
Continuous
 62
     7
370
    35
100
AcDbLine
 10
366.9241342366
 20
235.8404137352
 30
0.0
 11
366.9241342366
 21
235.8554229715
 31
0.0
  0
LINE
  5
3B6
330
1F
100
AcDbEntity
  8
0
  6
Continuous
 62
     7
370
    35
100
AcDbLine
 10
313.9369066854
 20
270.890061406
 30
0.0
 11
366.9241342366
 21
273.0203742815
 31
0.0
  0
LINE
  5
3B7
330
1F
100
AcDbEntity
  8
0
  6
Continuous
 62
     7
370
    35
100
AcDbLine
 10
366.9241342366
 20
273.0203742815
 30
0.0
 11
366.9241342366
 21
273.0353835178
 31
0.0
  0
LINE
  5
3B8
330
1F
100
AcDbEntity
  8
0
  6
Continuous
 62
     7
370
    35
100
AcDbLine
 10
366.9241342366
 20
235.8554229715
 30
0.0
 11
366.9241342366
 21
235.8707748009
 31
0.0
  0
LINE
  5
3B9
330
1F
100
AcDbEntity
  8
0
  6
Continuous
 62
     7
370
    35
100
AcDbLine
 10
313.95406238
 20
237.9988028421
 30
0.0
 11
313.9241370801
 21
237.9988028421
 31
0.0
  0
LINE
  5
3BA
330
1F
100
AcDbEntity
  8
0
  6
Continuous
 62
     7
370
    35
100
AcDbLine
 10
366.9241342366
 20
273.0050224522
 30
0.0
 11
366.9241342366
 21
273.0203742815
 31
0.0
  0
LINE
  5
3BB
330
1F
100
AcDbEntity
  8
0
  6
Continuous
 62
     7
370
    35
100
AcDbLine
 10
313.9241370846
 20
270.8769944157
 30
0.0
 11
313.9540623751
 21
270.8769944157
 31
0.0
  0
LINE
  5
3BC
330
1F
100
AcDbEntity
  8
0
  6
Continuous
 62
     7
370
    35
100
AcDbLine
 10
366.9241342366
 20
226.7478943581
 30
0.0
 11
366.9241342366
 21
234.1632771214
 31
0.0
  0
LINE
  5
3BD
330
1F
100
AcDbEntity
  8
0
  6
Continuous
 62
     7
370
    35
100
AcDbLine
 10
366.9241342366
 20
274.7125201316
 30
0.0
 11
366.9241342366
 21
282.127902895
 31
0.0
  0
SPLINE
  5
3BE
330
1F
100
AcDbEntity
  8
0
  6
Continuous
 62
     7
370
    35
100
AcDbSpline
210
0.0
220
0.0
230
1.0
 70
    24
 71
     3
 72
    14
 73
    10
 74
     0
 42
0.00000001
 43
0.00000001
 40
0.0
 40
0.0
 40
0.0
 40
0.0
 40
0.0000196093510308
 40
0.0000196093510308
 40
0.0000196093510308
 40
0.0000363063740058
 40
0.0000363063740058
 40
0.0000363063740058
 40
0.0000395860233713
 40
0.0000395860233713
 40
0.0000395860233713
 40
0.0000395860233713
 10
366.9241342365524
 20
235.8404137352498
 30
0.0
 10
366.9241342365524
 20
235.8357937414064
 30
0.0
 10
366.9241342365524
 20
235.8301451159807
 30
0.0
 10
366.9241342365524
 20
235.8241020804613
 30
0.0
 10
366.9241342365524
 20
235.8189290231182
 30
0.0
 10
366.9241342365524
 20
235.8133168639743
 30
0.0
 10
366.9241342365524
 20
235.8077295888515
 30
0.0
 10
366.9241342365524
 20
235.8066169871169
 30
0.0
 10
366.9241342365524
 20
235.8055017554982
 30
0.0
 10
366.9241342365524
 20
235.8043876187582
 30
0.0
  0
SPLINE
  5
3BF
330
1F
100
AcDbEntity
  8
0
  6
Continuous
 62
     7
370
    35
100
AcDbSpline
210
0.0
220
0.0
230
1.0
 70
    24
 71
     3
 72
    14
 73
    10
 74
     0
 42
0.00000001
 43
0.00000001
 40
0.0
 40
0.0
 40
0.0
 40
0.0
 40
0.0000196141847359
 40
0.0000196141847359
 40
0.0000196141847359
 40
0.0000363318994045
 40
0.0000363318994045
 40
0.0000363318994045
 40
0.0000395873546621
 40
0.0000395873546621
 40
0.0000395873546621
 40
0.0000395873546621
 10
366.9241342365524
 20
273.0714096342949
 30
0.0
 10
366.9241342365524
 20
273.064872103993
 30
0.0
 10
366.9241342365524
 20
273.0581956674804
 30
0.0
 10
366.9241342365524
 20
273.0521281216093
 30
0.0
 10
366.9241342365524
 20
273.0469293023058
 30
0.0
 10
366.9241342365524
 20
273.0420190865397
 30
0.0
 10
366.9241342365524
 20
273.0378053483773
 30
0.0
 10
366.9241342365524
 20
273.0369734193802
 30
0.0
 10
366.9241342365524
 20
273.0361652514561
 30
0.0
 10
366.9241342365524
 20
273.0353835178033
 30
0.0
  0
LINE
  5
3C0
330
1F
100
AcDbEntity
  8
0
  6
Continuous
 62
     7
370
    35
100
AcDbLine
 10
297.9241342366
 20
254.4378986265
 30
0.0
 11
297.9241342366
 21
294.4378986265
 31
0.0
  0
LINE
  5
3C1
330
1F
100
AcDbEntity
  8
0
  6
Continuous
 62
     7
370
    35
100
AcDbLine
 10
297.9241342366
 20
214.4378986265
 30
0.0
 11
297.9241342366
 21
254.4378986265
 31
0.0
  0
LINE
  5
3C2
330
1F
100
AcDbEntity
  8
0
  6
Continuous
 62
     7
370
    35
100
AcDbLine
 10
297.4241342366
 20
254.4378986265
 30
0.0
 11
297.4241342366
 21
293.4378986265
 31
0.0
  0
LINE
  5
3C3
330
1F
100
AcDbEntity
  8
0
  6
Continuous
 62
     7
370
    35
100
AcDbLine
 10
297.4241342366
 20
215.4378986265
 30
0.0
 11
297.4241342366
 21
254.4378986265
 31
0.0
  0
LINE
  5
3C4
330
1F
100
AcDbEntity
  8
0
  6
Continuous
 62
     7
370
    35
100
AcDbLine
 10
366.9241342366
 20
283.3972776282
 30
0.0
 11
366.9241342366
 21
282.127902895
 31
0.0
  0
LINE
  5
3C5
330
1F
100
AcDbEntity
  8
0
  6
Continuous
 62
     7
370
    35
100
AcDbLine
 10
366.9241342366
 20
226.7478943581
 30
0.0
 11
366.9241342366
 21
225.4785196248
 31
0.0
  0
LINE
  5
3C6
330
1F
100
AcDbEntity
  8
0
  6
Continuous
 62
     7
370
    35
100
AcDbLine
 10
292.9241342366
 20
254.4378986265
 30
0.0
 11
292.9241342366
 21
293.4378986265
 31
0.0
  0
LINE
  5
3C7
330
1F
100
AcDbEntity
  8
0
  6
Continuous
 62
     7
370
    35
100
AcDbLine
 10
292.9241342366
 20
215.4378986265
 30
0.0
 11
292.9241342366
 21
254.4378986265
 31
0.0
  0
LINE
  5
3C8
330
1F
100
AcDbEntity
  8
0
  6
Continuous
 62
     7
370
    35
100
AcDbLine
 10
291.9241342366
 20
254.4378986265
 30
0.0
 11
291.9241342366
 21
292.4378986265
 31
0.0
  0
LINE
  5
3C9
330
1F
100
AcDbEntity
  8
0
  6
Continuous
 62
     7
370
    35
100
AcDbLine
 10
291.9241342366
 20
216.4378986265
 30
0.0
 11
291.9241342366
 21
254.4378986265
 31
0.0
  0
LINE
  5
3CA
330
1F
100
AcDbEntity
  8
0
  6
Continuous
 62
     7
370
    35
100
AcDbLine
 10
366.9241342366
 20
290.7525815097
 30
0.0
 11
366.9241342366
 21
288.1285831794
 31
0.0
  0
LINE
  5
3CB
330
1F
100
AcDbEntity
  8
0
  6
Continuous
 62
     7
370
    35
100
AcDbLine
 10
366.9241342366
 20
283.5100119718
 30
0.0
 11
366.9241342366
 21
283.3972776282
 31
0.0
  0
LINE
  5
3CC
330
1F
100
AcDbEntity
  8
0
  6
Continuous
 62
     7
370
    35
100
AcDbLine
 10
366.9241342366
 20
225.4785196248
 30
0.0
 11
366.9241342366
 21
225.3657852813
 31
0.0
  0
LINE
  5
3CD
330
1F
100
AcDbEntity
  8
0
  6
Continuous
 62
     7
370
    35
100
AcDbLine
 10
366.9241342366
 20
220.7472140736
 30
0.0
 11
366.9241342366
 21
218.1232157434
 31
0.0
  0
LINE
  5
3CE
330
1F
100
AcDbEntity
  8
0
  6
Continuous
 62
     7
370
    35
100
AcDbLine
 10
366.9241342366
 20
293.6458527126
 30
0.0
 11
366.9241342366
 21
290.7525815097
 31
0.0
  0
LINE
  5
3CF
330
1F
100
AcDbEntity
  8
0
  6
Continuous
 62
     7
370
    35
100
AcDbLine
 10
366.9241342366
 20
218.1232157434
 30
0.0
 11
366.9241342366
 21
215.2299445405
 31
0.0
  0
LINE
  5
3D0
330
1F
100
AcDbEntity
  8
0
  6
Continuous
 62
     7
370
    35
100
AcDbLine
 10
366.9241342366
 20
293.6458527126
 30
0.0
 11
366.9241342366
 21
297.9458257528
 31
0.0
  0
LINE
  5
3D1
330
1F
100
AcDbEntity
  8
0
  6
Continuous
 62
     7
370
    35
100
AcDbLine
 10
366.9241342366
 20
210.9299715003
 30
0.0
 11
366.9241342366
 21
215.2299445405
 31
0.0
  0
LWPOLYLINE
  5
3D2
330
1F
100
AcDbEntity
  8
0
  6
Continuous
 62
     7
370
    35
100
AcDbPolyline
 90
        7
 70
   128
 43
0.0
 10
313.9067001399
 20
209.629925309
 10
314.0066042927
 20
209.6316652225
 10
314.4062209062
 20
209.6386252744
 10
316.0046873906
 20
209.6664715137
 10
322.3985534099
 20
209.7779336411
 10
323.6734035614
 20
209.8001688688
 10
327.314477594
 20
209.8636884207
  0
LWPOLYLINE
  5
3D3
330
1F
100
AcDbEntity
  8
0
  6
Continuous
 62
     7
370
    35
100
AcDbPolyline
 90
        6
 70
   128
 43
0.0
 10
352.258654618
 20
210.2990906502
 10
352.3585586512
 20
210.3008351862
 10
352.7581747815
 20
210.3078134293
 10
354.35663926
 20
210.3357281053
 10
360.7504967008
 20
210.447422293
 10
366.9241342366
 20
210.55534823
  0
LWPOLYLINE
  5
3D4
330
1F
100
AcDbEntity
  8
0
  6
Continuous
 62
     7
370
    35
100
AcDbPolyline
 90
        6
 70
   128
 43
0.0
 10
327.314477594
 20
209.8636884207
 10
327.4143817335
 20
209.8654315187
 10
327.8139982879
 20
209.872404021
 10
329.4124644459
 20
209.9002956534
 10
335.8063279949
 20
210.0118810525
 10
352.258654618
 20
210.2990906502
  0
SPLINE
  5
3D5
330
1F
100
AcDbEntity
  8
0
  6
Continuous
 62
     7
370
    35
100
AcDbSpline
210
0.0
220
0.0
230
1.0
 70
    24
 71
     3
 72
     8
 73
     4
 74
     0
 42
0.00000001
 43
0.00000001
 40
0.0
 40
0.0
 40
0.0
 40
0.0
 40
1.0
 40
1.0
 40
1.0
 40
1.0
 10
366.9241342365524
 20
210.9299715002522
 30
0.0
 10
366.9241342365524
 20
210.6904913672916
 30
0.0
 10
366.9241342365524
 20
210.5625688052858
 30
0.0
 10
366.9241342365524
 20
210.5553482300029
 30
0.0
  0
LWPOLYLINE
  5
3D6
330
1F
100
AcDbEntity
  8
0
  6
Continuous
 62
     7
370
    35
100
AcDbPolyline
 90
        6
 70
   128
 43
0.0
 10
327.3144773491
 20
299.0121088366
 10
327.2145732093
 20
299.0138519234
 10
326.8149566465
 20
299.0208241552
 10
325.216490343
 20
299.0487110813
 10
318.8226245284
 20
299.1602149225
 10
313.9067001399
 20
299.2458719441
  0
LWPOLYLINE
  5
3D7
330
1F
100
AcDbEntity
  8
0
  6
Continuous
 62
     7
370
    35
100
AcDbPolyline
 90
        6
 70
   128
 43
0.0
 10
352.258654618
 20
298.5767066028
 10
352.1587505844
 20
298.578451129
 10
351.7591344472
 20
298.5854291384
 10
350.1606698483
 20
298.6133397521
 10
343.7668105031
 20
298.7249649965
 10
327.3144773491
 20
299.0121088366
  0
LWPOLYLINE
  5
3D8
330
1F
100
AcDbEntity
  8
0
  6
Continuous
 62
     7
370
    35
100
AcDbPolyline
 90
        6
 70
   128
 43
0.0
 10
366.9241342366
 20
298.3204490231
 10
366.8242302116
 20
298.3221963297
 10
366.4246141141
 20
298.3291852579
 10
364.8261497526
 20
298.3571363899
 10
358.432292481
 20
298.4688793021
 10
352.258654618
 20
298.5767066028
  0
SPLINE
  5
3D9
330
1F
100
AcDbEntity
  8
0
  6
Continuous
 62
     7
370
    35
100
AcDbSpline
210
0.0
220
0.0
230
1.0
 70
    24
 71
     3
 72
     8
 73
     4
 74
     0
 42
0.00000001
 43
0.00000001
 40
0.0
 40
0.0
 40
0.0
 40
0.0
 40
1.0
 40
1.0
 40
1.0
 40
1.0
 10
366.9241342365524
 20
298.3204490230506
 30
0.0
 10
366.9241342365524
 20
298.3132233193953
 30
0.0
 10
366.9241342365524
 20
298.1852977977491
 30
0.0
 10
366.9241342365524
 20
297.9458257528015
 30
0.0
  0
LINE
  5
3DA
330
1F
100
AcDbEntity
  8
0
  6
Continuous
 62
     7
370
    35
100
AcDbLine
 10
366.9241342366
 20
210.5550227819
 30
0.0
 11
313.9573326264
 21
209.6304838208
 31
0.0
  0
LINE
  5
3DB
330
1F
100
AcDbEntity
  8
0
  6
Continuous
 62
     7
370
    35
100
AcDbLine
 10
313.9573326264
 20
299.2453134323
 30
0.0
 11
366.9241342366
 21
298.3207744711
 31
0.0
  0
LINE
  5
3DC
330
1F
100
AcDbEntity
  8
0
  6
Continuous
 62
     7
370
    35
100
AcDbLine
 10
313.9573326264
 20
209.6304838208
 30
0.0
 11
313.9556949708
 21
209.6304820587
 31
0.0
  0
LINE
  5
3DD
330
1F
100
AcDbEntity
  8
0
  6
Continuous
 62
     7
370
    35
100
AcDbLine
 10
313.9573326264
 20
299.2453134323
 30
0.0
 11
313.9556949708
 21
299.2453151944
 31
0.0
  0
LINE
  5
3DE
330
1F
100
AcDbEntity
  8
0
  6
HIDDEN
 62
     7
370
    18
100
AcDbLine
 10
398.4241342366
 20
253.9378986265
 30
0.0
 11
398.4241342366
 21
247.4378986265
 31
0.0
  0
LINE
  5
3DF
330
1F
100
AcDbEntity
  8
0
  6
HIDDEN
 62
     7
370
    18
100
AcDbLine
 10
398.4241342366
 20
254.9378986265
 30
0.0
 11
398.4241342366
 21
261.4378986265
 31
0.0
  0
LINE
  5
3E0
330
1F
100
AcDbEntity
  8
0
  6
HIDDEN
 62
     7
370
    18
100
AcDbLine
 10
364.7241342366
 20
247.4378986265
 30
0.0
 11
364.7241342366
 21
261.4378986265
 31
0.0
  0
LINE
  5
3E1
330
1F
100
AcDbEntity
  8
0
  6
HIDDEN
 62
     7
370
    18
100
AcDbLine
 10
387.9241342366
 20
254.9378986265
 30
0.0
 11
387.1355961492
 21
254.9378986265
 31
0.0
  0
LINE
  5
3E2
330
1F
100
AcDbEntity
  8
0
  6
HIDDEN
 62
     7
370
    18
100
AcDbLine
 10
387.9241342366
 20
254.9378986265
 30
0.0
 11
387.9241342366
 21
261.4374925052
 31
0.0
  0
LINE
  5
3E3
330
1F
100
AcDbEntity
  8
0
  6
HIDDEN
 62
     7
370
    18
100
AcDbLine
 10
387.9241342366
 20
253.9378986265
 30
0.0
 11
387.1355961492
 21
253.9378986265
 31
0.0
  0
LINE
  5
3E4
330
1F
100
AcDbEntity
  8
0
  6
HIDDEN
 62
     7
370
    18
100
AcDbLine
 10
387.9241342366
 20
253.9378986265
 30
0.0
 11
387.9241342366
 21
247.4383047478
 31
0.0
  0
LINE
  5
3E5
330
1F
100
AcDbEntity
  8
0
  6
HIDDEN
 62
     7
370
    18
100
AcDbLine
 10
393.9665786639
 20
254.9378986265
 30
0.0
 11
398.4241342366
 21
254.9378986265
 31
0.0
  0
SPLINE
  5
3E6
330
1F
100
AcDbEntity
  8
0
  6
HIDDEN
 62
     7
370
    18
100
AcDbSpline
210
0.0
220
0.0
230
1.0
 70
     8
 71
     3
 72
     9
 73
     5
 74
     0
 42
0.00000001
 43
0.00000001
 40
0.0
 40
0.0
 40
0.0
 40
0.0
 40
0.4980947170148086
 40
1.0
 40
1.0
 40
1.0
 40
1.0
 10
393.9665786638645
 20
253.9378986265268
 30
0.0
 10
393.9728277985965
 20
254.1039283869972
 30
0.0
 10
393.9853738757149
 20
254.4372580827333
 30
0.0
 10
393.9728596299343
 20
254.7705950444347
 30
0.0
 10
393.9665786638645
 20
254.9378986265268
 30
0.0
  0
LINE
  5
3E7
330
1F
100
AcDbEntity
  8
0
  6
HIDDEN
 62
     7
370
    18
100
AcDbLine
 10
393.9665786639
 20
253.9378986265
 30
0.0
 11
398.4241342366
 21
253.9378986265
 31
0.0
  0
LINE
  5
3E8
330
1F
100
AcDbEntity
  8
0
  6
HIDDEN
 62
     7
370
    18
100
AcDbLine
 10
388.9241342366
 20
253.9378986265
 30
0.0
 11
388.9241342366
 21
247.4383047478
 31
0.0
  0
LINE
  5
3E9
330
1F
100
AcDbEntity
  8
0
  6
HIDDEN
 62
     7
370
    18
100
AcDbLine
 10
398.4241342366
 20
254.9378986265
 30
0.0
 11
388.9241342366
 21
254.9378986265
 31
0.0
  0
LINE
  5
3EA
330
1F
100
AcDbEntity
  8
0
  6
HIDDEN
 62
     7
370
    18
100
AcDbLine
 10
398.4241342366
 20
253.9378986265
 30
0.0
 11
388.9241342366
 21
253.9378986265
 31
0.0
  0
LINE
  5
3EB
330
1F
100
AcDbEntity
  8
0
  6
HIDDEN
 62
     7
370
    18
100
AcDbLine
 10
388.9241342366
 20
254.9378986265
 30
0.0
 11
388.9241342366
 21
261.4374925052
 31
0.0
  0
LINE
  5
3EC
330
1F
100
AcDbEntity
  8
0
  6
HIDDEN
 62
     7
370
    18
100
AcDbLine
 10
364.7241342366
 20
250.1897650714
 30
0.0
 11
364.7241342366
 21
258.6860321817
 31
0.0
  0
LINE
  5
3ED
330
1F
100
AcDbEntity
  8
0
  6
HIDDEN
 62
     7
370
    18
100
AcDbLine
 10
387.9241342366
 20
261.4378986265
 30
0.0
 11
364.7241342366
 21
261.4378986265
 31
0.0
  0
LINE
  5
3EE
330
1F
100
AcDbEntity
  8
0
  6
HIDDEN
 62
     7
370
    18
100
AcDbLine
 10
364.7241342366
 20
247.4378986265
 30
0.0
 11
387.9241342366
 21
247.4378986265
 31
0.0
  0
LINE
  5
3EF
330
1F
100
AcDbEntity
  8
0
  6
HIDDEN
 62
     7
370
    18
100
AcDbLine
 10
398.4241342366
 20
261.4378986265
 30
0.0
 11
388.9241342366
 21
261.4378986265
 31
0.0
  0
LINE
  5
3F0
330
1F
100
AcDbEntity
  8
0
  6
HIDDEN
 62
     7
370
    18
100
AcDbLine
 10
388.9241342366
 20
247.4378986265
 30
0.0
 11
398.4241342366
 21
247.4378986265
 31
0.0
  0
HATCH
  5
3F1
330
1F
100
AcDbEntity
  8
0
  6
Continuous
 62
     7
370
    18
100
AcDbHatch
 10
0.0
 20
0.0
 30
0.0
210
0.0
220
0.0
230
1.0
  2
ANSI31
 70
     0
 71
     0
 91
        1
 92
        0
 93
        2
 72
     4
 94
        3
 73
     1
 74
     0
 95
        8
 96
        4
 40
0.0
 40
0.0
 40
0.0
 40
0.0
 40
0.0021317376693172
 40
0.0021317376693172
 40
0.0021317376693172
 40
0.0021317376693172
 10
377.5564871777289
 20
269.0861772469001
 42
1.0
 10
377.6851761822181
 20
269.5506494918853
 42
1.0
 10
377.8085899453851
 20
269.9884759075964
 42
1.0
 10
377.9241342365543
 20
270.3957737152237
 42
1.0
 72
     4
 94
        3
 73
     1
 74
     0
 95
        8
 96
        4
 40
0.0
 40
0.0
 40
0.0
 40
0.0
 40
0.0016821782638447
 40
0.0016821782638447
 40
0.0016821782638447
 40
0.0016821782638447
 10
377.9241342365524
 20
270.395773715217
 42
1.0
 10
377.8033018360817
 20
269.9698351309385
 42
1.0
 10
377.6802634169431
 20
269.532918038251
 42
1.0
 10
377.556487177729
 20
269.0861772469003
 42
1.0
 97
        0
 75
     0
 76
     1
 52
0.0
 41
1.5
 77
     0
 78
     1
 53
45.0
 43
0.0
 44
0.0
 45
-3.367596045400933
 46
3.367596045400933
 79
     0
 98
        1
 10
0.0
 20
0.0
  0
HATCH
  5
3F2
330
1F
100
AcDbEntity
  8
0
  6
Continuous
 62
     7
370
    18
100
AcDbHatch
 10
0.0
 20
0.0
 30
0.0
210
0.0
220
0.0
230
1.0
  2
ANSI31
 70
     0
 71
     0
 91
        1
 92
        0
 93
        2
 72
     4
 94
        3
 73
     1
 74
     0
 95
        8
 96
        4
 40
0.0
 40
0.0
 40
0.0
 40
0.0
 40
0.0015473705518545
 40
0.0015473705518545
 40
0.0015473705518545
 40
0.0015473705518545
 10
377.5564871777289
 20
244.414573001681
 42
1.0
 10
377.6795234027064
 20
243.9543405162539
 42
1.0
 10
377.8025379495702
 20
243.4997519920847
 42
1.0
 10
377.9241342365524
 20
243.0517081375092
 42
1.0
 72
     4
 94
        3
 73
     1
 74
     0
 95
        8
 96
        4
 40
0.0000000000000009
 40
0.0000000000000009
 40
0.0000000000000009
 40
0.0000000000000009
 40
0.0016683741340838
 40
0.0016683741340838
 40
0.0016683741340838
 40
0.0016683741340838
 10
377.9241342365526
 20
243.0517081375085
 42
1.0
 10
377.8041613679872
 20
243.4937702087322
 42
1.0
 10
377.6810151891633
 20
243.9487603012486
 42
1.0
 10
377.5564871777289
 20
244.4145730016809
 42
1.0
 97
        0
 75
     0
 76
     1
 52
0.0
 41
1.5
 77
     0
 78
     1
 53
45.0
 43
0.0
 44
0.0
 45
-3.367596045400933
 46
3.367596045400933
 79
     0
 98
        1
 10
0.0
 20
0.0
  0
HATCH
  5
3F3
330
1F
100
AcDbEntity
  8
0
  6
Continuous
 62
     7
370
    18
100
AcDbHatch
 10
0.0
 20
0.0
 30
0.0
210
0.0
220
0.0
230
1.0
  2
ANSI31
 70
     0
 71
     0
 91
        1
 92
        0
 93
        1
 72
     4
 94
        3
 73
     1
 74
     0
 95
       68
 96
       64
 40
0.0
 40
0.0
 40
0.0
 40
0.0
 40
0.0001007370575031
 40
0.0001007370575031
 40
0.0001007370575031
 40
0.0002029727241666
 40
0.0002029727241666
 40
0.0002029727241666
 40
0.0002900999099246
 40
0.0002900999099246
 40
0.0002900999099246
 40
0.000421641159996
 40
0.000421641159996
 40
0.000421641159996
 40
0.0006633956972958
 40
0.0006633956972958
 40
0.0006633956972958
 40
0.0013665093918307
 40
0.0013665093918307
 40
0.0013665093918307
 40
0.0028889518155606
 40
0.0028889518155606
 40
0.0028889518155606
 40
0.0046611205675576
 40
0.0046611205675576
 40
0.0046611205675576
 40
0.0057021452413778
 40
0.0057021452413778
 40
0.0057021452413778
 40
0.0062216451470326
 40
0.0062216451470326
 40
0.0062216451470326
 40
0.0064820161057797
 40
0.0064820161057797
 40
0.0064820161057797
 40
0.0065884995556657
 40
0.0065884995556657
 40
0.0065884995556657
 40
0.0066966644920888
 40
0.0066966644920888
 40
0.0066966644920888
 40
0.0067928122177231
 40
0.0067928122177231
 40
0.0067928122177231
 40
0.0069119574281458
 40
0.0069119574281458
 40
0.0069119574281458
 40
0.0071180866592004
 40
0.0071180866592004
 40
0.0071180866592004
 40
0.0077550256831901
 40
0.0077550256831901
 40
0.0077550256831901
 40
0.0105403516281907
 40
0.0105403516281907
 40
0.0105403516281907
 40
0.0114930603994193
 40
0.0114930603994193
 40
0.0114930603994193
 40
0.0124580914483463
 40
0.0124580914483463
 40
0.0124580914483463
 40
0.0126857295407272
 40
0.0126857295407272
 40
0.0126857295407272
 40
0.0126857295407272
 10
375.5930131158174
 20
259.550688308924
 42
1.0
 10
375.5953700788908
 20
259.5754608334464
 42
1.0
 10
375.597526041083
 20
259.5978009329368
 42
1.0
 10
375.5991745094676
 20
259.6147675777783
 42
1.0
 10
375.6008376451804
 20
259.6318851841736
 42
1.0
 10
375.6019986115249
 20
259.6437027622357
 42
1.0
 10
375.602457577266
 20
259.6483759755052
 42
1.0
 10
375.6028515243887
 20
259.6523871657886
 42
1.0
 10
375.6027554251629
 20
259.651411007807
 42
1.0
 10
375.6022761898557
 20
259.6465285358602
 42
1.0
 10
375.6015553288624
 20
259.6391843700098
 42
1.0
 10
375.599981708822
 20
259.6231304581224
 42
1.0
 10
375.5980224156983
 20
259.6028870137104
 42
1.0
 10
375.5944332617869
 20
259.5658038244673
 42
1.0
 10
375.5895150605706
 20
259.5142192205117
 42
1.0
 10
375.5843772274133
 20
259.4585106398972
 42
1.0
 10
375.5695680030838
 20
259.2979369423614
 42
1.0
 10
375.5525305857002
 20
259.09802124396
 42
1.0
 10
375.537492955506
 20
258.8945439528077
 42
1.0
 10
375.5050682965142
 20
258.4557991710178
 42
1.0
 10
375.4794424400056
 20
257.9716371427739
 42
1.0
 10
375.4674813586929
 20
257.4840852928054
 42
1.0
 10
375.4535727058934
 20
256.9171474695666
 42
1.0
 10
375.4582253161896
 20
256.3281350301149
 42
1.0
 10
375.4813606003927
 20
255.7510364289538
 42
1.0
 10
375.4950133199332
 20
255.4104758687428
 42
1.0
 10
375.5151471274143
 20
255.0682907213878
 42
1.0
 10
375.5393367047718
 20
254.7439765991921
 42
1.0
 10
375.5514382812904
 20
254.5817285322741
 42
1.0
 10
375.5648109730712
 20
254.4209122781377
 42
1.0
 10
375.5775793384381
 20
254.2783980927387
 42
1.0
 10
375.5839884326707
 20
254.2068629496366
 42
1.0
 10
375.5904049695427
 20
254.1382238878857
 42
1.0
 10
375.5953842753192
 20
254.0861478114809
 42
1.0
 10
375.5974430443451
 20
254.0646161727547
 42
1.0
 10
375.5992613795583
 20
254.0458337360945
 42
1.0
 10
375.6005648201128
 20
254.0324349289882
 42
1.0
 10
375.601880146472
 20
254.0189139409332
 42
1.0
 10
375.6026730354578
 20
254.0108374298083
 42
1.0
 10
375.6027046219572
 20
254.0105149779839
 42
1.0
 10
375.6027327900117
 20
254.010227423466
 42
1.0
 10
375.6021579561289
 20
254.0160824513181
 42
1.0
 10
375.6011147492402
 20
254.0267869619398
 42
1.0
 10
375.5998221057101
 20
254.0400509813295
 42
1.0
 10
375.5978072490792
 20
254.0608157557118
 42
1.0
 10
375.5954866031347
 20
254.0850778018244
 42
1.0
 10
375.5914829879157
 20
254.1269350688896
 42
1.0
 10
375.5865102183584
 20
254.1798813662071
 42
1.0
 10
375.5814592372808
 20
254.2354178517694
 42
1.0
 10
375.5659813958455
 20
254.4055996252141
 42
1.0
 10
375.5493834738827
 20
254.6048953303798
 42
1.0
 10
375.5350040194243
 20
254.802830276817
 42
1.0
 10
375.4725322338783
 20
255.662762033032
 42
1.0
 10
375.4451941935442
 20
256.5834897894193
 42
1.0
 10
375.4676244207922
 20
257.4898914539475
 42
1.0
 10
375.4753375821495
 20
257.8015789912936
 42
1.0
 10
375.4884605083595
 20
258.1143889581991
 42
1.0
 10
375.5065678075557
 20
258.4262128845717
 42
1.0
 10
375.5247967489142
 20
258.7401315980404
 42
1.0
 10
375.5492756143601
 20
259.0658731420671
 42
1.0
 10
375.5751470468946
 20
259.3566372216116
 42
1.0
 10
375.5813459650964
 20
259.4263056770666
 42
1.0
 10
375.5877225567694
 20
259.4950826419415
 42
1.0
 10
375.5930131158174
 20
259.550688308924
 42
1.0
 97
        0
 75
     0
 76
     1
 52
0.0
 41
1.5
 77
     0
 78
     1
 53
45.0
 43
0.0
 44
0.0
 45
-3.367596045400933
 46
3.367596045400933
 79
     0
 98
        1
 10
0.0
 20
0.0
  0
HATCH
  5
3F4
330
1F
100
AcDbEntity
  8
0
  6
Continuous
 62
     7
370
    18
100
AcDbHatch
 10
0.0
 20
0.0
 30
0.0
210
0.0
220
0.0
230
1.0
  2
ANSI31
 70
     0
 71
     0
 91
        1
 92
        0
 93
        6
 72
     4
 94
        3
 73
     1
 74
     0
 95
       17
 96
       13
 40
0.0
 40
0.0
 40
0.0
 40
0.0
 40
0.0048034595305915
 40
0.0048034595305915
 40
0.0048034595305915
 40
0.0105640783586219
 40
0.0105640783586219
 40
0.0105640783586219
 40
0.0171867779945282
 40
0.0171867779945282
 40
0.0171867779945282
 40
0.023742285769599
 40
0.023742285769599
 40
0.023742285769599
 40
0.023742285769599
 10
377.1888401189054
 20
267.7333247910473
 42
1.0
 10
376.8730434524539
 20
266.5446457415718
 42
1.0
 10
376.543759796202
 20
265.230216937246
 42
1.0
 10
376.2555339448729
 20
263.832983880273
 42
1.0
 10
375.9113529395074
 20
262.1644969070844
 42
1.0
 10
375.620660023188
 20
260.3414046368559
 42
1.0
 10
375.5091724518192
 20
258.470487117463
 42
1.0
 10
375.3819123295619
 20
256.3348841141138
 42
1.0
 10
375.5341037841919
 20
254.078080793216
 42
1.0
 10
375.8679375353703
 20
251.9376008593006
 42
1.0
 10
376.1998818795465
 20
249.8092354517352
 42
1.0
 10
376.6946756256786
 20
247.7255167312671
 42
1.0
 10
377.1888401189054
 20
245.8114927431207
 42
1.0
 72
     4
 94
        3
 73
     1
 74
     0
 95
        8
 96
        4
 40
0.0
 40
0.0
 40
0.0
 40
0.0
 40
0.0032961488520031
 40
0.0032961488520031
 40
0.0032961488520031
 40
0.0032961488520031
 10
377.1888401189054
 20
245.8114927431207
 42
1.0
 10
377.4369903218633
 20
244.8503442841867
 42
1.0
 10
377.6871080054966
 20
243.9250748235597
 42
1.0
 10
377.9241342365526
 20
243.0517081375085
 42
1.0
 72
     4
 94
        3
 73
     1
 74
     0
 95
       29
 96
       25
 40
0.0
 40
0.0
 40
0.0
 40
0.0
 40
0.0000518243996671
 40
0.0000518243996671
 40
0.0000518243996671
 40
0.0001045547497929
 40
0.0001045547497929
 40
0.0001045547497929
 40
0.0001509407934433
 40
0.0001509407934433
 40
0.0001509407934433
 40
0.0002062346685961
 40
0.0002062346685961
 40
0.0002062346685961
 40
0.0003032517996016
 40
0.0003032517996016
 40
0.0003032517996016
 40
0.000618027963652
 40
0.000618027963652
 40
0.000618027963652
 40
0.002088533936092
 40
0.002088533936092
 40
0.002088533936092
 40
0.0026893341828393
 40
0.0026893341828393
 40
0.0026893341828393
 40
0.0026893341828393
 10
377.9241342365524
 20
243.0517081375092
 42
1.0
 10
377.9241342365524
 20
243.0517081375092
 42
1.0
 10
377.9236830790191
 20
243.0533704758659
 42
1.0
 10
377.922542477434
 20
243.0575733453642
 42
1.0
 10
377.9213904917149
 20
243.0618181629273
 42
1.0
 10
377.9194571186042
 20
243.0689422826304
 42
1.0
 10
377.9167292307204
 20
243.0789949763804
 42
1.0
 10
377.9143226537639
 20
243.0878635890804
 42
1.0
 10
377.9112350057284
 20
243.0992426568752
 42
1.0
 10
377.9078301636247
 20
243.1117920835334
 42
1.0
 10
377.9037666781888
 20
243.1267691106324
 42
1.0
 10
377.8991624048834
 20
243.14374120369
 42
1.0
 10
377.8944969608726
 20
243.160941440483
 42
1.0
 10
377.8863337622732
 20
243.1910369573455
 42
1.0
 10
377.8777426602333
 20
243.2227180268752
 42
1.0
 10
377.8693414769367
 20
243.2537082618585
 42
1.0
 10
377.8423044020016
 20
243.3534424630909
 42
1.0
 10
377.8157883349198
 20
243.4513533919131
 42
1.0
 10
377.790248194005
 20
243.5457817971654
 42
1.0
 10
377.6712416829708
 20
243.9857791757647
 42
1.0
 10
377.5620497611823
 20
244.3921223471467
 42
1.0
 10
377.4546057423572
 20
244.7970579047625
 42
1.0
 10
377.4106382715108
 20
244.9627627296456
 42
1.0
 10
377.3671597773227
 20
245.1275128023289
 42
1.0
 10
377.3241342365525
 20
245.2916161131515
 42
1.0
 72
     4
 94
        3
 73
     1
 74
     0
 95
       20
 96
       16
 40
0.0
 40
0.0
 40
0.0
 40
0.0
 40
0.005903526387404
 40
0.005903526387404
 40
0.005903526387404
 40
0.0118463833038536
 40
0.0118463833038536
 40
0.0118463833038536
 40
0.0171726521509041
 40
0.0171726521509041
 40
0.0171726521509041
 40
0.0224207795234867
 40
0.0224207795234867
 40
0.0224207795234867
 40
0.0256976176687769
 40
0.0256976176687769
 40
0.0256976176687769
 40
0.0256976176687769
 10
377.3241342365525
 20
245.2916161131515
 42
1.0
 10
376.8948626187883
 20
246.9288969574188
 42
1.0
 10
376.4415631908785
 20
248.7535980385884
 42
1.0
 10
376.0897583112483
 20
250.643683134197
 42
1.0
 10
375.7366866357755
 20
252.540574138649
 42
1.0
 10
375.4838991355562
 20
254.5671727447698
 42
1.0
 10
375.461183927352
 20
256.5278369451216
 42
1.0
 10
375.4407544660345
 20
258.2912068018969
 42
1.0
 10
375.6084082808524
 20
260.0436141226034
 42
1.0
 10
375.8576346429814
 20
261.6461266086512
 42
1.0
 10
376.103813093569
 20
263.2290411827454
 42
1.0
 10
376.4306121678929
 20
264.7093798909547
 42
1.0
 10
376.7469244354917
 20
266.0044256548487
 42
1.0
 10
376.9457326910624
 20
266.8183864637622
 42
1.0
 10
377.1432133433493
 20
267.5690015467123
 42
1.0
 10
377.3241342365525
 20
268.2379218274542
 42
1.0
 72
     4
 94
        3
 73
     1
 74
     0
 95
       32
 96
       28
 40
0.0000000000000002
 40
0.0000000000000002
 40
0.0000000000000002
 40
0.0000000000000002
 40
0.0012000179275146
 40
0.0012000179275146
 40
0.0012000179275146
 40
0.0031369111479192
 40
0.0031369111479192
 40
0.0031369111479192
 40
0.0031968031991272
 40
0.0031968031991272
 40
0.0031968031991272
 40
0.0032383872251098
 40
0.0032383872251098
 40
0.0032383872251098
 40
0.0032661487846343
 40
0.0032661487846343
 40
0.0032661487846343
 40
0.0032942355181667
 40
0.0032942355181667
 40
0.0032942355181667
 40
0.003318846032578
 40
0.003318846032578
 40
0.003318846032578
 40
0.0033618354982435
 40
0.0033618354982435
 40
0.0033618354982435
 40
0.0034829315700329
 40
0.0034829315700329
 40
0.0034829315700329
 40
0.0034829315700329
 10
377.3241342365525
 20
268.237921827454
 42
1.0
 10
377.3897622564057
 20
268.4805688356988
 42
1.0
 10
377.4555275126921
 20
268.7208485031699
 42
1.0
 10
377.5217581742818
 20
268.9606375992088
 42
1.0
 10
377.6285058826316
 20
269.3471192660838
 42
1.0
 10
377.7150765073511
 20
269.6571877980969
 42
1.0
 10
377.8673104495998
 20
270.1952135715181
 42
1.0
 10
377.8722588797798
 20
270.2127023321418
 42
1.0
 10
377.8774319224417
 20
270.2309785876163
 42
1.0
 10
377.8828513155904
 20
270.2501175296048
 42
1.0
 10
377.8866078064036
 20
270.2633838230403
 42
1.0
 10
377.8905489519456
 20
270.2772986040808
 42
1.0
 10
377.8945060986737
 20
270.2912659549979
 42
1.0
 10
377.8971516554685
 20
270.3006038498655
 42
1.0
 10
377.8998531882151
 20
270.310137532475
 42
1.0
 10
377.9023983941962
 20
270.3191180059671
 42
1.0
 10
377.9049621397
 20
270.3281638940833
 42
1.0
 10
377.9074260141351
 20
270.3368557484326
 42
1.0
 10
377.9095317790414
 20
270.3442833429419
 42
1.0
 10
377.9113901322609
 20
270.3508382504377
 42
1.0
 10
377.9130222791382
 20
270.3565944685261
 42
1.0
 10
377.9144011478302
 20
270.3614570674088
 42
1.0
 10
377.9167969916801
 20
270.3699060427867
 42
1.0
 10
377.9185188969326
 20
270.3759771918325
 42
1.0
 10
377.919806479374
 20
270.38051680618
 42
1.0
 10
377.9233989554858
 20
270.3931827571707
 42
1.0
 10
377.9241342365529
 20
270.3957737152179
 42
1.0
 10
377.9241342365529
 20
270.3957737152178
 42
1.0
 72
     4
 94
        3
 73
     1
 74
     0
 95
        8
 96
        4
 40
0.0
 40
0.0
 40
0.0
 40
0.0
 40
0.004091988361613
 40
0.004091988361613
 40
0.004091988361613
 40
0.004091988361613
 10
377.9241342365524
 20
270.395773715217
 42
1.0
 10
377.7023405789565
 20
269.6139430460394
 42
1.0
 10
377.4502192945711
 20
268.7171728904408
 42
1.0
 10
377.1888401189054
 20
267.7333247910473
 42
1.0
 97
        0
 75
     0
 76
     1
 52
0.0
 41
1.5
 77
     0
 78
     1
 53
45.0
 43
0.0
 44
0.0
 45
-3.367596045400933
 46
3.367596045400933
 79
     0
 98
        1
 10
0.0
 20
0.0
  0
HATCH
  5
3F5
330
1F
100
AcDbEntity
  8
0
  6
Continuous
 62
     7
370
    18
100
AcDbHatch
 10
0.0
 20
0.0
 30
0.0
210
0.0
220
0.0
230
1.0
  2
ANSI31
 70
     0
 71
     0
 91
        1
 92
        0
 93
        6
 72
     4
 94
        3
 73
     1
 74
     0
 95
        8
 96
        4
 40
0.0
 40
0.0
 40
0.0
 40
0.0
 40
0.0033421766995801
 40
0.0033421766995801
 40
0.0033421766995801
 40
0.0033421766995801
 10
377.1888401189037
 20
267.7333247910411
 42
1.0
 10
377.4347852504283
 20
268.6590781514198
 42
1.0
 10
377.6840626329136
 20
269.5495126248055
 42
1.0
 10
377.9241342365524
 20
270.3957737152171
 42
1.0
 72
     4
 94
        3
 73
     1
 74
     0
 95
       17
 96
       13
 40
0.0
 40
0.0
 40
0.0
 40
0.0
 40
0.0001643227836939
 40
0.0001643227836939
 40
0.0001643227836939
 40
0.0006267552052861
 40
0.0006267552052861
 40
0.0006267552052861
 40
0.0023185924024726
 40
0.0023185924024726
 40
0.0023185924024726
 40
0.0031794283475826
 40
0.0031794283475826
 40
0.0031794283475826
 40
0.0031794283475826
 10
377.9241342365524
 20
270.395773715217
 42
1.0
 10
377.9241342365524
 20
270.395773715217
 42
1.0
 10
377.9197063903437
 20
270.3801662194925
 42
1.0
 10
377.9142281714844
 20
270.3608470617124
 42
1.0
 10
377.8988722293758
 20
270.306693718065
 42
1.0
 10
377.8741861574547
 20
270.2195683267922
 42
1.0
 10
377.8484556550791
 20
270.128545677467
 42
1.0
 10
377.7550959434788
 20
269.7982820795745
 42
1.0
 10
377.6362757732277
 20
269.3755138896613
 42
1.0
 10
377.5150790282505
 20
268.936448195253
 42
1.0
 10
377.4530237054826
 20
268.7116371791821
 42
1.0
 10
377.3891111095511
 20
268.4781613451706
 42
1.0
 10
377.3241342365525
 20
268.237921827454
 42
1.0
 72
     4
 94
        3
 73
     1
 74
     0
 95
       14
 96
       10
 40
0.0
 40
0.0
 40
0.0
 40
0.0
 40
0.0081234292219642
 40
0.0081234292219642
 40
0.0081234292219642
 40
0.0161556128467362
 40
0.0161556128467362
 40
0.0161556128467362
 40
0.0240620781569249
 40
0.0240620781569249
 40
0.0240620781569249
 40
0.0240620781569249
 10
377.3241342365525
 20
268.237921827454
 42
1.0
 10
376.7073063234236
 20
265.9573189987025
 42
1.0
 10
376.089895780551
 20
263.4510531945796
 42
1.0
 10
375.7409133497299
 20
260.8395965874793
 42
1.0
 10
375.3980120038037
 20
258.2736451059235
 42
1.0
 10
375.3867071224782
 20
255.5235716965708
 42
1.0
 10
375.7312475683869
 20
252.8895337922494
 42
1.0
 10
376.0727230993505
 20
250.2789273957077
 42
1.0
 10
376.6911824425234
 20
247.7057516041161
 42
1.0
 10
377.3241342365525
 20
245.2916161131515
 42
1.0
 72
     4
 94
        3
 73
     1
 74
     0
 95
       20
 96
       16
 40
0.0
 40
0.0
 40
0.0
 40
0.0
 40
0.0012038398169604
 40
0.0012038398169604
 40
0.0012038398169604
 40
0.0024176691761175
 40
0.0024176691761175
 40
0.0024176691761175
 40
0.0026230898632548
 40
0.0026230898632548
 40
0.0026230898632548
 40
0.0027841398841928
 40
0.0027841398841928
 40
0.0027841398841928
 40
0.00286997969909
 40
0.00286997969909
 40
0.00286997969909
 40
0.00286997969909
 10
377.3241342365525
 20
245.2916161131515
 42
1.0
 10
377.4204538949878
 20
244.9242442088455
 42
1.0
 10
377.5159838091527
 20
244.5652995808957
 42
1.0
 10
377.6075560609488
 20
244.223853961366
 42
1.0
 10
377.6995242945619
 20
243.8809318437247
 42
1.0
 10
377.7913631539833
 20
243.5413851689393
 42
1.0
 10
377.8647525850196
 20
243.2706366731269
 42
1.0
 10
377.8773589819297
 20
243.2241291181178
 42
1.0
 10
377.8893591122389
 20
243.1798802380949
 42
1.0
 10
377.8997787834564
 20
243.1414698310648
 42
1.0
 10
377.9079224353983
 20
243.1114495953712
 42
1.0
 10
377.9153084574563
 20
243.0842301156699
 42
1.0
 10
377.9199530528256
 20
243.0671150256208
 42
1.0
 10
377.9224332318219
 20
243.0579756962533
 42
1.0
 10
377.9241342365524
 20
243.0517081375092
 42
1.0
 10
377.9241342365524
 20
243.0517081375092
 42
1.0
 72
     4
 94
        3
 73
     1
 74
     0
 95
        8
 96
        4
 40
0.0
 40
0.0
 40
0.0
 40
0.0
 40
0.003092370519094
 40
0.003092370519094
 40
0.003092370519094
 40
0.003092370519094
 10
377.9241342365524
 20
243.0517081375092
 42
1.0
 10
377.6811279491157
 20
243.9471094397311
 42
1.0
 10
377.4320768338331
 20
244.8693754652695
 42
1.0
 10
377.1888401189054
 20
245.8114927431207
 42
1.0
 72
     4
 94
        3
 73
     1
 74
     0
 95
       14
 96
       10
 40
0.0
 40
0.0
 40
0.0
 40
0.0
 40
0.0073149282688267
 40
0.0073149282688267
 40
0.0073149282688267
 40
0.01472920897847
 40
0.01472920897847
 40
0.01472920897847
 40
0.0231248955046447
 40
0.0231248955046447
 40
0.0231248955046447
 40
0.0231248955046447
 10
377.1888401189054
 20
245.8114927431207
 42
1.0
 10
376.615670131797
 20
248.0315249786371
 42
1.0
 10
376.0602332102217
 20
250.4095602767184
 42
1.0
 10
375.7402012557498
 20
252.8215710006299
 42
1.0
 10
375.4177137732347
 20
255.2520885014119
 42
1.0
 10
375.3865183486657
 20
257.7907243461431
 42
1.0
 10
375.6574111358188
 20
260.1658778504876
 42
1.0
 10
375.9648380753776
 20
262.8613581565402
 42
1.0
 10
376.5801583514528
 20
265.442207304284
 42
1.0
 10
377.1888401189054
 20
267.7333247910473
 42
1.0
 97
        0
 75
     0
 76
     1
 52
0.0
 41
1.5
 77
     0
 78
     1
 53
45.0
 43
0.0
 44
0.0
 45
-3.367596045400933
 46
3.367596045400933
 79
     0
 98
        1
 10
0.0
 20
0.0
  0
POINT
  5
3F6
330
1F
100
AcDbEntity
  8
印刷しない
100
AcDbPoint
 10
402.9241342366
 20
229.4378986118
 30
0.0
  0
LINE
  5
3F7
330
1F
100
AcDbEntity
  8
0
  6
Continuous
 62
     7
370
    18
100
AcDbLine
 10
260.0592195327
 20
258.4378986265
 30
0.0
 11
274.9241342366
 21
258.4378986265
 31
0.0
  0
LINE
  5
3F8
330
1F
100
AcDbEntity
  8
0
  6
Continuous
 62
     7
370
    18
100
AcDbLine
 10
274.9241342366
 20
250.4378986265
 30
0.0
 11
260.0592195327
 21
250.4378986265
 31
0.0
  0
LINE
  5
3F9
330
1F
100
AcDbEntity
  8
0
  6
Continuous
 62
     7
370
    25
100
AcDbLine
 10
274.9241342366
 20
250.9378986265
 30
0.0
 11
274.9241342366
 21
250.4378986265
 31
0.0
  0
LINE
  5
3FA
330
1F
100
AcDbEntity
  8
0
  6
Continuous
 62
     7
370
    25
100
AcDbLine
 10
274.9241342366
 20
258.4378986265
 30
0.0
 11
274.9241342366
 21
257.9378986265
 31
0.0
  0
LWPOLYLINE
  5
3FB
330
1F
100
AcDbEntity
  8
0
  6
Continuous
 62
     7
370
     0
100
AcDbPolyline
 90
       13
 70
   128
 43
0.0
 10
274.9240994453
 20
250.9378986265
 10
274.9241342366
 20
251.0571582345
 10
274.9241342366
 20
251.4068097133
 10
274.9241342366
 20
251.9630248924
 10
274.9241342366
 20
252.6878986265
 10
274.9241342366
 20
253.5320319687
 10
274.9241342366
 20
254.4378986265
 10
274.9241342366
 20
255.3437652844
 10
274.9241342366
 20
256.1878986265
 10
274.9241342366
 20
256.9127723607
 10
274.9241342366
 20
257.4689875398
 10
274.9241342366
 20
257.8186390185
 10
274.9241342366
 20
257.9378986265
  0
LINE
  5
3FC
330
1F
100
AcDbEntity
  8
0
  6
Continuous
 62
     7
370
    18
100
AcDbLine
 10
392.3031342366
 20
254.9378986265
 30
0.0
 11
392.3031342366
 21
253.9378986265
 31
0.0
  0
LINE
  5
3FD
330
1F
100
AcDbEntity
  8
0
  6
Continuous
 62
     7
370
    18
100
AcDbLine
 10
395.5451342366
 20
253.9378986265
 30
0.0
 11
395.5451342366
 21
254.9378986265
 31
0.0
  0
LINE
  5
3FE
330
1F
100
AcDbEntity
  8
0
  6
Continuous
 62
     7
370
    18
100
AcDbLine
 10
379.0254710956
 20
273.9068111509
 30
0.0
 11
378.9172621992
 21
273.9068111509
 31
0.0
  0
LINE
  5
3FF
330
1F
100
AcDbEntity
  8
0
  6
CENTERX2
 62
     7
370
    18
100
AcDbLine
 10
393.9241342366
 20
236.7082279891
 30
0.0
 11
393.9241342366
 21
268.0728992043
 31
0.0
  0
LINE
  5
400
330
1F
100
AcDbEntity
  8
0
  6
CENTERX2
 62
     7
370
    18
100
AcDbLine
 10
392.9241342366
 20
276.0146793799
 30
0.0
 11
392.9241342366
 21
304.6534735292
 31
0.0
  0
LINE
  5
401
330
1F
100
AcDbEntity
  8
0
  6
CENTERX2
 62
     7
370
    18
100
AcDbLine
 10
246.1220776687
 20
254.4378986265
 30
0.0
 11
416.3312882936
 21
254.4378986265
 31
0.0
  0
ARC
  5
402
330
1F
100
AcDbEntity
  8
0
  6
Continuous
 62
     7
370
    18
100
AcDbCircle
 10
394.5459768398
 20
143.4133037274
 30
0.0
 40
10.90705470854071
100
AcDbArc
 50
180.5886848318
 51
191.9778802155
  0
LWPOLYLINE
  5
403
330
1F
100
AcDbEntity
  8
0
  6
Continuous
 62
     7
370
    18
100
AcDbPolyline
 90
      333
 70
   128
 43
0.0
 10
403.2431600213
 20
161.149718989
 10
403.1359387159
 20
161.1181294586
 10
403.0289111256
 20
161.0863508697
 10
402.9220697999
 20
161.0543841536
 10
402.8154221892
 20
161.0222274478
 10
402.7089645684
 20
160.9898835461
 10
402.6027006626
 20
160.9573515172
 10
402.4966304719
 20
160.9246313612
 10
402.3907577216
 20
160.8917240094
 10
402.2850786865
 20
160.858630393
 10
402.1796008169
 20
160.8253505121
 10
402.0743203878
 20
160.7918843667
 10
401.9692411244
 20
160.7582319568
 10
401.8643593013
 20
160.7243942137
 10
401.7596860945
 20
160.6903720687
 10
401.6552103281
 20
160.6561645906
 10
401.5509431779
 20
160.6217727105
 10
401.4468809187
 20
160.58719736
 10
401.3430235505
 20
160.5524385388
 10
401.2393747985
 20
160.5174971785
 10
401.1359383881
 20
160.4823714163
 10
401.0327105939
 20
160.4470649774
 10
400.929691416
 20
160.4115750681
 10
400.8268883049
 20
160.3759044822
 10
400.7242975354
 20
160.3400522883
 10
400.6219228327
 20
160.3040194179
 10
400.5197604716
 20
160.2678058709
 10
400.4178179025
 20
160.2314125787
 10
400.3160914004
 20
160.1948395412
 10
400.2145884156
 20
160.1580867584
 10
400.1133014977
 20
160.1211551617
 10
400.0122380972
 20
160.0840456824
 10
399.9113944888
 20
160.0467573892
 10
399.8107781231
 20
160.0092921446
 10
399.7103815496
 20
159.9716490175
 10
399.610215944
 20
159.9338289391
 10
399.5102738559
 20
159.8958328407
 10
399.4105627358
 20
159.8576607223
 10
399.3110788584
 20
159.8193135153
 10
399.2118222236
 20
159.7807902883
 10
399.1128002822
 20
159.7420919727
 10
399.0140093088
 20
159.7032204311
 10
398.9154530287
 20
159.6641738008
 10
398.8171277165
 20
159.6249539445
 10
398.719040823
 20
159.5855617936
 10
398.6211886227
 20
159.5459954853
 10
398.523574841
 20
159.5062578137
 10
398.4261994779
 20
159.4663487788
 10
398.3290662586
 20
159.4262674491
 10
398.232171458
 20
159.3860156874
 10
398.1355188012
 20
159.3455934937
 10
398.0391082883
 20
159.305000868
 10
397.9429399192
 20
159.2642387416
 10
397.8470211446
 20
159.2233080457
 10
397.7513445139
 20
159.1822078492
 10
397.6559174776
 20
159.1409400146
 10
397.5607363105
 20
159.0995036106
 10
397.4658047378
 20
159.0578995685
 10
397.3711227596
 20
159.0161297511
 10
397.2766941011
 20
158.9741922955
 10
397.182515037
 20
158.9320890646
 10
397.0885892927
 20
158.8898209895
 10
396.9949205935
 20
158.8473871391
 10
396.901505214
 20
158.8047884445
 10
396.8083431542
 20
158.7620258372
 10
396.7369256139
 20
158.7290504988
 10
396.6442217648
 20
158.6859991814
 10
396.5517749607
 20
158.6427839513
 10
396.4595926523
 20
158.5994066711
 10
396.3676673889
 20
158.5558673407
 10
396.2760066211
 20
158.5121668916
 10
396.1846066236
 20
158.4683043923
 10
396.0934711218
 20
158.4242826368
 10
396.0026001155
 20
158.3800997625
 10
395.9119973302
 20
158.3357576321
 10
395.8216590404
 20
158.2912571769
 10
395.7315926969
 20
158.2465965341
 10
395.6417908489
 20
158.2017784979
 10
395.5522609472
 20
158.1568030681
 10
395.4629992664
 20
158.1116702448
 10
395.374013257
 20
158.0663809593
 10
395.2852991938
 20
158.0209352116
 10
395.1968570769
 20
157.9753339331
 10
395.1086906314
 20
157.9295771237
 10
395.0207998574
 20
157.8836657147
 10
394.9331847548
 20
157.8375997062
 10
394.8458453238
 20
157.7913809608
 10
394.7587890148
 20
157.7450085472
 10
394.6720083773
 20
157.6984833966
 10
394.5855108619
 20
157.6518055092
 10
394.4992927432
 20
157.6049767475
 10
394.4133577466
 20
157.5579961802
 10
394.327705872
 20
157.5108647387
 10
394.2423371196
 20
157.4635833542
 10
394.1572552144
 20
157.4161529581
 10
394.0724564314
 20
157.3685726191
 10
393.9879482209
 20
157.3208441998
 10
393.9037268579
 20
157.2729667689
 10
393.8197923422
 20
157.2249431203
 10
393.7361483991
 20
157.1767713915
 10
393.6527950287
 20
157.128453445
 10
393.5697322309
 20
157.0799892809
 10
393.486963731
 20
157.0313798304
 10
393.4044858038
 20
156.9826250936
 10
393.3223021745
 20
156.9337260018
 10
393.2404165685
 20
156.8846825551
 10
393.1588252604
 20
156.8354966159
 10
393.0775282502
 20
156.7861672531
 10
392.9965329885
 20
156.736695398
 10
392.9158320248
 20
156.6870819818
 10
392.8354328096
 20
156.6373279359
 10
392.7553353429
 20
156.5874323289
 10
392.6755358994
 20
156.5373970236
 10
392.5960419297
 20
156.4872220199
 10
392.5168497085
 20
156.4369082491
 10
392.4379592359
 20
156.38645478
 10
392.359374237
 20
156.3358644064
 10
392.281094712
 20
156.2851361971
 10
392.2031243861
 20
156.2342710833
 10
392.1254558086
 20
156.1832699965
 10
392.0481001556
 20
156.1321329366
 10
391.9710499763
 20
156.0808608349
 10
391.8943127215
 20
156.0294536914
 10
391.8178809404
 20
155.9779124375
 10
391.741765809
 20
155.9262380044
 10
391.6659598768
 20
155.8744303922
 10
391.5904668689
 20
155.8224896009
 10
391.5152867853
 20
155.7704174931
 10
391.4404233515
 20
155.7182150002
 10
391.3658765673
 20
155.6658802594
 10
391.2916427076
 20
155.6134160648
 10
391.2177292228
 20
155.5608224164
 10
391.1441286623
 20
155.5080993141
 10
391.0708522022
 20
155.4552476893
 10
390.9978923917
 20
155.4022684734
 10
390.9252529561
 20
155.3491625975
 10
390.8529338956
 20
155.2959291305
 10
390.78093521
 20
155.2425699349
 10
390.7092643499
 20
155.1890840794
 10
390.6379138648
 20
155.1354743581
 10
390.5668837547
 20
155.0817398395
 10
390.4961851954
 20
155.027881455
 10
390.4258070111
 20
154.9739001359
 10
390.3557566523
 20
154.9197958823
 10
390.2860341191
 20
154.8655696254
 10
390.2166394114
 20
154.8112213652
 10
390.1475762546
 20
154.7567529644
 10
390.078837198
 20
154.7021634917
 10
390.0104334175
 20
154.6474548097
 10
389.9423574626
 20
154.5926269184
 10
389.8746130585
 20
154.5376807492
 10
389.8072002053
 20
154.4826163019
 10
389.7401226282
 20
154.4274345081
 10
389.6733766019
 20
154.3721353676
 10
389.6069695771
 20
154.316720743
 10
389.540894103
 20
154.2611906345
 10
389.4751539051
 20
154.2055459733
 10
389.4097527087
 20
154.1497858282
 10
389.3446867883
 20
154.0939129929
 10
389.2799598694
 20
154.0379265364
 10
389.2155756771
 20
153.9818273898
 10
389.151526761
 20
153.9256164844
 10
389.0878168463
 20
153.8692947517
 10
389.0244496584
 20
153.8128621917
 10
388.9614251971
 20
153.7563188042
 10
388.8987434625
 20
153.699666452
 10
388.8364007294
 20
153.6429060663
 10
388.7744044482
 20
153.5860357846
 10
388.7127546191
 20
153.5290593322
 10
388.6514475167
 20
153.4719748463
 10
388.5904868662
 20
153.4147841896
 10
388.5298689425
 20
153.3574873622
 10
388.469601196
 20
153.3000862266
 10
388.4096799016
 20
153.2425807829
 10
388.3501087844
 20
153.1849710311
 10
388.2908841193
 20
153.1272569712
 10
388.2320096314
 20
153.0694423284
 10
388.1734890461
 20
153.0115233775
 10
388.1153149128
 20
152.9535038437
 10
388.0574909568
 20
152.8953855898
 10
388.0000246286
 20
152.8371648903
 10
387.9429084778
 20
152.7788454707
 10
387.8861425042
 20
152.7204273309
 10
387.8297341585
 20
152.6619104709
 10
387.7736797154
 20
152.6032948907
 10
387.7179791748
 20
152.5445843156
 10
387.6626362622
 20
152.4857768829
 10
387.6076472521
 20
152.4268725927
 10
387.5530158698
 20
152.3678751703
 10
387.4987421155
 20
152.3087827529
 10
387.4448297143
 20
152.2495953407
 10
387.3912712157
 20
152.1903147961
 10
387.3380740702
 20
152.130942982
 10
387.2852382779
 20
152.0714798983
 10
387.2327601135
 20
152.0119236823
 10
387.1806470275
 20
151.9522780593
 10
387.1288915694
 20
151.8925430294
 10
387.0775011897
 20
151.8327167298
 10
387.0264721632
 20
151.7728047486
 10
386.9758044898
 20
151.7128014977
 10
386.9255018949
 20
151.6527125652
 10
386.8755643785
 20
151.592537951
 10
386.8259919405
 20
151.5322757925
 10
386.7767845809
 20
151.471929815
 10
386.7279422998
 20
151.4114981558
 10
386.6794688225
 20
151.3509826775
 10
386.6313604235
 20
151.2903833802
 10
386.5836208284
 20
151.2297002639
 10
386.5362500369
 20
151.1689370538
 10
386.4892443239
 20
151.1080918874
 10
386.44261114
 20
151.0471647646
 10
386.3963430345
 20
150.9861594106
 10
386.3504511833
 20
150.925073963
 10
386.3049244106
 20
150.8639102842
 10
386.2597738921
 20
150.8026665117
 10
386.2149884522
 20
150.7413463707
 10
386.1705792665
 20
150.6799498613
 10
386.1265426099
 20
150.6184769835
 10
386.0828784823
 20
150.5569295998
 10
386.0395868838
 20
150.4953058477
 10
385.9966715395
 20
150.4336094524
 10
385.9541287243
 20
150.3718385513
 10
385.9119621634
 20
150.3099950071
 10
385.8701718569
 20
150.2480788197
 10
385.8287540793
 20
150.1860918518
 10
385.7877125561
 20
150.1240341033
 10
385.7470510125
 20
150.0619055744
 10
385.7067657232
 20
149.9997099902
 10
385.6668566882
 20
149.9374436255
 10
385.6273239076
 20
149.8751083429
 10
385.5881748318
 20
149.8127078678
 10
385.5493982851
 20
149.7502403374
 10
385.5110054433
 20
149.6877057518
 10
385.4729925811
 20
149.6251059736
 10
385.4353559732
 20
149.5624410029
 10
385.3981030702
 20
149.4997127022
 10
385.3612301469
 20
149.4369210716
 10
385.3247409284
 20
149.3740679737
 10
385.2886279642
 20
149.3111515458
 10
385.2529024303
 20
149.2481736507
 10
385.2175568759
 20
149.1851361509
 10
385.1825950265
 20
149.1220371838
 10
385.1480131566
 20
149.0588804747
 10
385.113818717
 20
148.995664161
 10
385.0800079822
 20
148.9323919679
 10
385.0465809524
 20
148.8690601702
 10
385.0135376274
 20
148.8056743558
 10
384.9808817327
 20
148.7422307994
 10
384.9486095428
 20
148.6787313636
 10
384.9167247832
 20
148.6151797737
 10
384.8852237284
 20
148.5515741672
 10
384.8541101038
 20
148.4879145439
 10
384.8233839094
 20
148.4242027666
 10
384.7930451453
 20
148.3604388352
 10
384.763090086
 20
148.2966246124
 10
384.7335261822
 20
148.2327600981
 10
384.7043497085
 20
148.1688452925
 10
384.6755643904
 20
148.1048820581
 10
384.6471627772
 20
148.0408722575
 10
384.6191560447
 20
147.9768121655
 10
384.5915330171
 20
147.9127073701
 10
384.5643048703
 20
147.8485560085
 10
384.5374641537
 20
147.7843580808
 10
384.5110108673
 20
147.7201173122
 10
384.4849524617
 20
147.6558299776
 10
384.4592814863
 20
147.5915016647
 10
384.4340053916
 20
147.527130511
 10
384.4091167271
 20
147.4627165164
 10
384.3846229434
 20
147.3982615437
 10
384.3605203151
 20
147.3337655927
 10
384.3368088424
 20
147.2692305263
 10
384.3134885251
 20
147.2046563442
 10
384.2905630886
 20
147.1400430466
 10
384.2680288076
 20
147.0753924962
 10
384.2458894074
 20
147.0107046928
 10
384.2241411626
 20
146.9459796365
 10
384.2027915239
 20
146.8812210526
 10
384.1818293154
 20
146.8164252158
 10
384.161265713
 20
146.751597714
 10
384.1410969913
 20
146.686734822
 10
384.1213194251
 20
146.621840265
 10
384.1019367397
 20
146.5569121803
 10
384.0829526603
 20
146.4919542934
 10
384.0643597364
 20
146.4269647415
 10
384.0461654186
 20
146.3619453873
 10
384.0283659816
 20
146.2968962307
 10
384.0109614253
 20
146.2318191345
 10
383.9939517498
 20
146.1667140986
 10
383.977336955
 20
146.101581123
 10
383.9611244917
 20
146.0364220704
 10
383.9453031838
 20
145.9712369408
 10
383.9347717881
 20
145.9268985357
 10
383.9196210325
 20
145.8616724278
 10
383.9048651576
 20
145.7964221056
 10
383.8905041635
 20
145.7311494316
 10
383.8765417754
 20
145.6658544059
 10
383.8629779935
 20
145.6005351658
 10
383.8498128176
 20
145.5351972993
 10
383.8370425224
 20
145.4698389436
 10
383.8246708333
 20
145.4044600989
 10
383.8126977503
 20
145.3390626277
 10
383.8011232734
 20
145.2736465301
 10
383.7899474025
 20
145.2082136686
 10
383.7791664123
 20
145.1427621807
 10
383.7687877536
 20
145.0772957917
 10
383.7588039756
 20
145.0118145014
 10
383.7492225289
 20
144.9463183101
 10
383.7400396883
 20
144.8808090802
 10
383.7312517285
 20
144.8152849491
 10
383.7228661001
 20
144.7497496422
 10
383.7148790777
 20
144.6842012967
 10
383.7072906613
 20
144.6186436381
 10
383.7001045763
 20
144.5530729409
 10
383.6933133721
 20
144.4874947931
 10
383.6869244993
 20
144.4219073321
 10
383.6809342325
 20
144.3563105579
 10
383.6753425717
 20
144.2907063331
 10
383.670149517
 20
144.2250965203
 10
383.6653587937
 20
144.159479257
 10
383.6609666765
 20
144.0938564058
 10
383.6569731653
 20
144.0282298292
 10
383.6533819854
 20
143.9625995274
 10
383.6501894116
 20
143.8969655003
 10
383.6473954439
 20
143.8313296105
 10
383.6450038075
 20
143.7656899954
 10
383.6430107772
 20
143.7000503804
 10
383.641416353
 20
143.6344107653
 10
383.6402242601
 20
143.5687711503
 10
383.6394307732
 20
143.5031315352
 10
383.6390358925
 20
143.4374937828
 10
383.639043343
 20
143.3718597557
 10
383.639453125
 20
143.3062275912
 10
383.6394978285
 20
143.3012412901
  0
LINE
  5
404
330
1F
100
AcDbEntity
  8
0
  6
Continuous
 62
     7
370
    35
100
AcDbLine
 10
407.9241325676
 20
152.4497197981
 30
0.0
 11
407.9241325676
 21
161.149718989
 31
0.0
  0
LINE
  5
405
330
1F
100
AcDbEntity
  8
0
  6
Continuous
 62
     7
370
    35
100
AcDbLine
 10
394.4241350114
 20
152.4497197981
 30
0.0
 11
407.9241325676
 21
152.4497197981
 31
0.0
  0
LINE
  5
406
330
1F
100
AcDbEntity
  8
0
  6
Continuous
 62
     7
370
    35
100
AcDbLine
 10
393.4327160537
 20
150.7997198071
 30
0.0
 11
394.4241350114
 21
152.4497197981
 31
0.0
  0
LINE
  5
407
330
1F
100
AcDbEntity
  8
0
  6
Continuous
 62
     7
370
    35
100
AcDbLine
 10
394.4241350114
 20
149.149719816
 30
0.0
 11
393.4327160537
 21
150.7997198071
 31
0.0
  0
LINE
  5
408
330
1F
100
AcDbEntity
  8
0
  6
Continuous
 62
     7
370
    35
100
AcDbLine
 10
407.9241325676
 20
149.149719816
 30
0.0
 11
394.4241350114
 21
149.149719816
 31
0.0
  0
LINE
  5
409
330
1F
100
AcDbEntity
  8
0
  6
Continuous
 62
     7
370
    35
100
AcDbLine
 10
407.9241325676
 20
136.6497205611
 30
0.0
 11
407.9241325676
 21
149.149719816
 31
0.0
  0
LINE
  5
40A
330
1F
100
AcDbEntity
  8
0
  6
Continuous
 62
     7
370
    35
100
AcDbLine
 10
407.9241325676
 20
136.6497205611
 30
0.0
 11
407.4241352796
 21
136.1497195478
 31
0.0
  0
LINE
  5
40B
330
1F
100
AcDbEntity
  8
0
  6
Continuous
 62
     7
370
    35
100
AcDbLine
 10
397.9241346538
 20
136.1497195478
 30
0.0
 11
407.4241352796
 21
136.1497195478
 31
0.0
  0
LINE
  5
40C
330
1F
100
AcDbEntity
  8
0
  6
Continuous
 62
     7
370
    35
100
AcDbLine
 10
392.9241356969
 20
141.1497185047
 30
0.0
 11
397.9241346538
 21
136.1497195478
 31
0.0
  0
LINE
  5
40D
330
1F
100
AcDbEntity
  8
0
  6
Continuous
 62
     7
370
    35
100
AcDbLine
 10
383.8763927638
 20
141.1497185047
 30
0.0
 11
392.9241356969
 21
141.1497185047
 31
0.0
  0
LINE
  5
40E
330
1F
100
AcDbEntity
  8
0
  6
Continuous
 62
     7
370
    35
100
AcDbLine
 10
394.4241350114
 20
149.149719816
 30
0.0
 11
394.4241350114
 21
152.4497197981
 31
0.0
  0
LINE
  5
40F
330
1F
100
AcDbEntity
  8
0
  6
Continuous
 62
     7
370
    35
100
AcDbLine
 10
407.9241325676
 20
149.149719816
 30
0.0
 11
407.9241325676
 21
152.4497197981
 31
0.0
  0
INSERT
  5
41E
330
1F
100
AcDbEntity
  8
0
  6
Continuous
 62
     7
370
    18
100
AcDbBlockReference
  2
SW_HATCH_0
 10
396.7369256139
 20
158.7290504988
 30
0.0
  0
MTEXT
  5
41F
330
1F
100
AcDbEntity
  8
0
  6
Continuous
 62
     7
370
     0
100
AcDbMText
 10
395.9149968105
 20
128.9885479857
 30
0.0
 40
3.96875
 41
0.0
 71
     2
 72
     1
  1
SECTION X-X
  7
SLDTEXTSTYLE2
 73
     1
 44
1.0
  0
LINE
  5
420
330
1F
100
AcDbEntity
  8
0
  6
Continuous
 62
     7
370
    18
100
AcDbLine
 10
407.9241325676
 20
148.7997194792
 30
0.0
 11
397.9241346538
 21
148.7997194792
 31
0.0
  0
LINE
  5
421
330
1F
100
AcDbEntity
  8
0
  6
Continuous
 62
     7
370
    18
100
AcDbLine
 10
397.9241346538
 20
152.7997182723
 30
0.0
 11
407.9241325676
 21
152.7997182723
 31
0.0
  0
LINE
  5
422
330
1F
100
AcDbEntity
  8
0
  6
Continuous
 62
     7
370
    25
100
AcDbLine
 10
397.9241346538
 20
152.4497197981
 30
0.0
 11
397.9241346538
 21
152.7997182723
 31
0.0
  0
LINE
  5
423
330
1F
100
AcDbEntity
  8
0
  6
Continuous
 62
     7
370
    25
100
AcDbLine
 10
397.9241346538
 20
148.7997194792
 30
0.0
 11
397.9241346538
 21
149.149719816
 31
0.0
  0
LWPOLYLINE
  5
424
330
1F
100
AcDbEntity
  8
0
  6
Continuous
 62
     7
370
     0
100
AcDbPolyline
 90
       15
 70
   128
 43
0.0
 10
397.9239463806
 20
152.4497197981
 10
397.9241346538
 20
152.4083504494
 10
397.9241346538
 20
152.2863173898
 10
397.9241346538
 20
152.0897412713
 10
397.9241346538
 20
151.8284773494
 10
397.9241346538
 20
151.5156274702
 10
397.9241346538
 20
151.166878831
 10
397.9241346538
 20
150.7997198071
 10
397.9241346538
 20
150.4325589205
 10
397.9241346538
 20
150.0838102813
 10
397.9241346538
 20
149.7709604021
 10
397.9241346538
 20
149.5096964802
 10
397.9241346538
 20
149.3131203617
 10
397.9241346538
 20
149.1910873021
 10
397.9241346538
 20
149.149719816
  0
LINE
  5
425
330
1F
100
AcDbEntity
  8
0
  6
CENTERX2
 62
     7
370
    18
100
AcDbLine
 10
411.5930182457
 20
150.7997198071
 30
0.0
 11
389.3047442257
 21
150.7997198071
 31
0.0
  0
ENDSEC
  0
SECTION
  2
OBJECTS
  0
DICTIONARY
  5
C
330
0
100
AcDbDictionary
281
     1
  3
ACAD_GROUP
350
D
  3
ACAD_LAYOUT
350
1A
  3
ACAD_MLINESTYLE
350
17
  3
ACAD_PLOTSETTINGS
350
19
  3
ACAD_PLOTSTYLENAME
350
E
  3
ACAD_SCALELIST
350
47
  3
DWGPROPS
350
426
  0
DICTIONARY
  5
D
102
{ACAD_REACTORS
330
C
102
}
330
C
100
AcDbDictionary
281
     1
  0
DICTIONARY
  5
1A
102
{ACAD_REACTORS
330
C
102
}
330
C
100
AcDbDictionary
281
     1
  3
Layout1
350
1E
  3
Layout2
350
26
  3
Model
350
22
  0
DICTIONARY
  5
17
102
{ACAD_REACTORS
330
C
102
}
330
C
100
AcDbDictionary
281
     1
  3
Standard
350
18
  0
DICTIONARY
  5
19
102
{ACAD_REACTORS
330
C
102
}
330
C
100
AcDbDictionary
281
     1
  0
ACDBDICTIONARYWDFLT
  5
E
102
{ACAD_REACTORS
330
C
102
}
330
C
100
AcDbDictionary
281
     1
  3
Normal
350
F
100
AcDbDictionaryWithDefault
340
F
  0
DICTIONARY
  5
47
102
{ACAD_REACTORS
330
C
102
}
330
C
100
AcDbDictionary
281
     1
  3
A0
350
48
  3
A1
350
49
  3
A2
350
4A
  3
A3
350
4B
  3
A4
350
4C
  3
A5
350
4D
  3
A6
350
4E
  3
A7
350
4F
  3
A8
350
50
  3
A9
350
51
  3
B0
350
52
  3
B1
350
53
  3
B2
350
54
  3
B3
350
55
  3
B4
350
56
  3
B5
350
57
  3
B6
350
58
  3
B7
350
59
  3
B8
350
5A
  3
B9
350
5B
  3
C0
350
5C
  3
C1
350
5D
  3
C2
350
5E
  3
C3
350
5F
  3
C4
350
60
  3
C5
350
61
  3
C6
350
62
  3
C7
350
63
  3
C8
350
64
  3
C9
350
65
  3
D0
350
66
  3
D1
350
67
  3
D2
350
68
  0
XRECORD
  5
426
102
{ACAD_REACTORS
330
C
102
}
330
C
100
AcDbXrecord
280
     1
  1
DWGPROPS COOKIE
  2

  3

  4

  6

  7

  8
HD1809
  9

300
=
301
=
302
=
303
=
304
=
305
=
306
=
307
=
308
=
309
=
 40
0.0
 41
2460041.036643681
 42
2460041.036646192
  1

 90
        0
  0
LAYOUT
  5
1E
102
{ACAD_REACTORS
330
1A
102
}
330
1A
100
AcDbPlotSettings
  1

  2
none_device
  4

  6

 40
0.0
 41
0.0
 42
0.0
 43
0.0
 44
0.0
 45
0.0
 46
0.0
 47
0.0
 48
0.0
 49
0.0
140
0.0
141
0.0
142
1.0
143
1.0
 70
   688
 72
     1
 73
     0
 74
     5
  7

 75
    16
147
1.0
148
0.0
149
0.0
100
AcDbLayout
  1
Layout1
 70
     1
 71
     1
 10
0.0
 20
0.0
 11
420.0
 21
297.0
 12
0.0
 22
0.0
 32
0.0
 14
1.0000000000E+20
 24
1.0000000000E+20
 34
1.0000000000E+20
 15
-1.0000000000E+20
 25
-1.0000000000E+20
 35
-1.0000000000E+20
146
0.0
 13
0.0
 23
0.0
 33
0.0
 16
1.0
 26
0.0
 36
0.0
 17
0.0
 27
1.0
 37
0.0
 76
     0
330
1B
  0
LAYOUT
  5
26
102
{ACAD_REACTORS
330
1A
102
}
330
1A
100
AcDbPlotSettings
  1

  2
none_device
  4

  6

 40
0.0
 41
0.0
 42
0.0
 43
0.0
 44
0.0
 45
0.0
 46
0.0
 47
0.0
 48
0.0
 49
0.0
140
0.0
141
0.0
142
1.0
143
1.0
 70
   688
 72
     1
 73
     0
 74
     5
  7

 75
    16
147
1.0
148
0.0
149
0.0
100
AcDbLayout
  1
Layout2
 70
     1
 71
     2
 10
0.0
 20
0.0
 11
0.0
 21
0.0
 12
0.0
 22
0.0
 32
0.0
 14
0.0
 24
0.0
 34
0.0
 15
0.0
 25
0.0
 35
0.0
146
0.0
 13
0.0
 23
0.0
 33
0.0
 16
1.0
 26
0.0
 36
0.0
 17
0.0
 27
1.0
 37
0.0
 76
     0
330
23
  0
LAYOUT
  5
22
102
{ACAD_REACTORS
330
1A
102
}
330
1A
100
AcDbPlotSettings
  1

  2
none_device
  4
Letter_(8.50_x_11.00_Inches)
  6

 40
6.35
 41
6.35
 42
6.35000508
 43
6.35000508
 44
215.9
 45
279.4
 46
0.0
 47
0.0
 48
0.0
 49
0.0
140
0.0
141
0.0
142
1.0
143
1.0
 70
  1712
 72
     1
 73
     0
 74
     0
  7

 75
     0
147
1.0
148
0.0
149
0.0
100
AcDbLayout
  1
Model
 70
     1
 71
     0
 10
0.0
 20
0.0
 11
630.0
 21
445.5
 12
0.0
 22
0.0
 32
0.0
 14
0.0
 24
0.0
 34
0.0
 15
630.0
 25
445.5
 35
0.0
146
0.0
 13
0.0
 23
0.0
 33
0.0
 16
1.0
 26
0.0
 36
0.0
 17
0.0
 27
1.0
 37
0.0
 76
     0
330
1F
331
29
  0
MLINESTYLE
  5
18
102
{ACAD_REACTORS
330
17
102
}
330
17
100
AcDbMlineStyle
  2
Standard
 70
     0
  3

 62
   256
 51
90.0
 52
90.0
 71
     2
 49
0.5
 62
   256
  6
BYLAYER
 49
-0.5
 62
   256
  6
BYLAYER
  0
ACDBPLACEHOLDER
  5
F
102
{ACAD_REACTORS
330
E
102
}
330
E
  0
SCALE
  5
48
102
{ACAD_REACTORS
330
47
102
}
330
47
100
AcDbScale
 70
     0
300
1:1
140
1.0
141
1.0
290
     1
  0
SCALE
  5
49
102
{ACAD_REACTORS
330
47
102
}
330
47
100
AcDbScale
 70
     0
300
1:2
140
1.0
141
2.0
290
     0
  0
SCALE
  5
4A
102
{ACAD_REACTORS
330
47
102
}
330
47
100
AcDbScale
 70
     0
300
1:4
140
1.0
141
4.0
290
     0
  0
SCALE
  5
4B
102
{ACAD_REACTORS
330
47
102
}
330
47
100
AcDbScale
 70
     0
300
1:5
140
1.0
141
5.0
290
     0
  0
SCALE
  5
4C
102
{ACAD_REACTORS
330
47
102
}
330
47
100
AcDbScale
 70
     0
300
1:8
140
1.0
141
8.0
290
     0
  0
SCALE
  5
4D
102
{ACAD_REACTORS
330
47
102
}
330
47
100
AcDbScale
 70
     0
300
1:10
140
1.0
141
10.0
290
     0
  0
SCALE
  5
4E
102
{ACAD_REACTORS
330
47
102
}
330
47
100
AcDbScale
 70
     0
300
1:16
140
1.0
141
16.0
290
     0
  0
SCALE
  5
4F
102
{ACAD_REACTORS
330
47
102
}
330
47
100
AcDbScale
 70
     0
300
1:20
140
1.0
141
20.0
290
     0
  0
SCALE
  5
50
102
{ACAD_REACTORS
330
47
102
}
330
47
100
AcDbScale
 70
     0
300
1:30
140
1.0
141
30.0
290
     0
  0
SCALE
  5
51
102
{ACAD_REACTORS
330
47
102
}
330
47
100
AcDbScale
 70
     0
300
1:40
140
1.0
141
40.0
290
     0
  0
SCALE
  5
52
102
{ACAD_REACTORS
330
47
102
}
330
47
100
AcDbScale
 70
     0
300
1:50
140
1.0
141
50.0
290
     0
  0
SCALE
  5
53
102
{ACAD_REACTORS
330
47
102
}
330
47
100
AcDbScale
 70
     0
300
1:100
140
1.0
141
100.0
290
     0
  0
SCALE
  5
54
102
{ACAD_REACTORS
330
47
102
}
330
47
100
AcDbScale
 70
     0
300
2:1
140
2.0
141
1.0
290
     0
  0
SCALE
  5
55
102
{ACAD_REACTORS
330
47
102
}
330
47
100
AcDbScale
 70
     0
300
4:1
140
4.0
141
1.0
290
     0
  0
SCALE
  5
56
102
{ACAD_REACTORS
330
47
102
}
330
47
100
AcDbScale
 70
     0
300
8:1
140
8.0
141
1.0
290
     0
  0
SCALE
  5
57
102
{ACAD_REACTORS
330
47
102
}
330
47
100
AcDbScale
 70
     0
300
10:1
140
10.0
141
1.0
290
     0
  0
SCALE
  5
58
102
{ACAD_REACTORS
330
47
102
}
330
47
100
AcDbScale
 70
     0
300
100:1
140
100.0
141
1.0
290
     0
  0
SCALE
  5
59
102
{ACAD_REACTORS
330
47
102
}
330
47
100
AcDbScale
 70
     0
300
1/128" = 1'-0"
140
0.0078125
141
12.0
290
     0
  0
SCALE
  5
5A
102
{ACAD_REACTORS
330
47
102
}
330
47
100
AcDbScale
 70
     0
300
1/64" = 1'-0"
140
0.015625
141
12.0
290
     0
  0
SCALE
  5
5B
102
{ACAD_REACTORS
330
47
102
}
330
47
100
AcDbScale
 70
     0
300
1/32" = 1'-0"
140
0.03125
141
12.0
290
     0
  0
SCALE
  5
5C
102
{ACAD_REACTORS
330
47
102
}
330
47
100
AcDbScale
 70
     0
300
1/16" = 1'-0"
140
0.0625
141
12.0
290
     0
  0
SCALE
  5
5D
102
{ACAD_REACTORS
330
47
102
}
330
47
100
AcDbScale
 70
     0
300
3/32" = 1'-0"
140
0.09375
141
12.0
290
     0
  0
SCALE
  5
5E
102
{ACAD_REACTORS
330
47
102
}
330
47
100
AcDbScale
 70
     0
300
1/8" = 1'-0"
140
0.125
141
12.0
290
     0
  0
SCALE
  5
5F
102
{ACAD_REACTORS
330
47
102
}
330
47
100
AcDbScale
 70
     0
300
3/16" = 1'-0"
140
0.1875
141
12.0
290
     0
  0
SCALE
  5
60
102
{ACAD_REACTORS
330
47
102
}
330
47
100
AcDbScale
 70
     0
300
1/4" = 1'-0"
140
0.25
141
12.0
290
     0
  0
SCALE
  5
61
102
{ACAD_REACTORS
330
47
102
}
330
47
100
AcDbScale
 70
     0
300
3/8" = 1'-0"
140
0.375
141
12.0
290
     0
  0
SCALE
  5
62
102
{ACAD_REACTORS
330
47
102
}
330
47
100
AcDbScale
 70
     0
300
1/2" = 1'-0"
140
0.5
141
12.0
290
     0
  0
SCALE
  5
63
102
{ACAD_REACTORS
330
47
102
}
330
47
100
AcDbScale
 70
     0
300
3/4" = 1'-0"
140
0.75
141
12.0
290
     0
  0
SCALE
  5
64
102
{ACAD_REACTORS
330
47
102
}
330
47
100
AcDbScale
 70
     0
300
1" = 1'-0"
140
1.0
141
12.0
290
     0
  0
SCALE
  5
65
102
{ACAD_REACTORS
330
47
102
}
330
47
100
AcDbScale
 70
     0
300
1-1/2" = 1'-0"
140
1.5
141
12.0
290
     0
  0
SCALE
  5
66
102
{ACAD_REACTORS
330
47
102
}
330
47
100
AcDbScale
 70
     0
300
3" = 1'-0"
140
3.0
141
12.0
290
     0
  0
SCALE
  5
67
102
{ACAD_REACTORS
330
47
102
}
330
47
100
AcDbScale
 70
     0
300
6" = 1'-0"
140
6.0
141
12.0
290
     0
  0
SCALE
  5
68
102
{ACAD_REACTORS
330
47
102
}
330
47
100
AcDbScale
 70
     0
300
1'-0" = 1'-0"
140
12.0
141
12.0
290
     0
  0
ENDSEC
  0
EOF
