  0
SECTION
  2
HEADER
  9
$ACADVER
  1
AC1015
  9
$ACADMAINTVER
 70
     6
  9
$DWGCODEPAGE
  3
DOS932
  9
$INSBASE
 10
0.0
 20
0.0
 30
0.0
  9
$EXTMIN
 10
0.0
 20
0.0
 30
0.0
  9
$EXTMAX
 10
420.0
 20
297.0
 30
0.0
  9
$LIMMIN
 10
0.0
 20
0.0
  9
$LIMMAX
 10
420.0
 20
297.0
  9
$ORTHOMODE
 70
     0
  9
$REGENMODE
 70
     1
  9
$FILLMODE
 70
     1
  9
$QTEXTMODE
 70
     0
  9
$MIRRTEXT
 70
     1
  9
$LTSCALE
 40
1.0
  9
$ATTMODE
 70
     1
  9
$TEXTSIZE
 40
3.5277777778
  9
$TRACEWID
 40
1.0
  9
$TEXTSTYLE
  7
Standard
  9
$CLAYER
  8
0
  9
$CELTYPE
  6
ByLayer
  9
$CECOLOR
 62
   256
  9
$CELTSCALE
 40
1.0
  9
$DISPSILH
 70
     0
  9
$DIMSCALE
 40
1.0
  9
$DIMASZ
 40
2.6975097656
  9
$DIMEXO
 40
1.0
  9
$DIMDLI
 40
3.75
  9
$DIMRND
 40
0.0
  9
$DIMDLE
 40
0.0
  9
$DIMEXE
 40
1.0
  9
$DIMTP
 40
0.0
  9
$DIMTM
 40
0.0
  9
$DIMTXT
 40
3.5277777778
  9
$DIMCEN
 40
2.5
  9
$DIMTSZ
 40
0.0
  9
$DIMTOL
 70
     0
  9
$DIMLIM
 70
     0
  9
$DIMTIH
 70
     1
  9
$DIMTOH
 70
     1
  9
$DIMSE1
 70
     0
  9
$DIMSE2
 70
     0
  9
$DIMTAD
 70
     1
  9
$DIMZIN
 70
     0
  9
$DIMBLK
  1

  9
$DIMASO
 70
     1
  9
$DIMSHO
 70
     1
  9
$DIMPOST
  1

  9
$DIMAPOST
  1

  9
$DIMALT
 70
     0
  9
$DIMALTD
 70
     3
  9
$DIMALTF
 40
0.0393700787
  9
$DIMLFAC
 40
1.0
  9
$DIMTOFL
 70
     1
  9
$DIMTVP
 40
0.0
  9
$DIMTIX
 70
     0
  9
$DIMSOXD
 70
     0
  9
$DIMSAH
 70
     0
  9
$DIMBLK1
  1

  9
$DIMBLK2
  1

  9
$DIMSTYLE
  2
ISO-25
  9
$DIMCLRD
 70
     0
  9
$DIMCLRE
 70
     0
  9
$DIMCLRT
 70
     0
  9
$DIMTFAC
 40
1.0
  9
$DIMGAP
 40
2.0
  9
$DIMJUST
 70
     0
  9
$DIMSD1
 70
     0
  9
$DIMSD2
 70
     0
  9
$DIMTOLJ
 70
     0
  9
$DIMTZIN
 70
     0
  9
$DIMALTZ
 70
     0
  9
$DIMALTTZ
 70
     0
  9
$DIMUPT
 70
     0
  9
$DIMDEC
 70
     3
  9
$DIMTDEC
 70
     3
  9
$DIMALTU
 70
     2
  9
$DIMALTTD
 70
     3
  9
$DIMTXSTY
  7
Standard
  9
$DIMAUNIT
 70
     0
  9
$DIMADEC
 70
     3
  9
$DIMALTRND
 40
0.0
  9
$DIMAZIN
 70
     0
  9
$DIMDSEP
 70
    44
  9
$DIMATFIT
 70
     3
  9
$DIMFRAC
 70
     0
  9
$DIMLDRBLK
  1

  9
$DIMLUNIT
 70
     2
  9
$DIMLWD
 70
    -2
  9
$DIMLWE
 70
    -2
  9
$DIMTMOVE
 70
     0
  9
$LUNITS
 70
     2
  9
$LUPREC
 70
     2
  9
$SKETCHINC
 40
1.0
  9
$FILLETRAD
 40
10.0
  9
$AUNITS
 70
     0
  9
$AUPREC
 70
     2
  9
$MENU
  1
.
  9
$ELEVATION
 40
0.0
  9
$PELEVATION
 40
0.0
  9
$THICKNESS
 40
0.0
  9
$LIMCHECK
 70
     0
  9
$CHAMFERA
 40
0.0
  9
$CHAMFERB
 40
0.0
  9
$CHAMFERC
 40
0.0
  9
$CHAMFERD
 40
0.0
  9
$SKPOLY
 70
     0
  9
$TDCREATE
 40
2460041.386631979
  9
$TDUCREATE
 40
2460041.011631979
  9
$TDUPDATE
 40
2460041.386634583
  9
$TDUUPDATE
 40
2460041.011634583
  9
$TDINDWG
 40
0.0000000116
  9
$TDUSRTIMER
 40
0.0000000116
  9
$USRTIMER
 70
     1
  9
$ANGBASE
 50
0.0
  9
$ANGDIR
 70
     0
  9
$PDMODE
 70
     0
  9
$PDSIZE
 40
-1.0
  9
$PLINEWID
 40
0.0
  9
$SPLFRAME
 70
     0
  9
$SPLINETYPE
 70
     6
  9
$SPLINESEGS
 70
     8
  9
$HANDSEED
  5
3F7
  9
$SURFTAB1
 70
     6
  9
$SURFTAB2
 70
     6
  9
$SURFTYPE
 70
     6
  9
$SURFU
 70
     6
  9
$SURFV
 70
     6
  9
$UCSBASE
  2

  9
$UCSNAME
  2

  9
$UCSORG
 10
0.0
 20
0.0
 30
0.0
  9
$UCSXDIR
 10
1.0
 20
0.0
 30
0.0
  9
$UCSYDIR
 10
0.0
 20
1.0
 30
0.0
  9
$UCSORTHOREF
  2

  9
$UCSORTHOVIEW
 70
     0
  9
$UCSORGTOP
 10
0.0
 20
0.0
 30
0.0
  9
$UCSORGBOTTOM
 10
0.0
 20
0.0
 30
0.0
  9
$UCSORGLEFT
 10
0.0
 20
0.0
 30
0.0
  9
$UCSORGRIGHT
 10
0.0
 20
0.0
 30
0.0
  9
$UCSORGFRONT
 10
0.0
 20
0.0
 30
0.0
  9
$UCSORGBACK
 10
0.0
 20
0.0
 30
0.0
  9
$PUCSBASE
  2

  9
$PUCSNAME
  2

  9
$PUCSORG
 10
0.0
 20
0.0
 30
0.0
  9
$PUCSXDIR
 10
1.0
 20
0.0
 30
0.0
  9
$PUCSYDIR
 10
0.0
 20
1.0
 30
0.0
  9
$PUCSORTHOREF
  2

  9
$PUCSORTHOVIEW
 70
     0
  9
$PUCSORGTOP
 10
0.0
 20
0.0
 30
0.0
  9
$PUCSORGBOTTOM
 10
0.0
 20
0.0
 30
0.0
  9
$PUCSORGLEFT
 10
0.0
 20
0.0
 30
0.0
  9
$PUCSORGRIGHT
 10
0.0
 20
0.0
 30
0.0
  9
$PUCSORGFRONT
 10
0.0
 20
0.0
 30
0.0
  9
$PUCSORGBACK
 10
0.0
 20
0.0
 30
0.0
  9
$USERI1
 70
     0
  9
$USERI2
 70
     0
  9
$USERI3
 70
     0
  9
$USERI4
 70
     0
  9
$USERI5
 70
     0
  9
$USERR1
 40
0.0
  9
$USERR2
 40
0.0
  9
$USERR3
 40
0.0
  9
$USERR4
 40
0.0
  9
$USERR5
 40
0.0
  9
$WORLDVIEW
 70
     1
  9
$SHADEDGE
 70
     3
  9
$SHADEDIF
 70
    70
  9
$TILEMODE
 70
     1
  9
$MAXACTVP
 70
    64
  9
$PINSBASE
 10
0.0
 20
0.0
 30
0.0
  9
$PLIMCHECK
 70
     0
  9
$PEXTMIN
 10
1.0000000000E+20
 20
1.0000000000E+20
 30
1.0000000000E+20
  9
$PEXTMAX
 10
-1.0000000000E+20
 20
-1.0000000000E+20
 30
-1.0000000000E+20
  9
$PLIMMIN
 10
0.0
 20
0.0
  9
$PLIMMAX
 10
420.0
 20
297.0
  9
$UNITMODE
 70
     0
  9
$VISRETAIN
 70
     1
  9
$PLINEGEN
 70
     0
  9
$PSLTSCALE
 70
     1
  9
$TREEDEPTH
 70
  3020
  9
$CMLSTYLE
  2
Standard
  9
$CMLJUST
 70
     0
  9
$CMLSCALE
 40
20.0
  9
$PROXYGRAPHICS
 70
     1
  9
$MEASUREMENT
 70
     1
  9
$CELWEIGHT
370
    -1
  9
$ENDCAPS
280
     0
  9
$JOINSTYLE
280
     0
  9
$LWDISPLAY
290
     1
  9
$INSUNITS
 70
     4
  9
$HYPERLINKBASE
  1

  9
$STYLESHEET
  1

  9
$XEDIT
290
     1
  9
$CEPSNTYPE
380
     0
  9
$PSTYLEMODE
290
     1
  9
$FINGERPRINTGUID
  2
{f9aba154-f7d0-4993-83e1-d9f29da725c6}
  9
$VERSIONGUID
  2
{FAEB1C32-E019-11D5-929B-00C0DF256EC4}
  9
$EXTNAMES
290
     1
  9
$PSVPSCALE
 40
0.0
  9
$OLESTARTUP
290
     0
  0
ENDSEC
  0
SECTION
  2
CLASSES
  0
CLASS
  1
ACDBDICTIONARYWDFLT
  2
AcDbDictionaryWithDefault
  3
ObjectDBX Classes
 90
        0
280
     0
281
     0
  0
CLASS
  1
VISUALSTYLE
  2
AcDbVisualStyle
  3
ObjectDBX Classes
 90
     4095
280
     0
281
     0
  0
CLASS
  1
MATERIAL
  2
AcDbMaterial
  3
ObjectDBX Classes
 90
     1153
280
     0
281
     0
  0
CLASS
  1
SCALE
  2
AcDbScale
  3
ObjectDBX Classes
 90
     1153
280
     0
281
     0
  0
CLASS
  1
TABLESTYLE
  2
AcDbTableStyle
  3
ObjectDBX Classes
 90
     4095
280
     0
281
     0
  0
CLASS
  1
MLEADERSTYLE
  2
AcDbMLeaderStyle
  3
ACDB_MLEADERSTYLE_CLASS
 90
     4095
280
     0
281
     0
  0
CLASS
  1
SUN
  2
AcDbSun
  3
SCENEOE
 90
     1153
280
     0
281
     0
  0
CLASS
  1
ACDBPLACEHOLDER
  2
AcDbPlaceHolder
  3
ObjectDBX Classes
 90
        0
280
     0
281
     0
  0
CLASS
  1
LAYOUT
  2
AcDbLayout
  3
ObjectDBX Classes
 90
        0
280
     0
281
     0
  0
ENDSEC
  0
SECTION
  2
TABLES
  0
TABLE
  2
VPORT
  5
8
330
0
100
AcDbSymbolTable
 70
     1
  0
VPORT
  5
29
330
8
100
AcDbSymbolTableRecord
100
AcDbViewportTableRecord
  2
*Active
 70
     0
 10
0.0
 20
0.0
 11
1.0
 21
1.0
 12
210.0
 22
148.5
 13
0.0
 23
0.0
 14
10.0
 24
10.0
 15
10.0
 25
10.0
 16
0.0
 26
0.0
 36
1.0
 17
0.0
 27
0.0
 37
0.0
 40
297.0
 41
1.4141414141
 42
50.0
 43
0.0
 44
0.0
 50
0.0
 51
0.0
 71
     0
 72
  2000
 73
     1
 74
     3
 75
     0
 76
     0
 77
     0
 78
     0
281
     0
 65
     1
110
0.0
120
0.0
130
0.0
111
1.0
121
0.0
131
0.0
112
0.0
122
1.0
132
0.0
 79
     0
146
0.0
  0
ENDTAB
  0
TABLE
  2
LTYPE
  5
5
330
0
100
AcDbSymbolTable
 70
     6
  0
LTYPE
  5
14
330
5
100
AcDbSymbolTableRecord
100
AcDbLinetypeTableRecord
  2
ByBlock
 70
     0
  3

 72
    65
 73
     0
 40
0.0
  0
LTYPE
  5
15
330
5
100
AcDbSymbolTableRecord
100
AcDbLinetypeTableRecord
  2
ByLayer
 70
     0
  3

 72
    65
 73
     0
 40
0.0
  0
LTYPE
  5
16
330
5
100
AcDbSymbolTableRecord
100
AcDbLinetypeTableRecord
  2
Continuous
 70
     0
  3
Solid line
 72
    65
 73
     0
 40
0.0
  0
LTYPE
  5
6E
330
5
100
AcDbSymbolTableRecord
100
AcDbLinetypeTableRecord
  2
HIDDEN
 70
     0
  3
Hidden __ __ __ __ __ __ __ __ __ __ __ __ __ __
 72
    65
 73
     2
 40
1.905
 49
1.27
 74
     0
 49
-0.635
 74
     0
  0
LTYPE
  5
6F
330
5
100
AcDbSymbolTableRecord
100
AcDbLinetypeTableRecord
  2
PHANTOM
 70
     0
  3
Phantom ______  __  __  ______  __  __  ______
 72
    65
 73
     6
 40
12.7
 49
6.35
 74
     0
 49
-1.27
 74
     0
 49
1.27
 74
     0
 49
-1.27
 74
     0
 49
1.27
 74
     0
 49
-1.27
 74
     0
  0
LTYPE
  5
70
330
5
100
AcDbSymbolTableRecord
100
AcDbLinetypeTableRecord
  2
CENTER
 70
     0
  3
Center ____ _ ____ _ ____ _ ____ _ ____ _ ____
 72
    65
 73
     4
 40
10.16
 49
6.35
 74
     0
 49
-1.27
 74
     0
 49
1.27
 74
     0
 49
-1.27
 74
     0
  0
LTYPE
  5
71
330
5
100
AcDbSymbolTableRecord
100
AcDbLinetypeTableRecord
  2
CENTERX2
 70
     0
  3
Center (2x) ________  __  ________  __  _____
 72
    65
 73
     4
 40
20.32
 49
12.7
 74
     0
 49
-2.54
 74
     0
 49
2.54
 74
     0
 49
-2.54
 74
     0
  0
LTYPE
  5
72
330
5
100
AcDbSymbolTableRecord
100
AcDbLinetypeTableRecord
  2
DOT2
 70
     0
  3
Dot (.5x) ........................................
 72
    65
 73
     2
 40
0.635
 49
0.0
 74
     0
 49
-0.635
 74
     0
  0
ENDTAB
  0
TABLE
  2
LAYER
  5
2
330
0
100
AcDbSymbolTable
 70
     8
  0
LAYER
  5
10
330
2
100
AcDbSymbolTableRecord
100
AcDbLayerTableRecord
  2
0
 70
     0
 62
     7
  6
Continuous
370
    -3
390
F
  0
LAYER
  5
73
330
2
100
AcDbSymbolTableRecord
100
AcDbLayerTableRecord
  2
SLD-0
 70
     0
 62
   179
  6
Continuous
370
    -3
390
F
  0
LAYER
  5
74
330
2
100
AcDbSymbolTableRecord
100
AcDbLayerTableRecord
  2
1
 70
     0
 62
   179
  6
Continuous
370
    -3
390
F
  0
LAYER
  5
75
330
2
100
AcDbSymbolTableRecord
100
AcDbLayerTableRecord
  2
FORMAT
 70
     0
 62
     7
  6
Continuous
370
    -3
390
F
  0
LAYER
  5
76
330
2
100
AcDbSymbolTableRecord
100
AcDbLayerTableRecord
  2
注記
 70
     0
 62
   190
  6
Continuous
370
    -3
390
F
  0
LAYER
  5
77
330
2
100
AcDbSymbolTableRecord
100
AcDbLayerTableRecord
  2
非表示
 70
     0
 62
     7
  6
Continuous
290
     0
370
    -3
390
F
  0
LAYER
  5
78
330
2
100
AcDbSymbolTableRecord
100
AcDbLayerTableRecord
  2
寸法
 70
     0
 62
    96
  6
Continuous
370
    -3
390
F
  0
LAYER
  5
79
330
2
100
AcDbSymbolTableRecord
100
AcDbLayerTableRecord
  2
印刷しない
 70
     0
 62
   144
  6
HIDDEN
290
     0
370
    -3
390
F
  0
ENDTAB
  0
TABLE
  2
STYLE
  5
3
330
0
100
AcDbSymbolTable
 70
     4
  0
STYLE
  5
11
330
3
100
AcDbSymbolTableRecord
100
AcDbTextStyleTableRecord
  2
Standard
 70
     0
 40
0.0
 41
1.0
 50
0.0
 71
     0
 42
3.5277777778
  3
txt
  4
bigfont
  0
STYLE
  5
8B
330
3
100
AcDbSymbolTableRecord
100
AcDbTextStyleTableRecord
  2
SLDTEXTSTYLE0
 70
     0
 40
0.0
 41
0.623
 50
0.0
 71
     0
 42
3.5277777778
  3
TXT
  4
bigfont
  0
STYLE
  5
92
330
3
100
AcDbSymbolTableRecord
100
AcDbTextStyleTableRecord
  2
SLDTEXTSTYLE1
 70
     0
 40
0.0
 41
0.6853
 50
0.0
 71
     0
 42
3.5277777778
  3
TXT
  4
bigfont
  0
STYLE
  5
96
330
3
100
AcDbSymbolTableRecord
100
AcDbTextStyleTableRecord
  2
SLDTEXTSTYLE2
 70
     0
 40
0.0
 41
0.7
 50
0.0
 71
     0
 42
3.5277777778
  3
TXT
  4
bigfont
  0
ENDTAB
  0
TABLE
  2
VIEW
  5
6
330
0
100
AcDbSymbolTable
 70
     0
  0
ENDTAB
  0
TABLE
  2
UCS
  5
7
330
0
100
AcDbSymbolTable
 70
     0
  0
ENDTAB
  0
TABLE
  2
APPID
  5
9
330
0
100
AcDbSymbolTable
 70
     1
  0
APPID
  5
12
330
9
100
AcDbSymbolTableRecord
100
AcDbRegAppTableRecord
  2
ACAD
 70
     0
  0
ENDTAB
  0
TABLE
  2
DIMSTYLE
  5
A
330
0
100
AcDbSymbolTable
 70
     1
100
AcDbDimStyleTable
  0
DIMSTYLE
105
27
330
A
100
AcDbSymbolTableRecord
100
AcDbDimStyleTableRecord
  2
ISO-25
 70
     0
 41
2.5
 42
0.625
 43
3.75
 44
1.25
 73
     0
 74
     0
 77
     1
 78
     8
140
2.5
141
2.5
143
0.0393700787
147
0.625
171
     3
172
     1
178
     0
271
     2
272
     2
274
     3
278
    44
283
     0
284
     8
340
11
  0
ENDTAB
  0
TABLE
  2
BLOCK_RECORD
  5
1
330
0
100
AcDbSymbolTable
 70
    13
  0
BLOCK_RECORD
  5
1F
330
1
100
AcDbSymbolTableRecord
100
AcDbBlockTableRecord
  2
*Model_Space
340
22
  0
BLOCK_RECORD
  5
1B
330
1
100
AcDbSymbolTableRecord
100
AcDbBlockTableRecord
  2
*Paper_Space
340
1E
  0
BLOCK_RECORD
  5
23
330
1
100
AcDbSymbolTableRecord
100
AcDbBlockTableRecord
  2
*Paper_Space0
340
26
  0
BLOCK_RECORD
  5
88
330
1
100
AcDbSymbolTableRecord
100
AcDbBlockTableRecord
  2
SW_NOTE_0
340
0
102
{BLKREFS
331
8E
102
}
  0
BLOCK_RECORD
  5
8F
330
1
100
AcDbSymbolTableRecord
100
AcDbBlockTableRecord
  2
SW_NOTE_0_1
340
0
102
{BLKREFS
331
95
102
}
  0
BLOCK_RECORD
  5
9A
330
1
100
AcDbSymbolTableRecord
100
AcDbBlockTableRecord
  2
SW_NOTE_0_2
340
0
102
{BLKREFS
331
A2
102
}
  0
BLOCK_RECORD
  5
A3
330
1
100
AcDbSymbolTableRecord
100
AcDbBlockTableRecord
  2
SW_NOTE_0_3
340
0
102
{BLKREFS
331
AA
102
}
  0
BLOCK_RECORD
  5
AB
330
1
100
AcDbSymbolTableRecord
100
AcDbBlockTableRecord
  2
SW_NOTE_0_4
340
0
102
{BLKREFS
331
B0
102
}
  0
BLOCK_RECORD
  5
109
330
1
100
AcDbSymbolTableRecord
100
AcDbBlockTableRecord
  2
SW_CENTERMARKSYMBOL_0
340
0
102
{BLKREFS
331
114
102
}
  0
BLOCK_RECORD
  5
115
330
1
100
AcDbSymbolTableRecord
100
AcDbBlockTableRecord
  2
SW_CENTERMARKSYMBOL_1
340
0
102
{BLKREFS
331
138
102
}
  0
BLOCK_RECORD
  5
207
330
1
100
AcDbSymbolTableRecord
100
AcDbBlockTableRecord
  2
SW_CENTERMARKSYMBOL_2
340
0
102
{BLKREFS
331
212
102
}
  0
BLOCK_RECORD
  5
213
330
1
100
AcDbSymbolTableRecord
100
AcDbBlockTableRecord
  2
SW_CENTERMARKSYMBOL_3
340
0
102
{BLKREFS
331
232
102
}
  0
BLOCK_RECORD
  5
233
330
1
100
AcDbSymbolTableRecord
100
AcDbBlockTableRecord
  2
SW_CENTERMARKSYMBOL_4
340
0
102
{BLKREFS
331
26E
102
}
  0
BLOCK_RECORD
  5
26F
330
1
100
AcDbSymbolTableRecord
100
AcDbBlockTableRecord
  2
SW_CENTERMARKSYMBOL_5
340
0
102
{BLKREFS
331
28E
102
}
  0
BLOCK_RECORD
  5
2B4
330
1
100
AcDbSymbolTableRecord
100
AcDbBlockTableRecord
  2
SW_HATCH_0
340
0
102
{BLKREFS
331
2C8
102
}
  0
ENDTAB
  0
ENDSEC
  0
SECTION
  2
BLOCKS
  0
BLOCK
  5
20
330
1F
100
AcDbEntity
  8
0
100
AcDbBlockBegin
  2
*Model_Space
 70
     0
 10
0.0
 20
0.0
 30
0.0
  3
*Model_Space
  1

  0
ENDBLK
  5
21
330
1F
100
AcDbEntity
  8
0
100
AcDbBlockEnd
  0
BLOCK
  5
1C
330
1B
100
AcDbEntity
 67
     1
  8
0
100
AcDbBlockBegin
  2
*Paper_Space
 70
     0
 10
0.0
 20
0.0
 30
0.0
  3
*Paper_Space
  1

  0
ENDBLK
  5
1D
330
1B
100
AcDbEntity
 67
     1
  8
0
100
AcDbBlockEnd
  0
BLOCK
  5
24
330
23
100
AcDbEntity
  8
0
100
AcDbBlockBegin
  2
*Paper_Space0
 70
     0
 10
0.0
 20
0.0
 30
0.0
  3
*Paper_Space0
  1

  0
ENDBLK
  5
25
330
23
100
AcDbEntity
  8
0
100
AcDbBlockEnd
  0
BLOCK
  5
89
330
88
100
AcDbEntity
  8
0
100
AcDbBlockBegin
  2
SW_NOTE_0
 70
     0
 10
0.0
 20
0.0
 30
0.0
  3
SW_NOTE_0
  1

  0
MTEXT
  5
8C
330
88
100
AcDbEntity
  8
1
 62
     0
100
AcDbMText
 10
6.4903945312
 20
4.7749217527
 30
0.0
 40
3.7041666667
 41
0.0
 71
     2
 72
     1
  1
製品名
  7
SLDTEXTSTYLE0
 73
     1
 44
1.0
  0
MTEXT
  5
8D
330
88
100
AcDbEntity
  8
1
 62
     0
100
AcDbMText
 10
6.5053050082
 20
-0.117119515
 30
0.0
 40
2.6458333333
 41
0.0
 71
     2
 72
     1
  1
ARTICLE
  7
SLDTEXTSTYLE0
 73
     1
 44
1.0
  0
ENDBLK
  5
8A
330
88
100
AcDbEntity
  8
0
100
AcDbBlockEnd
  0
BLOCK
  5
90
330
8F
100
AcDbEntity
  8
0
100
AcDbBlockBegin
  2
SW_NOTE_0_1
 70
     0
 10
0.0
 20
0.0
 30
0.0
  3
SW_NOTE_0_1
  1

  0
MTEXT
  5
93
330
8F
100
AcDbEntity
  8
1
 62
     0
100
AcDbMText
 10
7.1394339844
 20
4.7749217527
 30
0.0
 40
3.7041666667
 41
0.0
 71
     2
 72
     1
  1
作成日
  7
SLDTEXTSTYLE1
 73
     1
 44
1.0
  0
MTEXT
  5
94
330
8F
100
AcDbEntity
  8
1
 62
     0
100
AcDbMText
 10
7.1955670535
 20
-0.117119515
 30
0.0
 40
2.6458333333
 41
0.0
 71
     2
 72
     1
  1
DATE
  7
SLDTEXTSTYLE1
 73
     1
 44
1.0
  0
ENDBLK
  5
91
330
8F
100
AcDbEntity
  8
0
100
AcDbBlockEnd
  0
BLOCK
  5
9B
330
9A
100
AcDbEntity
  8
0
100
AcDbBlockBegin
  2
SW_NOTE_0_2
 70
     0
 10
0.0
 20
0.0
 30
0.0
  3
SW_NOTE_0_2
  1

  0
MTEXT
  5
9D
330
9A
100
AcDbEntity
  8
注記
 62
     0
100
AcDbMText
 10
0.0
 20
4.4338559133
 30
0.0
 40
3.4395833333
 41
0.0
 71
     1
 72
     1
  1
Harmonic Drive Systems,Inc.
  7
SLDTEXTSTYLE2
 73
     1
 44
1.0
  0
MTEXT
  5
9E
330
9A
100
AcDbEntity
  8
注記
 62
     0
100
AcDbMText
 10
0.0
 20
-1.1522550735
 30
0.0
 40
3.4395833333
 41
0.0
 71
     1
 72
     1
  1
Ichigo Omori Bldg.,4F 6-25-3 Minami-Oi, Shinagawa-ku, Tokyo 140-0013
  7
SLDTEXTSTYLE2
 73
     1
 44
1.0
  0
MTEXT
  5
9F
330
9A
100
AcDbEntity
  8
注記
 62
     0
100
AcDbMText
 10
0.0
 20
-6.7383660603
 30
0.0
 40
3.4395833333
 41
0.0
 71
     1
 72
     1
  1
JAPAN
  7
SLDTEXTSTYLE2
 73
     1
 44
1.0
  0
MTEXT
  5
A0
330
9A
100
AcDbEntity
  8
注記
 62
     0
100
AcDbMText
 10
0.0
 20
-12.3244770471
 30
0.0
 40
3.4395833333
 41
0.0
 71
     1
 72
     1
  1
Tel.03-5471-7800 Fax.03-5471-7811
  7
SLDTEXTSTYLE2
 73
     1
 44
1.0
  0
MTEXT
  5
A1
330
9A
100
AcDbEntity
  8
注記
 62
     0
100
AcDbMText
 10
0.0
 20
-17.9105880338
 30
0.0
 40
3.4395833333
 41
0.0
 71
     1
 72
     1
  1
http://www.hds.co.jp
  7
SLDTEXTSTYLE2
 73
     1
 44
1.0
  0
ENDBLK
  5
9C
330
9A
100
AcDbEntity
  8
0
100
AcDbBlockEnd
  0
BLOCK
  5
A4
330
A3
100
AcDbEntity
  8
0
100
AcDbBlockBegin
  2
SW_NOTE_0_3
 70
     0
 10
0.0
 20
0.0
 30
0.0
  3
SW_NOTE_0_3
  1

  0
MTEXT
  5
A6
330
A3
100
AcDbEntity
  8
注記
 62
     0
100
AcDbMText
 10
0.0
 20
4.4338559133
 30
0.0
 40
3.4395833333
 41
0.0
 71
     1
 72
     1
  1
The reference drawing
  7
SLDTEXTSTYLE2
 73
     1
 44
1.0
  0
MTEXT
  5
A7
330
A3
100
AcDbEntity
  8
注記
 62
     0
100
AcDbMText
 10
0.0
 20
-1.1522550735
 30
0.0
 40
3.4395833333
 41
0.0
 71
     1
 72
     1
  1
All speciffcations and dimensions mentioned in the drawing are
  7
SLDTEXTSTYLE2
 73
     1
 44
1.0
  0
MTEXT
  5
A8
330
A3
100
AcDbEntity
  8
注記
 62
     0
100
AcDbMText
 10
0.0
 20
-6.7383660603
 30
0.0
 40
3.4395833333
 41
0.0
 71
     1
 72
     1
  1
subject to change without notification.
  7
SLDTEXTSTYLE2
 73
     1
 44
1.0
  0
MTEXT
  5
A9
330
A3
100
AcDbEntity
  8
注記
 62
     0
100
AcDbMText
 10
0.0
 20
-12.3244770471
 30
0.0
 40
3.4395833333
 41
0.0
 71
     1
 72
     1
  1
This drawing itself is also a property of Harmonic Drive Systems,Ins.
  7
SLDTEXTSTYLE2
 73
     1
 44
1.0
  0
ENDBLK
  5
A5
330
A3
100
AcDbEntity
  8
0
100
AcDbBlockEnd
  0
BLOCK
  5
AC
330
AB
100
AcDbEntity
  8
0
100
AcDbBlockBegin
  2
SW_NOTE_0_4
 70
     0
 10
0.0
 20
0.0
 30
0.0
  3
SW_NOTE_0_4
  1

  0
MTEXT
  5
AE
330
AB
100
AcDbEntity
  8
1
 62
     0
100
AcDbMText
 10
4.3269296875
 20
4.7749217527
 30
0.0
 40
3.7041666667
 41
0.0
 71
     2
 72
     1
  1
図番
  7
SLDTEXTSTYLE0
 73
     1
 44
1.0
  0
MTEXT
  5
AF
330
AB
100
AcDbEntity
  8
1
 62
     0
100
AcDbMText
 10
4.276496122
 20
-0.117119515
 30
0.0
 40
2.6458333333
 41
0.0
 71
     2
 72
     1
  1
DWG No.
  7
SLDTEXTSTYLE0
 73
     1
 44
1.0
  0
ENDBLK
  5
AD
330
AB
100
AcDbEntity
  8
0
100
AcDbBlockEnd
  0
BLOCK
  5
10A
330
109
100
AcDbEntity
  8
0
100
AcDbBlockBegin
  2
SW_CENTERMARKSYMBOL_0
 70
     0
 10
0.0
 20
0.0
 30
0.0
  3
SW_CENTERMARKSYMBOL_0
  1

  0
LINE
  5
10C
330
109
100
AcDbEntity
  8
0
  6
Continuous
 62
     0
370
    18
100
AcDbLine
 10
0.0
 20
0.0
 30
0.0
 11
0.0
 21
4.0
 31
0.0
  0
LINE
  5
10D
330
109
100
AcDbEntity
  8
0
  6
Continuous
 62
     0
370
    18
100
AcDbLine
 10
0.0
 20
0.0
 30
0.0
 11
-4.0
 21
0.0
 31
0.0
  0
LINE
  5
10E
330
109
100
AcDbEntity
  8
0
  6
Continuous
 62
     0
370
    18
100
AcDbLine
 10
0.0
 20
0.0
 30
0.0
 11
0.0
 21
-4.0
 31
0.0
  0
LINE
  5
10F
330
109
100
AcDbEntity
  8
0
  6
Continuous
 62
     0
370
    18
100
AcDbLine
 10
0.0
 20
0.0
 30
0.0
 11
4.0
 21
0.0
 31
0.0
  0
LINE
  5
110
330
109
100
AcDbEntity
  8
0
  6
Continuous
 62
     0
370
    18
100
AcDbLine
 10
0.0
 20
8.0
 30
0.0
 11
0.0
 21
35.7596874229
 31
0.0
  0
LINE
  5
111
330
109
100
AcDbEntity
  8
0
  6
Continuous
 62
     0
370
    18
100
AcDbLine
 10
-8.0
 20
0.0
 30
0.0
 11
-35.1581767362
 21
0.0
 31
0.0
  0
LINE
  5
112
330
109
100
AcDbEntity
  8
0
  6
Continuous
 62
     0
370
    18
100
AcDbLine
 10
0.0
 20
-8.0
 30
0.0
 11
0.0
 21
-35.2012922838
 31
0.0
  0
LINE
  5
113
330
109
100
AcDbEntity
  8
0
  6
Continuous
 62
     0
370
    18
100
AcDbLine
 10
8.0
 20
0.0
 30
0.0
 11
35.0397816833
 21
0.0
 31
0.0
  0
ENDBLK
  5
10B
330
109
100
AcDbEntity
  8
0
100
AcDbBlockEnd
  0
BLOCK
  5
116
330
115
100
AcDbEntity
  8
0
100
AcDbBlockBegin
  2
SW_CENTERMARKSYMBOL_1
 70
     0
 10
0.0
 20
0.0
 30
0.0
  3
SW_CENTERMARKSYMBOL_1
  1

  0
ARC
  5
118
330
115
100
AcDbEntity
  8
0
  6
Continuous
 62
     0
370
     0
100
AcDbCircle
 10
-24.7487373415
 20
-24.7487373415
 30
0.0
 40
35.00000000000001
100
AcDbArc
 50
45.0
 51
46.6370222718
  0
ARC
  5
119
330
115
100
AcDbEntity
  8
0
  6
Continuous
 62
     0
370
     0
100
AcDbCircle
 10
-24.7487373415
 20
-24.7487373415
 30
0.0
 40
35.00000000000001
100
AcDbArc
 50
43.3629777282
 51
45.0
  0
ARC
  5
11A
330
115
100
AcDbEntity
  8
0
  6
Continuous
 62
     0
370
     0
100
AcDbCircle
 10
-24.7487373415
 20
-24.7487373415
 30
0.0
 40
35.00000000000001
100
AcDbArc
 50
48.2740445436
 51
51.9573446552
  0
ARC
  5
11B
330
115
100
AcDbEntity
  8
0
  6
Continuous
 62
     0
370
     0
100
AcDbCircle
 10
-24.7487373415
 20
-24.7487373415
 30
0.0
 40
35.00000000000001
100
AcDbArc
 50
38.0426553448
 51
41.7259554564
  0
ARC
  5
11C
330
115
100
AcDbEntity
  8
0
  6
Continuous
 62
     0
370
     0
100
AcDbCircle
 10
-24.7487373415
 20
-24.7487373415
 30
0.0
 40
34.99999999999999
100
AcDbArc
 50
315.0
 51
316.6370222718
  0
ARC
  5
11D
330
115
100
AcDbEntity
  8
0
  6
Continuous
 62
     0
370
     0
100
AcDbCircle
 10
-24.7487373415
 20
-24.7487373415
 30
0.0
 40
34.99999999999999
100
AcDbArc
 50
313.3629777282
 51
315.0
  0
ARC
  5
11E
330
115
100
AcDbEntity
  8
0
  6
Continuous
 62
     0
370
     0
100
AcDbCircle
 10
-24.7487373415
 20
-24.7487373415
 30
0.0
 40
35.00000000000001
100
AcDbArc
 50
318.2740445436
 51
321.9573446552
  0
ARC
  5
11F
330
115
100
AcDbEntity
  8
0
  6
Continuous
 62
     0
370
     0
100
AcDbCircle
 10
-24.7487373415
 20
-24.7487373415
 30
0.0
 40
34.99999999999999
100
AcDbArc
 50
308.0426553448
 51
311.7259554564
  0
ARC
  5
120
330
115
100
AcDbEntity
  8
0
  6
Continuous
 62
     0
370
     0
100
AcDbCircle
 10
-24.7487373415
 20
-24.7487373415
 30
0.0
 40
35.0
100
AcDbArc
 50
225.0
 51
226.6370222718
  0
ARC
  5
121
330
115
100
AcDbEntity
  8
0
  6
Continuous
 62
     0
370
     0
100
AcDbCircle
 10
-24.7487373415
 20
-24.7487373415
 30
0.0
 40
35.0
100
AcDbArc
 50
223.3629777282
 51
225.0
  0
ARC
  5
122
330
115
100
AcDbEntity
  8
0
  6
Continuous
 62
     0
370
     0
100
AcDbCircle
 10
-24.7487373415
 20
-24.7487373415
 30
0.0
 40
35.0
100
AcDbArc
 50
228.2740445436
 51
231.9573446552
  0
ARC
  5
123
330
115
100
AcDbEntity
  8
0
  6
Continuous
 62
     0
370
     0
100
AcDbCircle
 10
-24.7487373415
 20
-24.7487373415
 30
0.0
 40
35.0
100
AcDbArc
 50
218.0426553448
 51
221.7259554564
  0
ARC
  5
124
330
115
100
AcDbEntity
  8
0
  6
Continuous
 62
     0
370
     0
100
AcDbCircle
 10
-24.7487373415
 20
-24.7487373415
 30
0.0
 40
35.0
100
AcDbArc
 50
135.0
 51
136.6370222718
  0
ARC
  5
125
330
115
100
AcDbEntity
  8
0
  6
Continuous
 62
     0
370
     0
100
AcDbCircle
 10
-24.7487373415
 20
-24.7487373415
 30
0.0
 40
35.0
100
AcDbArc
 50
133.3629777282
 51
135.0
  0
ARC
  5
126
330
115
100
AcDbEntity
  8
0
  6
Continuous
 62
     0
370
     0
100
AcDbCircle
 10
-24.7487373415
 20
-24.7487373415
 30
0.0
 40
35.00000000000001
100
AcDbArc
 50
138.2740445436
 51
146.0566649916
  0
ARC
  5
127
330
115
100
AcDbEntity
  8
0
  6
Continuous
 62
     0
370
     0
100
AcDbCircle
 10
-24.7487373415
 20
-24.7487373415
 30
0.0
 40
35.00000000000001
100
AcDbArc
 50
128.0426553448
 51
131.7259554564
  0
LINE
  5
128
330
115
100
AcDbEntity
  8
0
  6
Continuous
 62
     0
370
    18
100
AcDbLine
 10
0.0
 20
0.0
 30
0.0
 11
0.7071067812
 21
0.7071067812
 31
0.0
  0
LINE
  5
129
330
115
100
AcDbEntity
  8
0
  6
Continuous
 62
     0
370
    18
100
AcDbLine
 10
0.0
 20
0.0
 30
0.0
 11
-0.7071067812
 21
-0.7071067812
 31
0.0
  0
LINE
  5
12A
330
115
100
AcDbEntity
  8
0
  6
Continuous
 62
     0
370
    18
100
AcDbLine
 10
1.4142135624
 20
1.4142135624
 30
0.0
 11
3.00520382
 21
3.00520382
 31
0.0
  0
LINE
  5
12B
330
115
100
AcDbEntity
  8
0
  6
Continuous
 62
     0
370
    18
100
AcDbLine
 10
-1.4142135624
 20
-1.4142135624
 30
0.0
 11
-3.00520382
 21
-3.00520382
 31
0.0
  0
LINE
  5
12C
330
115
100
AcDbEntity
  8
0
  6
Continuous
 62
     0
370
    18
100
AcDbLine
 10
0.0
 20
-49.4974746831
 30
0.0
 11
0.7071067812
 21
-50.2045814642
 31
0.0
  0
LINE
  5
12D
330
115
100
AcDbEntity
  8
0
  6
Continuous
 62
     0
370
    18
100
AcDbLine
 10
0.0
 20
-49.4974746831
 30
0.0
 11
-0.7071067812
 21
-48.7903679019
 31
0.0
  0
LINE
  5
12E
330
115
100
AcDbEntity
  8
0
  6
Continuous
 62
     0
370
    18
100
AcDbLine
 10
1.4142135624
 20
-50.9116882454
 30
0.0
 11
3.00520382
 21
-52.5026785031
 31
0.0
  0
LINE
  5
12F
330
115
100
AcDbEntity
  8
0
  6
Continuous
 62
     0
370
    18
100
AcDbLine
 10
-1.4142135624
 20
-48.0832611207
 30
0.0
 11
-3.00520382
 21
-46.492270863
 31
0.0
  0
LINE
  5
130
330
115
100
AcDbEntity
  8
0
  6
Continuous
 62
     0
370
    18
100
AcDbLine
 10
-49.4974746831
 20
-49.4974746831
 30
0.0
 11
-50.2045814642
 21
-50.2045814642
 31
0.0
  0
LINE
  5
131
330
115
100
AcDbEntity
  8
0
  6
Continuous
 62
     0
370
    18
100
AcDbLine
 10
-49.4974746831
 20
-49.4974746831
 30
0.0
 11
-48.7903679019
 21
-48.7903679019
 31
0.0
  0
LINE
  5
132
330
115
100
AcDbEntity
  8
0
  6
Continuous
 62
     0
370
    18
100
AcDbLine
 10
-50.9116882454
 20
-50.9116882454
 30
0.0
 11
-52.5026785031
 21
-52.5026785031
 31
0.0
  0
LINE
  5
133
330
115
100
AcDbEntity
  8
0
  6
Continuous
 62
     0
370
    18
100
AcDbLine
 10
-48.0832611207
 20
-48.0832611207
 30
0.0
 11
-46.492270863
 21
-46.492270863
 31
0.0
  0
LINE
  5
134
330
115
100
AcDbEntity
  8
0
  6
Continuous
 62
     0
370
    18
100
AcDbLine
 10
-49.4974746831
 20
0.0
 30
0.0
 11
-50.2045814642
 21
0.7071067812
 31
0.0
  0
LINE
  5
135
330
115
100
AcDbEntity
  8
0
  6
Continuous
 62
     0
370
    18
100
AcDbLine
 10
-49.4974746831
 20
0.0
 30
0.0
 11
-48.7903679019
 21
-0.7071067812
 31
0.0
  0
LINE
  5
136
330
115
100
AcDbEntity
  8
0
  6
Continuous
 62
     0
370
    18
100
AcDbLine
 10
-50.9116882454
 20
1.4142135624
 30
0.0
 11
-52.5026785031
 21
3.00520382
 31
0.0
  0
LINE
  5
137
330
115
100
AcDbEntity
  8
0
  6
Continuous
 62
     0
370
    18
100
AcDbLine
 10
-48.0832611207
 20
-1.4142135624
 30
0.0
 11
-46.492270863
 21
-3.00520382
 31
0.0
  0
ENDBLK
  5
117
330
115
100
AcDbEntity
  8
0
100
AcDbBlockEnd
  0
BLOCK
  5
208
330
207
100
AcDbEntity
  8
0
100
AcDbBlockBegin
  2
SW_CENTERMARKSYMBOL_2
 70
     0
 10
0.0
 20
0.0
 30
0.0
  3
SW_CENTERMARKSYMBOL_2
  1

  0
LINE
  5
20A
330
207
100
AcDbEntity
  8
0
  6
Continuous
 62
     0
370
    18
100
AcDbLine
 10
0.0
 20
0.0
 30
0.0
 11
0.0
 21
4.0
 31
0.0
  0
LINE
  5
20B
330
207
100
AcDbEntity
  8
0
  6
Continuous
 62
     0
370
    18
100
AcDbLine
 10
0.0
 20
0.0
 30
0.0
 11
-4.0
 21
0.0
 31
0.0
  0
LINE
  5
20C
330
207
100
AcDbEntity
  8
0
  6
Continuous
 62
     0
370
    18
100
AcDbLine
 10
0.0
 20
0.0
 30
0.0
 11
0.0
 21
-4.0
 31
0.0
  0
LINE
  5
20D
330
207
100
AcDbEntity
  8
0
  6
Continuous
 62
     0
370
    18
100
AcDbLine
 10
0.0
 20
0.0
 30
0.0
 11
4.0
 21
0.0
 31
0.0
  0
LINE
  5
20E
330
207
100
AcDbEntity
  8
0
  6
Continuous
 62
     0
370
    18
100
AcDbLine
 10
0.0
 20
8.0
 30
0.0
 11
0.0
 21
37.5392029613
 31
0.0
  0
LINE
  5
20F
330
207
100
AcDbEntity
  8
0
  6
Continuous
 62
     0
370
    18
100
AcDbLine
 10
-8.0
 20
0.0
 30
0.0
 11
-38.6314658691
 21
0.0
 31
0.0
  0
LINE
  5
210
330
207
100
AcDbEntity
  8
0
  6
Continuous
 62
     0
370
    18
100
AcDbLine
 10
0.0
 20
-8.0
 30
0.0
 11
0.0
 21
-38.1226264529
 31
0.0
  0
LINE
  5
211
330
207
100
AcDbEntity
  8
0
  6
Continuous
 62
     0
370
    18
100
AcDbLine
 10
8.0
 20
0.0
 30
0.0
 11
37.403824305
 21
0.0
 31
0.0
  0
ENDBLK
  5
209
330
207
100
AcDbEntity
  8
0
100
AcDbBlockEnd
  0
BLOCK
  5
214
330
213
100
AcDbEntity
  8
0
100
AcDbBlockBegin
  2
SW_CENTERMARKSYMBOL_3
 70
     0
 10
0.0
 20
0.0
 30
0.0
  3
SW_CENTERMARKSYMBOL_3
  1

  0
ARC
  5
216
330
213
100
AcDbEntity
  8
0
  6
Continuous
 62
     0
370
     0
100
AcDbCircle
 10
-24.9962247149
 20
-24.9962247149
 30
0.0
 40
35.34999999999997
100
AcDbArc
 50
45.0
 51
46.6208141305
  0
ARC
  5
217
330
213
100
AcDbEntity
  8
0
  6
Continuous
 62
     0
370
     0
100
AcDbCircle
 10
-24.9962247149
 20
-24.9962247149
 30
0.0
 40
35.34999999999997
100
AcDbArc
 50
43.3791858695
 51
45.0
  0
ARC
  5
218
330
213
100
AcDbEntity
  8
0
  6
Continuous
 62
     0
370
     0
100
AcDbCircle
 10
-24.9962247149
 20
-24.9962247149
 30
0.0
 40
35.35000000000003
100
AcDbArc
 50
135.0
 51
136.6208141305
  0
ARC
  5
219
330
213
100
AcDbEntity
  8
0
  6
Continuous
 62
     0
370
     0
100
AcDbCircle
 10
-24.9962247149
 20
-24.9962247149
 30
0.0
 40
35.35000000000003
100
AcDbArc
 50
133.3791858695
 51
135.0
  0
ARC
  5
21A
330
213
100
AcDbEntity
  8
0
  6
Continuous
 62
     0
370
     0
100
AcDbCircle
 10
-24.9962247149
 20
-24.9962247149
 30
0.0
 40
35.35000000000002
100
AcDbArc
 50
225.0
 51
226.6208141305
  0
ARC
  5
21B
330
213
100
AcDbEntity
  8
0
  6
Continuous
 62
     0
370
     0
100
AcDbCircle
 10
-24.9962247149
 20
-24.9962247149
 30
0.0
 40
35.35000000000001
100
AcDbArc
 50
223.3791858695
 51
225.0
  0
ARC
  5
21C
330
213
100
AcDbEntity
  8
0
  6
Continuous
 62
     0
370
     0
100
AcDbCircle
 10
-24.9962247149
 20
-24.9962247149
 30
0.0
 40
35.34999999999999
100
AcDbArc
 50
315.0
 51
316.6208141305
  0
ARC
  5
21D
330
213
100
AcDbEntity
  8
0
  6
Continuous
 62
     0
370
     0
100
AcDbCircle
 10
-24.9962247149
 20
-24.9962247149
 30
0.0
 40
35.34999999999999
100
AcDbArc
 50
313.3791858695
 51
315.0
  0
ARC
  5
21E
330
213
100
AcDbEntity
  8
0
  6
CENTERX2
 62
     0
370
     0
100
AcDbCircle
 10
-24.9962247149
 20
-24.9962247149
 30
0.0
 40
35.35000000000002
100
AcDbArc
 50
48.241628261
 51
131.758371739
  0
ARC
  5
21F
330
213
100
AcDbEntity
  8
0
  6
CENTERX2
 62
     0
370
     0
100
AcDbCircle
 10
-24.9962247149
 20
-24.9962247149
 30
0.0
 40
35.35000000000004
100
AcDbArc
 50
138.241628261
 51
221.758371739
  0
ARC
  5
220
330
213
100
AcDbEntity
  8
0
  6
CENTERX2
 62
     0
370
     0
100
AcDbCircle
 10
-24.9962247149
 20
-24.9962247149
 30
0.0
 40
35.35000000000002
100
AcDbArc
 50
228.241628261
 51
311.758371739
  0
ARC
  5
221
330
213
100
AcDbEntity
  8
0
  6
CENTERX2
 62
     0
370
     0
100
AcDbCircle
 10
-24.9962247149
 20
-24.9962247149
 30
0.0
 40
35.34999999999995
100
AcDbArc
 50
318.241628261
 51
41.758371739
  0
LINE
  5
222
330
213
100
AcDbEntity
  8
0
  6
Continuous
 62
     0
370
    18
100
AcDbLine
 10
0.0
 20
0.0
 30
0.0
 11
0.7071067812
 21
0.7071067812
 31
0.0
  0
LINE
  5
223
330
213
100
AcDbEntity
  8
0
  6
Continuous
 62
     0
370
    18
100
AcDbLine
 10
0.0
 20
0.0
 30
0.0
 11
-0.7071067812
 21
-0.7071067812
 31
0.0
  0
LINE
  5
224
330
213
100
AcDbEntity
  8
0
  6
Continuous
 62
     0
370
    18
100
AcDbLine
 10
1.4142135624
 20
1.4142135624
 30
0.0
 11
1.8738329701
 21
1.8738329701
 31
0.0
  0
LINE
  5
225
330
213
100
AcDbEntity
  8
0
  6
Continuous
 62
     0
370
    18
100
AcDbLine
 10
-1.4142135624
 20
-1.4142135624
 30
0.0
 11
-1.8738329701
 21
-1.8738329701
 31
0.0
  0
LINE
  5
226
330
213
100
AcDbEntity
  8
0
  6
Continuous
 62
     0
370
    18
100
AcDbLine
 10
-49.9924494299
 20
0.0
 30
0.0
 11
-50.6995562111
 21
0.7071067812
 31
0.0
  0
LINE
  5
227
330
213
100
AcDbEntity
  8
0
  6
Continuous
 62
     0
370
    18
100
AcDbLine
 10
-49.9924494299
 20
0.0
 30
0.0
 11
-49.2853426487
 21
-0.7071067812
 31
0.0
  0
LINE
  5
228
330
213
100
AcDbEntity
  8
0
  6
Continuous
 62
     0
370
    18
100
AcDbLine
 10
-51.4066629923
 20
1.4142135624
 30
0.0
 11
-51.8662824
 21
1.8738329701
 31
0.0
  0
LINE
  5
229
330
213
100
AcDbEntity
  8
0
  6
Continuous
 62
     0
370
    18
100
AcDbLine
 10
-48.5782358675
 20
-1.4142135624
 30
0.0
 11
-48.1186164597
 21
-1.8738329701
 31
0.0
  0
LINE
  5
22A
330
213
100
AcDbEntity
  8
0
  6
Continuous
 62
     0
370
    18
100
AcDbLine
 10
-49.9924494299
 20
-49.9924494299
 30
0.0
 11
-50.6995562111
 21
-50.6995562111
 31
0.0
  0
LINE
  5
22B
330
213
100
AcDbEntity
  8
0
  6
Continuous
 62
     0
370
    18
100
AcDbLine
 10
-49.9924494299
 20
-49.9924494299
 30
0.0
 11
-49.2853426487
 21
-49.2853426487
 31
0.0
  0
LINE
  5
22C
330
213
100
AcDbEntity
  8
0
  6
Continuous
 62
     0
370
    18
100
AcDbLine
 10
-51.4066629923
 20
-51.4066629923
 30
0.0
 11
-51.8662824
 21
-51.8662824
 31
0.0
  0
LINE
  5
22D
330
213
100
AcDbEntity
  8
0
  6
Continuous
 62
     0
370
    18
100
AcDbLine
 10
-48.5782358675
 20
-48.5782358675
 30
0.0
 11
-48.1186164597
 21
-48.1186164597
 31
0.0
  0
LINE
  5
22E
330
213
100
AcDbEntity
  8
0
  6
Continuous
 62
     0
370
    18
100
AcDbLine
 10
0.0
 20
-49.9924494299
 30
0.0
 11
0.7071067812
 21
-50.6995562111
 31
0.0
  0
LINE
  5
22F
330
213
100
AcDbEntity
  8
0
  6
Continuous
 62
     0
370
    18
100
AcDbLine
 10
0.0
 20
-49.9924494299
 30
0.0
 11
-0.7071067812
 21
-49.2853426487
 31
0.0
  0
LINE
  5
230
330
213
100
AcDbEntity
  8
0
  6
Continuous
 62
     0
370
    18
100
AcDbLine
 10
1.4142135624
 20
-51.4066629923
 30
0.0
 11
1.8738329701
 21
-51.8662824
 31
0.0
  0
LINE
  5
231
330
213
100
AcDbEntity
  8
0
  6
Continuous
 62
     0
370
    18
100
AcDbLine
 10
-1.4142135624
 20
-48.5782358675
 30
0.0
 11
-1.8738329701
 21
-48.1186164597
 31
0.0
  0
ENDBLK
  5
215
330
213
100
AcDbEntity
  8
0
100
AcDbBlockEnd
  0
BLOCK
  5
234
330
233
100
AcDbEntity
  8
0
100
AcDbBlockBegin
  2
SW_CENTERMARKSYMBOL_4
 70
     0
 10
0.0
 20
0.0
 30
0.0
  3
SW_CENTERMARKSYMBOL_4
  1

  0
ARC
  5
236
330
233
100
AcDbEntity
  8
0
  6
Continuous
 62
     0
370
     0
100
AcDbCircle
 10
-13.1657244924
 20
-25.8391892015
 30
0.0
 40
29.0
100
AcDbArc
 50
63.0
 51
64.9757165349
  0
ARC
  5
237
330
233
100
AcDbEntity
  8
0
  6
Continuous
 62
     0
370
     0
100
AcDbCircle
 10
-13.1657244924
 20
-25.8391892015
 30
0.0
 40
29.0
100
AcDbArc
 50
61.0242834651
 51
63.0
  0
ARC
  5
238
330
233
100
AcDbEntity
  8
0
  6
Continuous
 62
     0
370
     0
100
AcDbCircle
 10
-13.1657244924
 20
-25.8391892015
 30
0.0
 40
28.99999999999999
100
AcDbArc
 50
66.9514330699
 51
71.3967952735
  0
ARC
  5
239
330
233
100
AcDbEntity
  8
0
  6
Continuous
 62
     0
370
     0
100
AcDbCircle
 10
-13.1657244924
 20
-25.8391892015
 30
0.0
 40
29.0
100
AcDbArc
 50
54.6032047265
 51
59.0485669301
  0
ARC
  5
23A
330
233
100
AcDbEntity
  8
0
  6
Continuous
 62
     0
370
     0
100
AcDbCircle
 10
-13.1657244924
 20
-25.8391892015
 30
0.0
 40
28.99999999999997
100
AcDbArc
 50
27.0
 51
28.9757165349
  0
ARC
  5
23B
330
233
100
AcDbEntity
  8
0
  6
Continuous
 62
     0
370
     0
100
AcDbCircle
 10
-13.1657244924
 20
-25.8391892015
 30
0.0
 40
28.99999999999998
100
AcDbArc
 50
25.0242834651
 51
27.0
  0
ARC
  5
23C
330
233
100
AcDbEntity
  8
0
  6
Continuous
 62
     0
370
     0
100
AcDbCircle
 10
-13.1657244924
 20
-25.8391892015
 30
0.0
 40
28.99999999999996
100
AcDbArc
 50
30.9514330699
 51
35.3967952735
  0
ARC
  5
23D
330
233
100
AcDbEntity
  8
0
  6
Continuous
 62
     0
370
     0
100
AcDbCircle
 10
-13.1657244924
 20
-25.8391892015
 30
0.0
 40
28.99999999999996
100
AcDbArc
 50
18.6032047265
 51
23.0485669301
  0
ARC
  5
23E
330
233
100
AcDbEntity
  8
0
  6
Continuous
 62
     0
370
     0
100
AcDbCircle
 10
-13.1657244924
 20
-25.8391892015
 30
0.0
 40
28.99999999999998
100
AcDbArc
 50
333.0
 51
334.9757165349
  0
ARC
  5
23F
330
233
100
AcDbEntity
  8
0
  6
Continuous
 62
     0
370
     0
100
AcDbCircle
 10
-13.1657244924
 20
-25.8391892015
 30
0.0
 40
28.99999999999998
100
AcDbArc
 50
331.0242834651
 51
333.0
  0
ARC
  5
240
330
233
100
AcDbEntity
  8
0
  6
Continuous
 62
     0
370
     0
100
AcDbCircle
 10
-13.1657244924
 20
-25.8391892015
 30
0.0
 40
28.99999999999998
100
AcDbArc
 50
336.9514330699
 51
341.3967952735
  0
ARC
  5
241
330
233
100
AcDbEntity
  8
0
  6
Continuous
 62
     0
370
     0
100
AcDbCircle
 10
-13.1657244924
 20
-25.8391892015
 30
0.0
 40
28.99999999999996
100
AcDbArc
 50
324.6032047265
 51
329.0485669301
  0
ARC
  5
242
330
233
100
AcDbEntity
  8
0
  6
Continuous
 62
     0
370
     0
100
AcDbCircle
 10
-13.1657244924
 20
-25.8391892015
 30
0.0
 40
28.99999999999999
100
AcDbArc
 50
297.0
 51
298.9757165349
  0
ARC
  5
243
330
233
100
AcDbEntity
  8
0
  6
Continuous
 62
     0
370
     0
100
AcDbCircle
 10
-13.1657244924
 20
-25.8391892015
 30
0.0
 40
28.99999999999998
100
AcDbArc
 50
295.0242834651
 51
297.0
  0
ARC
  5
244
330
233
100
AcDbEntity
  8
0
  6
Continuous
 62
     0
370
     0
100
AcDbCircle
 10
-13.1657244924
 20
-25.8391892015
 30
0.0
 40
28.99999999999998
100
AcDbArc
 50
300.9514330699
 51
305.3967952735
  0
ARC
  5
245
330
233
100
AcDbEntity
  8
0
  6
Continuous
 62
     0
370
     0
100
AcDbCircle
 10
-13.1657244924
 20
-25.8391892015
 30
0.0
 40
28.99999999999999
100
AcDbArc
 50
288.6032047265
 51
293.0485669301
  0
ARC
  5
246
330
233
100
AcDbEntity
  8
0
  6
Continuous
 62
     0
370
     0
100
AcDbCircle
 10
-13.1657244924
 20
-25.8391892015
 30
0.0
 40
29.00000000000001
100
AcDbArc
 50
243.0
 51
244.9757165349
  0
ARC
  5
247
330
233
100
AcDbEntity
  8
0
  6
Continuous
 62
     0
370
     0
100
AcDbCircle
 10
-13.1657244924
 20
-25.8391892015
 30
0.0
 40
29.0
100
AcDbArc
 50
241.0242834651
 51
243.0
  0
ARC
  5
248
330
233
100
AcDbEntity
  8
0
  6
Continuous
 62
     0
370
     0
100
AcDbCircle
 10
-13.1657244924
 20
-25.8391892015
 30
0.0
 40
29.00000000000001
100
AcDbArc
 50
246.9514330699
 51
251.3967952735
  0
ARC
  5
249
330
233
100
AcDbEntity
  8
0
  6
Continuous
 62
     0
370
     0
100
AcDbCircle
 10
-13.1657244924
 20
-25.8391892015
 30
0.0
 40
29.00000000000001
100
AcDbArc
 50
234.6032047265
 51
239.0485669301
  0
ARC
  5
24A
330
233
100
AcDbEntity
  8
0
  6
Continuous
 62
     0
370
     0
100
AcDbCircle
 10
-13.1657244924
 20
-25.8391892015
 30
0.0
 40
29.00000000000002
100
AcDbArc
 50
207.0
 51
208.9757165349
  0
ARC
  5
24B
330
233
100
AcDbEntity
  8
0
  6
Continuous
 62
     0
370
     0
100
AcDbCircle
 10
-13.1657244924
 20
-25.8391892015
 30
0.0
 40
29.00000000000002
100
AcDbArc
 50
205.0242834651
 51
207.0
  0
ARC
  5
24C
330
233
100
AcDbEntity
  8
0
  6
Continuous
 62
     0
370
     0
100
AcDbCircle
 10
-13.1657244924
 20
-25.8391892015
 30
0.0
 40
29.00000000000001
100
AcDbArc
 50
210.9514330699
 51
215.3967952735
  0
ARC
  5
24D
330
233
100
AcDbEntity
  8
0
  6
Continuous
 62
     0
370
     0
100
AcDbCircle
 10
-13.1657244924
 20
-25.8391892015
 30
0.0
 40
29.00000000000001
100
AcDbArc
 50
198.6032047265
 51
203.0485669301
  0
ARC
  5
24E
330
233
100
AcDbEntity
  8
0
  6
Continuous
 62
     0
370
     0
100
AcDbCircle
 10
-13.1657244924
 20
-25.8391892015
 30
0.0
 40
29.00000000000002
100
AcDbArc
 50
153.0
 51
154.9757165349
  0
ARC
  5
24F
330
233
100
AcDbEntity
  8
0
  6
Continuous
 62
     0
370
     0
100
AcDbCircle
 10
-13.1657244924
 20
-25.8391892015
 30
0.0
 40
29.00000000000002
100
AcDbArc
 50
151.0242834651
 51
153.0
  0
ARC
  5
250
330
233
100
AcDbEntity
  8
0
  6
Continuous
 62
     0
370
     0
100
AcDbCircle
 10
-13.1657244924
 20
-25.8391892015
 30
0.0
 40
29.00000000000001
100
AcDbArc
 50
156.9514330699
 51
161.3967952735
  0
ARC
  5
251
330
233
100
AcDbEntity
  8
0
  6
Continuous
 62
     0
370
     0
100
AcDbCircle
 10
-13.1657244924
 20
-25.8391892015
 30
0.0
 40
29.00000000000001
100
AcDbArc
 50
144.6032047265
 51
149.0485669301
  0
LINE
  5
252
330
233
100
AcDbEntity
  8
0
  6
Continuous
 62
     0
370
    18
100
AcDbLine
 10
0.0
 20
0.0
 30
0.0
 11
0.4539904997
 21
0.8910065242
 31
0.0
  0
LINE
  5
253
330
233
100
AcDbEntity
  8
0
  6
Continuous
 62
     0
370
    18
100
AcDbLine
 10
0.0
 20
0.0
 30
0.0
 11
-0.4539904997
 21
-0.8910065242
 31
0.0
  0
LINE
  5
254
330
233
100
AcDbEntity
  8
0
  6
Continuous
 62
     0
370
    18
100
AcDbLine
 10
0.9079809995
 20
1.7820130484
 30
0.0
 11
1.9294596239
 21
3.7867777278
 31
0.0
  0
LINE
  5
255
330
233
100
AcDbEntity
  8
0
  6
Continuous
 62
     0
370
    18
100
AcDbLine
 10
-0.9079809995
 20
-1.7820130484
 30
0.0
 11
-1.9294596239
 21
-3.7867777278
 31
0.0
  0
LINE
  5
256
330
233
100
AcDbEntity
  8
0
  6
Continuous
 62
     0
370
    18
100
AcDbLine
 10
12.673464709
 20
-12.673464709
 30
0.0
 11
13.5644712332
 21
-12.2194742093
 31
0.0
  0
LINE
  5
257
330
233
100
AcDbEntity
  8
0
  6
Continuous
 62
     0
370
    18
100
AcDbLine
 10
12.673464709
 20
-12.673464709
 30
0.0
 11
11.7824581848
 21
-13.1274552088
 31
0.0
  0
LINE
  5
258
330
233
100
AcDbEntity
  8
0
  6
Continuous
 62
     0
370
    18
100
AcDbLine
 10
14.4554777574
 20
-11.7654837095
 30
0.0
 11
16.4602424368
 21
-10.7440050851
 31
0.0
  0
LINE
  5
259
330
233
100
AcDbEntity
  8
0
  6
Continuous
 62
     0
370
    18
100
AcDbLine
 10
10.8914516606
 20
-13.5814457085
 30
0.0
 11
8.8866869812
 21
-14.6029243329
 31
0.0
  0
LINE
  5
25A
330
233
100
AcDbEntity
  8
0
  6
Continuous
 62
     0
370
    18
100
AcDbLine
 10
12.673464709
 20
-39.0049136939
 30
0.0
 11
13.5644712332
 21
-39.4589041936
 31
0.0
  0
LINE
  5
25B
330
233
100
AcDbEntity
  8
0
  6
Continuous
 62
     0
370
    18
100
AcDbLine
 10
12.673464709
 20
-39.0049136939
 30
0.0
 11
11.7824581848
 21
-38.5509231942
 31
0.0
  0
LINE
  5
25C
330
233
100
AcDbEntity
  8
0
  6
Continuous
 62
     0
370
    18
100
AcDbLine
 10
14.4554777574
 20
-39.9128946934
 30
0.0
 11
16.4602424368
 21
-40.9343733178
 31
0.0
  0
LINE
  5
25D
330
233
100
AcDbEntity
  8
0
  6
Continuous
 62
     0
370
    18
100
AcDbLine
 10
10.8914516606
 20
-38.0969326944
 30
0.0
 11
8.8866869812
 21
-37.07545407
 31
0.0
  0
LINE
  5
25E
330
233
100
AcDbEntity
  8
0
  6
Continuous
 62
     0
370
    18
100
AcDbLine
 10
0.0
 20
-51.6783784029
 30
0.0
 11
0.4539904997
 21
-52.5693849271
 31
0.0
  0
LINE
  5
25F
330
233
100
AcDbEntity
  8
0
  6
Continuous
 62
     0
370
    18
100
AcDbLine
 10
0.0
 20
-51.6783784029
 30
0.0
 11
-0.4539904997
 21
-50.7873718787
 31
0.0
  0
LINE
  5
260
330
233
100
AcDbEntity
  8
0
  6
Continuous
 62
     0
370
    18
100
AcDbLine
 10
0.9079809995
 20
-53.4603914513
 30
0.0
 11
1.9294596239
 21
-55.4651561307
 31
0.0
  0
LINE
  5
261
330
233
100
AcDbEntity
  8
0
  6
Continuous
 62
     0
370
    18
100
AcDbLine
 10
-0.9079809995
 20
-49.8963653545
 30
0.0
 11
-1.9294596239
 21
-47.8916006751
 31
0.0
  0
LINE
  5
262
330
233
100
AcDbEntity
  8
0
  6
Continuous
 62
     0
370
    18
100
AcDbLine
 10
-26.3314489849
 20
-51.6783784029
 30
0.0
 11
-26.7854394846
 21
-52.5693849271
 31
0.0
  0
LINE
  5
263
330
233
100
AcDbEntity
  8
0
  6
Continuous
 62
     0
370
    18
100
AcDbLine
 10
-26.3314489849
 20
-51.6783784029
 30
0.0
 11
-25.8774584852
 21
-50.7873718787
 31
0.0
  0
LINE
  5
264
330
233
100
AcDbEntity
  8
0
  6
Continuous
 62
     0
370
    18
100
AcDbLine
 10
-27.2394299844
 20
-53.4603914513
 30
0.0
 11
-28.2609086088
 21
-55.4651561307
 31
0.0
  0
LINE
  5
265
330
233
100
AcDbEntity
  8
0
  6
Continuous
 62
     0
370
    18
100
AcDbLine
 10
-25.4234679854
 20
-49.8963653545
 30
0.0
 11
-24.401989361
 21
-47.8916006751
 31
0.0
  0
LINE
  5
266
330
233
100
AcDbEntity
  8
0
  6
Continuous
 62
     0
370
    18
100
AcDbLine
 10
-39.0049136939
 20
-39.0049136939
 30
0.0
 11
-39.8959202181
 21
-39.4589041936
 31
0.0
  0
LINE
  5
267
330
233
100
AcDbEntity
  8
0
  6
Continuous
 62
     0
370
    18
100
AcDbLine
 10
-39.0049136939
 20
-39.0049136939
 30
0.0
 11
-38.1139071697
 21
-38.5509231942
 31
0.0
  0
LINE
  5
268
330
233
100
AcDbEntity
  8
0
  6
Continuous
 62
     0
370
    18
100
AcDbLine
 10
-40.7869267423
 20
-39.9128946934
 30
0.0
 11
-42.7916914217
 21
-40.9343733178
 31
0.0
  0
LINE
  5
269
330
233
100
AcDbEntity
  8
0
  6
Continuous
 62
     0
370
    18
100
AcDbLine
 10
-37.2229006455
 20
-38.0969326944
 30
0.0
 11
-35.2181359661
 21
-37.07545407
 31
0.0
  0
LINE
  5
26A
330
233
100
AcDbEntity
  8
0
  6
Continuous
 62
     0
370
    18
100
AcDbLine
 10
-39.0049136939
 20
-12.673464709
 30
0.0
 11
-39.8959202181
 21
-12.2194742093
 31
0.0
  0
LINE
  5
26B
330
233
100
AcDbEntity
  8
0
  6
Continuous
 62
     0
370
    18
100
AcDbLine
 10
-39.0049136939
 20
-12.673464709
 30
0.0
 11
-38.1139071697
 21
-13.1274552088
 31
0.0
  0
LINE
  5
26C
330
233
100
AcDbEntity
  8
0
  6
Continuous
 62
     0
370
    18
100
AcDbLine
 10
-40.7869267423
 20
-11.7654837095
 30
0.0
 11
-42.7916914217
 21
-10.7440050851
 31
0.0
  0
LINE
  5
26D
330
233
100
AcDbEntity
  8
0
  6
Continuous
 62
     0
370
    18
100
AcDbLine
 10
-37.2229006455
 20
-13.5814457085
 30
0.0
 11
-35.2181359661
 21
-14.6029243329
 31
0.0
  0
ENDBLK
  5
235
330
233
100
AcDbEntity
  8
0
100
AcDbBlockEnd
  0
BLOCK
  5
270
330
26F
100
AcDbEntity
  8
0
100
AcDbBlockBegin
  2
SW_CENTERMARKSYMBOL_5
 70
     0
 10
0.0
 20
0.0
 30
0.0
  3
SW_CENTERMARKSYMBOL_5
  1

  0
LINE
  5
272
330
26F
100
AcDbEntity
  8
0
  6
Continuous
 62
     0
370
    18
100
AcDbLine
 10
0.0
 20
0.0
 30
0.0
 11
0.0
 21
1.0
 31
0.0
  0
LINE
  5
273
330
26F
100
AcDbEntity
  8
0
  6
Continuous
 62
     0
370
    18
100
AcDbLine
 10
0.0
 20
0.0
 30
0.0
 11
-1.0
 21
0.0
 31
0.0
  0
LINE
  5
274
330
26F
100
AcDbEntity
  8
0
  6
Continuous
 62
     0
370
    18
100
AcDbLine
 10
0.0
 20
0.0
 30
0.0
 11
0.0
 21
-1.0
 31
0.0
  0
LINE
  5
275
330
26F
100
AcDbEntity
  8
0
  6
Continuous
 62
     0
370
    18
100
AcDbLine
 10
0.0
 20
0.0
 30
0.0
 11
1.0
 21
0.0
 31
0.0
  0
LINE
  5
276
330
26F
100
AcDbEntity
  8
0
  6
Continuous
 62
     0
370
    18
100
AcDbLine
 10
0.0
 20
2.0
 30
0.0
 11
0.0
 21
2.65
 31
0.0
  0
LINE
  5
277
330
26F
100
AcDbEntity
  8
0
  6
Continuous
 62
     0
370
    18
100
AcDbLine
 10
2.0
 20
0.0
 30
0.0
 11
2.65
 21
0.0
 31
0.0
  0
LINE
  5
278
330
26F
100
AcDbEntity
  8
0
  6
Continuous
 62
     0
370
    18
100
AcDbLine
 10
0.0
 20
-49.9924494299
 30
0.0
 11
0.0
 21
-48.9924494299
 31
0.0
  0
LINE
  5
279
330
26F
100
AcDbEntity
  8
0
  6
Continuous
 62
     0
370
    18
100
AcDbLine
 10
0.0
 20
-49.9924494299
 30
0.0
 11
-1.0
 21
-49.9924494299
 31
0.0
  0
LINE
  5
27A
330
26F
100
AcDbEntity
  8
0
  6
Continuous
 62
     0
370
    18
100
AcDbLine
 10
0.0
 20
-49.9924494299
 30
0.0
 11
0.0
 21
-50.9924494299
 31
0.0
  0
LINE
  5
27B
330
26F
100
AcDbEntity
  8
0
  6
Continuous
 62
     0
370
    18
100
AcDbLine
 10
0.0
 20
-49.9924494299
 30
0.0
 11
1.0
 21
-49.9924494299
 31
0.0
  0
LINE
  5
27C
330
26F
100
AcDbEntity
  8
0
  6
Continuous
 62
     0
370
    18
100
AcDbLine
 10
0.0
 20
-51.9924494299
 30
0.0
 11
0.0
 21
-52.6424494299
 31
0.0
  0
LINE
  5
27D
330
26F
100
AcDbEntity
  8
0
  6
Continuous
 62
     0
370
    18
100
AcDbLine
 10
2.0
 20
-49.9924494299
 30
0.0
 11
2.65
 21
-49.9924494299
 31
0.0
  0
LINE
  5
27E
330
26F
100
AcDbEntity
  8
0
  6
Continuous
 62
     0
370
    18
100
AcDbLine
 10
-49.9924494299
 20
-49.9924494299
 30
0.0
 11
-49.9924494299
 21
-48.9924494299
 31
0.0
  0
LINE
  5
27F
330
26F
100
AcDbEntity
  8
0
  6
Continuous
 62
     0
370
    18
100
AcDbLine
 10
-49.9924494299
 20
-49.9924494299
 30
0.0
 11
-50.9924494299
 21
-49.9924494299
 31
0.0
  0
LINE
  5
280
330
26F
100
AcDbEntity
  8
0
  6
Continuous
 62
     0
370
    18
100
AcDbLine
 10
-49.9924494299
 20
-49.9924494299
 30
0.0
 11
-49.9924494299
 21
-50.9924494299
 31
0.0
  0
LINE
  5
281
330
26F
100
AcDbEntity
  8
0
  6
Continuous
 62
     0
370
    18
100
AcDbLine
 10
-49.9924494299
 20
-49.9924494299
 30
0.0
 11
-48.9924494299
 21
-49.9924494299
 31
0.0
  0
LINE
  5
282
330
26F
100
AcDbEntity
  8
0
  6
Continuous
 62
     0
370
    18
100
AcDbLine
 10
-51.9924494299
 20
-49.9924494299
 30
0.0
 11
-52.6424494299
 21
-49.9924494299
 31
0.0
  0
LINE
  5
283
330
26F
100
AcDbEntity
  8
0
  6
Continuous
 62
     0
370
    18
100
AcDbLine
 10
-49.9924494299
 20
-51.9924494299
 30
0.0
 11
-49.9924494299
 21
-52.6424494299
 31
0.0
  0
LINE
  5
284
330
26F
100
AcDbEntity
  8
0
  6
Continuous
 62
     0
370
    18
100
AcDbLine
 10
-49.9924494299
 20
0.0
 30
0.0
 11
-49.9924494299
 21
1.0
 31
0.0
  0
LINE
  5
285
330
26F
100
AcDbEntity
  8
0
  6
Continuous
 62
     0
370
    18
100
AcDbLine
 10
-49.9924494299
 20
0.0
 30
0.0
 11
-50.9924494299
 21
0.0
 31
0.0
  0
LINE
  5
286
330
26F
100
AcDbEntity
  8
0
  6
Continuous
 62
     0
370
    18
100
AcDbLine
 10
-49.9924494299
 20
0.0
 30
0.0
 11
-49.9924494299
 21
-1.0
 31
0.0
  0
LINE
  5
287
330
26F
100
AcDbEntity
  8
0
  6
Continuous
 62
     0
370
    18
100
AcDbLine
 10
-49.9924494299
 20
0.0
 30
0.0
 11
-48.9924494299
 21
0.0
 31
0.0
  0
LINE
  5
288
330
26F
100
AcDbEntity
  8
0
  6
Continuous
 62
     0
370
    18
100
AcDbLine
 10
-49.9924494299
 20
2.0
 30
0.0
 11
-49.9924494299
 21
2.65
 31
0.0
  0
LINE
  5
289
330
26F
100
AcDbEntity
  8
0
  6
Continuous
 62
     0
370
    18
100
AcDbLine
 10
-51.9924494299
 20
0.0
 30
0.0
 11
-52.6424494299
 21
0.0
 31
0.0
  0
LINE
  5
28A
330
26F
100
AcDbEntity
  8
0
  6
CENTERX2
 62
     0
370
    18
100
AcDbLine
 10
-47.9924494299
 20
-49.9924494299
 30
0.0
 11
-2.0
 21
-49.9924494299
 31
0.0
  0
LINE
  5
28B
330
26F
100
AcDbEntity
  8
0
  6
CENTERX2
 62
     0
370
    18
100
AcDbLine
 10
-47.9924494299
 20
0.0
 30
0.0
 11
-2.0
 21
0.0
 31
0.0
  0
LINE
  5
28C
330
26F
100
AcDbEntity
  8
0
  6
CENTERX2
 62
     0
370
    18
100
AcDbLine
 10
-49.9924494299
 20
-47.9924494299
 30
0.0
 11
-49.9924494299
 21
-2.0
 31
0.0
  0
LINE
  5
28D
330
26F
100
AcDbEntity
  8
0
  6
CENTERX2
 62
     0
370
    18
100
AcDbLine
 10
0.0
 20
-47.9924494299
 30
0.0
 11
0.0
 21
-2.0
 31
0.0
  0
ENDBLK
  5
271
330
26F
100
AcDbEntity
  8
0
100
AcDbBlockEnd
  0
BLOCK
  5
2B5
330
2B4
100
AcDbEntity
  8
0
100
AcDbBlockBegin
  2
SW_HATCH_0
 70
     0
 10
0.0
 20
0.0
 30
0.0
  3
SW_HATCH_0
  1

  0
LINE
  5
2B7
330
2B4
100
AcDbEntity
  8
0
  6
Continuous
 62
     0
370
    18
100
AcDbLine
 10
0.0
 20
0.0
 30
0.0
 11
-0.7435083389
 21
-0.7435083389
 31
0.0
  0
LINE
  5
2B8
330
2B4
100
AcDbEntity
  8
0
  6
Continuous
 62
     0
370
    18
100
AcDbLine
 10
-0.7369294763
 20
2.2564902902
 30
0.0
 11
-3.7369281054
 21
-0.7435083389
 31
0.0
  0
LINE
  5
2B9
330
2B4
100
AcDbEntity
  8
0
  6
Continuous
 62
     0
370
    18
100
AcDbLine
 10
0.0
 20
5.9868358076
 30
0.0
 11
-0.4303455353
 21
5.5564902723
 31
0.0
  0
LINE
  5
2BA
330
2B4
100
AcDbEntity
  8
0
  6
Continuous
 62
     0
370
    18
100
AcDbLine
 10
-3.7303455174
 20
2.2564902902
 30
0.0
 11
-6.7303478718
 21
-0.7435083389
 31
0.0
  0
LINE
  5
2BB
330
2B4
100
AcDbEntity
  8
0
  6
Continuous
 62
     0
370
    18
100
AcDbLine
 10
0.0
 20
8.980255574
 30
0.0
 11
-3.4237653017
 21
5.5564902723
 31
0.0
  0
LINE
  5
2BC
330
2B4
100
AcDbEntity
  8
0
  6
Continuous
 62
     0
370
    18
100
AcDbLine
 10
-6.7237652838
 20
2.2564902902
 30
0.0
 11
-9.7237639129
 21
-0.7435083389
 31
0.0
  0
LINE
  5
2BD
330
2B4
100
AcDbEntity
  8
0
  6
Continuous
 62
     0
370
    18
100
AcDbLine
 10
0.0
 20
11.9736716151
 30
0.0
 11
-6.4171850681
 21
5.5564902723
 31
0.0
  0
LINE
  5
2BE
330
2B4
100
AcDbEntity
  8
0
  6
Continuous
 62
     0
370
    18
100
AcDbLine
 10
-9.7171850502
 20
2.2564902902
 30
0.0
 11
-11.8585936725
 21
0.1150816679
 31
0.0
  0
LINE
  5
2BF
330
2B4
100
AcDbEntity
  8
0
  6
Continuous
 62
     0
370
    18
100
AcDbLine
 10
0.0
 20
14.9670913815
 30
0.0
 11
-9.4106048346
 21
5.5564902723
 31
0.0
  0
LINE
  5
2C0
330
2B4
100
AcDbEntity
  8
0
  6
Continuous
 62
     0
370
    18
100
AcDbLine
 10
-12.5790461898
 20
2.3880451918
 30
0.0
 11
-13.3553035557
 21
1.6117915511
 31
0.0
  0
LINE
  5
2C1
330
2B4
100
AcDbEntity
  8
0
  6
Continuous
 62
     0
370
    18
100
AcDbLine
 10
-1.954022795
 20
16.0064920783
 30
0.0
 11
-12.4040208757
 21
5.5564902723
 31
0.0
  0
LINE
  5
2C2
330
2B4
100
AcDbEntity
  8
0
  6
Continuous
 62
     0
370
    18
100
AcDbLine
 10
-12.6444883645
 20
5.3160227835
 30
0.0
 11
-14.8520134389
 21
3.1085014343
 31
0.0
  0
LINE
  5
2C3
330
2B4
100
AcDbEntity
  8
0
  6
Continuous
 62
     0
370
    18
100
AcDbLine
 10
-4.9474388361
 20
16.0064920783
 30
0.0
 11
-16.3487195969
 21
4.6052113175
 31
0.0
  0
LINE
  5
2C4
330
2B4
100
AcDbEntity
  8
0
  6
Continuous
 62
     0
370
    18
100
AcDbLine
 10
-7.9408586025
 20
16.0064920783
 30
0.0
 11
-17.8454313427
 21
6.1019212008
 31
0.0
  0
LINE
  5
2C5
330
2B4
100
AcDbEntity
  8
0
  6
Continuous
 62
     0
370
    18
100
AcDbLine
 10
-10.9342783689
 20
16.0064920783
 30
0.0
 11
-18.4229146689
 21
8.5178539157
 31
0.0
  0
LINE
  5
2C6
330
2B4
100
AcDbEntity
  8
0
  6
Continuous
 62
     0
370
    18
100
AcDbLine
 10
-13.9276981354
 20
16.0064920783
 30
0.0
 11
-18.2048678398
 21
11.7293223739
 31
0.0
  0
LINE
  5
2C7
330
2B4
100
AcDbEntity
  8
0
  6
Continuous
 62
     0
370
    18
100
AcDbLine
 10
-16.9211141765
 20
16.0064920783
 30
0.0
 11
-16.978610307
 21
15.9489959478
 31
0.0
  0
ENDBLK
  5
2B6
330
2B4
100
AcDbEntity
  8
0
100
AcDbBlockEnd
  0
ENDSEC
  0
SECTION
  2
ENTITIES
  0
LINE
  5
7A
330
1F
100
AcDbEntity
  8
0
  6
Continuous
 62
     7
370
    18
100
AcDbLine
 10
318.7951314664
 20
43.2174325128
 30
0.0
 11
318.7951314664
 21
8.5809422118
 31
0.0
  0
LINE
  5
7B
330
1F
100
AcDbEntity
  8
0
  6
Continuous
 62
     7
370
    50
100
AcDbLine
 10
8.460566722
 20
66.2675325183
 30
0.0
 11
195.0793570731
 21
66.2675325183
 31
0.0
  0
LINE
  5
7C
330
1F
100
AcDbEntity
  8
0
  6
Continuous
 62
     7
370
    50
100
AcDbLine
 10
8.460566722
 20
66.2675325183
 30
0.0
 11
8.460566722
 21
8.5809422118
 31
0.0
  0
LINE
  5
7D
330
1F
100
AcDbEntity
  8
0
  6
Continuous
 62
     7
370
    50
100
AcDbLine
 10
8.460566722
 20
8.5809422118
 30
0.0
 11
195.0793570731
 21
8.5809422118
 31
0.0
  0
LINE
  5
7E
330
1F
100
AcDbEntity
  8
0
  6
Continuous
 62
     7
370
    50
100
AcDbLine
 10
195.0793570731
 20
66.2675325183
 30
0.0
 11
195.0793570731
 21
8.5809422118
 31
0.0
  0
LINE
  5
7F
330
1F
100
AcDbEntity
  8
0
  6
Continuous
 62
     7
370
    35
100
AcDbLine
 10
410.0085420567
 20
8.5809422118
 30
0.0
 11
300.0085420567
 21
8.5809422118
 31
0.0
  0
LINE
  5
80
330
1F
100
AcDbEntity
  8
0
  6
Continuous
 62
     7
370
    18
100
AcDbLine
 10
300.0085420567
 20
31.670591567
 30
0.0
 11
410.0085420567
 21
31.670591567
 31
0.0
  0
LINE
  5
81
330
1F
100
AcDbEntity
  8
1
  6
Continuous
 62
     7
100
AcDbLine
 10
300.0085420567
 20
19.0809422118
 30
0.0
 11
410.0085420567
 21
19.0809422118
 31
0.0
  0
LINE
  5
82
330
1F
100
AcDbEntity
  8
1
  6
Continuous
 62
     7
100
AcDbLine
 10
392.6593923614
 20
12.5809422118
 30
0.0
 11
396.6593923614
 21
12.5809422118
 31
0.0
  0
LINE
  5
83
330
1F
100
AcDbEntity
  8
1
  6
Continuous
 62
     7
370
    35
100
AcDbLine
 10
410.0085420567
 20
43.2174325128
 30
0.0
 11
300.0085420567
 21
43.2174325128
 31
0.0
  0
LINE
  5
84
330
1F
100
AcDbEntity
  8
1
  6
Continuous
 62
     7
370
    35
100
AcDbLine
 10
300.0085420567
 20
43.2174325128
 30
0.0
 11
300.0085420567
 21
8.5809422118
 31
0.0
  0
LINE
  5
85
330
1F
100
AcDbEntity
  8
1
  6
Continuous
 62
     7
370
    50
100
AcDbLine
 10
410.0085420567
 20
43.2174325128
 30
0.0
 11
410.0085420567
 21
8.5809422118
 31
0.0
  0
LINE
  5
86
330
1F
100
AcDbEntity
  8
SLD-0
 62
     7
100
AcDbLine
 10
410.0085420567
 20
43.2174325128
 30
0.0
 11
386.43517983
 21
43.2174325128
 31
0.0
  0
LINE
  5
87
330
1F
100
AcDbEntity
  8
SLD-0
 62
     7
100
AcDbLine
 10
410.0085420567
 20
43.2174325128
 30
0.0
 11
326.0426734037
 21
43.2174325128
 31
0.0
  0
INSERT
  5
8E
330
1F
100
AcDbEntity
  8
1
 62
     7
100
AcDbBlockReference
  2
SW_NOTE_0
 10
301.7217837847
 20
24.8831062028
 30
0.0
  0
INSERT
  5
95
330
1F
100
AcDbEntity
  8
1
 62
     7
100
AcDbBlockReference
  2
SW_NOTE_0_1
 10
301.8158585406
 20
37.1599871666
 30
0.0
  0
MTEXT
  5
97
330
1F
100
AcDbEntity
  8
SLD-0
 62
     7
100
AcDbMText
 10
364.9492075085
 20
38.9802034884
 30
0.0
 40
3.7041666667
 41
0.0
 71
     2
 72
     1
  1
2023/04/06
  7
SLDTEXTSTYLE2
 73
     1
 44
1.0
  0
MTEXT
  5
98
330
1F
100
AcDbEntity
  8
SLD-0
 62
     7
100
AcDbMText
 10
364.935182103
 20
15.7560337669
 30
0.0
 40
4.7625
 41
0.0
 71
     2
 72
     1
  1
C013424
  7
SLDTEXTSTYLE2
 73
     1
 44
1.0
  0
MTEXT
  5
99
330
1F
100
AcDbEntity
  8
SLD-0
 62
     7
100
AcDbMText
 10
364.6690695867
 20
26.7296650926
 30
0.0
 40
4.2333333333
 41
0.0
 71
     2
 72
     1
  1
HPN-14A-xxx-J6AEA-BB5
  7
SLDTEXTSTYLE2
 73
     1
 44
1.0
  0
INSERT
  5
A2
330
1F
100
AcDbEntity
  8
注記
100
AcDbBlockReference
  2
SW_NOTE_0_2
 10
19.4548894176
 20
33.7103147136
 30
0.0
  0
INSERT
  5
AA
330
1F
100
AcDbEntity
  8
注記
100
AcDbBlockReference
  2
SW_NOTE_0_3
 10
19.4548894176
 20
58.6135213679
 30
0.0
  0
INSERT
  5
B0
330
1F
100
AcDbEntity
  8
1
 62
     7
100
AcDbBlockReference
  2
SW_NOTE_0_4
 10
304.5756181432
 20
13.1530899004
 30
0.0
  0
LINE
  5
B1
330
1F
100
AcDbEntity
  8
0
  6
Continuous
 62
     7
370
    35
100
AcDbLine
 10
86.9444117098
 20
187.9480616071
 30
0.0
 11
86.9444117098
 21
188.4067815232
 31
0.0
  0
LINE
  5
B2
330
1F
100
AcDbEntity
  8
0
  6
Continuous
 62
     7
370
    35
100
AcDbLine
 10
73.4444117098
 20
188.4067815232
 30
0.0
 11
73.4444117098
 21
187.9480616071
 31
0.0
  0
ARC
  5
B3
330
1F
100
AcDbEntity
  8
0
  6
Continuous
 62
     7
370
    35
100
AcDbCircle
 10
86.4444117098
 20
188.4067815232
 30
0.0
 40
0.5
100
AcDbArc
 50
0.0
 51
90.0
  0
ARC
  5
B4
330
1F
100
AcDbEntity
  8
0
  6
Continuous
 62
     7
370
    35
100
AcDbCircle
 10
73.9444117098
 20
188.4067815232
 30
0.0
 40
0.5
100
AcDbArc
 50
90.0
 51
180.0
  0
LINE
  5
B5
330
1F
100
AcDbEntity
  8
0
  6
Continuous
 62
     7
370
    35
100
AcDbLine
 10
47.1944117098
 20
187.9480616071
 30
0.0
 11
93.1944117098
 21
187.9480616071
 31
0.0
  0
LINE
  5
B6
330
1F
100
AcDbEntity
  8
0
  6
Continuous
 62
     7
370
    35
100
AcDbLine
 10
46.1944117098
 20
187.9306092007
 30
0.0
 11
46.1944117098
 21
187.9067815232
 31
0.0
  0
ARC
  5
B7
330
1F
100
AcDbEntity
  8
0
  6
Continuous
 62
     7
370
    35
100
AcDbCircle
 10
46.9444878564
 20
173.6103001777
 30
0.0
 40
14.33993949566077
100
AcDbArc
 50
89.0013690757
 51
92.9983263765
  0
ARC
  5
B8
330
1F
100
AcDbEntity
  8
0
  6
Continuous
 62
     7
370
    35
100
AcDbCircle
 10
93.4443355632
 20
173.6103001777
 30
0.0
 40
14.33993949566148
100
AcDbArc
 50
87.0016736235
 51
90.9986309243
  0
LINE
  5
B9
330
1F
100
AcDbEntity
  8
0
  6
Continuous
 62
     7
370
    35
100
AcDbLine
 10
94.1944117098
 20
187.9306092007
 30
0.0
 11
94.1944117098
 21
187.9067815232
 31
0.0
  0
LINE
  5
BA
330
1F
100
AcDbEntity
  8
0
  6
Continuous
 62
     7
370
    35
100
AcDbLine
 10
73.9444117098
 20
188.9067815232
 30
0.0
 11
86.4444117098
 21
188.9067815232
 31
0.0
  0
LINE
  5
BB
330
1F
100
AcDbEntity
  8
0
  6
Continuous
 62
     7
370
    35
100
AcDbLine
 10
96.6519248205
 20
187.9067815232
 30
0.0
 11
97.0524706191
 21
187.5487226139
 31
0.0
  0
LINE
  5
BC
330
1F
100
AcDbEntity
  8
0
  6
Continuous
 62
     7
370
    35
100
AcDbLine
 10
99.8363528005
 20
184.7648404325
 30
0.0
 11
100.1944117098
 21
184.3642946338
 31
0.0
  0
LINE
  5
BD
330
1F
100
AcDbEntity
  8
0
  6
Continuous
 62
     7
370
    35
100
AcDbLine
 10
95.2415867669
 20
187.9067815232
 30
0.0
 11
96.6519248205
 21
187.9067815232
 31
0.0
  0
LINE
  5
BE
330
1F
100
AcDbEntity
  8
0
  6
Continuous
 62
     7
370
    35
100
AcDbLine
 10
100.1944117098
 20
184.3642946338
 30
0.0
 11
100.1944117098
 21
182.9539565803
 31
0.0
  0
LINE
  5
BF
330
1F
100
AcDbEntity
  8
0
  6
Continuous
 62
     7
370
    35
100
AcDbLine
 10
40.1944117098
 20
184.3642946338
 30
0.0
 11
40.5524706191
 21
184.7648404325
 31
0.0
  0
LINE
  5
C0
330
1F
100
AcDbEntity
  8
0
  6
Continuous
 62
     7
370
    35
100
AcDbLine
 10
43.3363528005
 20
187.5487226139
 30
0.0
 11
43.7368985992
 21
187.9067815232
 31
0.0
  0
LINE
  5
C1
330
1F
100
AcDbEntity
  8
0
  6
Continuous
 62
     7
370
    35
100
AcDbLine
 10
43.7368985992
 20
187.9067815232
 30
0.0
 11
45.1472366527
 21
187.9067815232
 31
0.0
  0
LINE
  5
C2
330
1F
100
AcDbEntity
  8
0
  6
Continuous
 62
     7
370
    35
100
AcDbLine
 10
40.1944117098
 20
182.9539565803
 30
0.0
 11
40.1944117098
 21
184.3642946338
 31
0.0
  0
LINE
  5
C3
330
1F
100
AcDbEntity
  8
0
  6
Continuous
 62
     7
370
    35
100
AcDbLine
 10
43.7368985992
 20
127.9067815232
 30
0.0
 11
43.3363528005
 21
128.2648404325
 31
0.0
  0
LINE
  5
C4
330
1F
100
AcDbEntity
  8
0
  6
Continuous
 62
     7
370
    35
100
AcDbLine
 10
40.5524706191
 20
131.0487226139
 30
0.0
 11
40.1944117098
 21
131.4492684125
 31
0.0
  0
LINE
  5
C5
330
1F
100
AcDbEntity
  8
0
  6
Continuous
 62
     7
370
    35
100
AcDbLine
 10
45.1472366527
 20
127.9067815232
 30
0.0
 11
43.7368985992
 21
127.9067815232
 31
0.0
  0
LINE
  5
C6
330
1F
100
AcDbEntity
  8
0
  6
Continuous
 62
     7
370
    35
100
AcDbLine
 10
40.1944117098
 20
131.4492684125
 30
0.0
 11
40.1944117098
 21
132.8596064661
 31
0.0
  0
LINE
  5
C7
330
1F
100
AcDbEntity
  8
0
  6
Continuous
 62
     7
370
    35
100
AcDbLine
 10
100.1944117098
 20
131.4492684125
 30
0.0
 11
99.8363528005
 21
131.0487226139
 31
0.0
  0
LINE
  5
C8
330
1F
100
AcDbEntity
  8
0
  6
Continuous
 62
     7
370
    35
100
AcDbLine
 10
97.0524706191
 20
128.2648404325
 30
0.0
 11
96.6519248205
 21
127.9067815232
 31
0.0
  0
LINE
  5
C9
330
1F
100
AcDbEntity
  8
0
  6
Continuous
 62
     7
370
    35
100
AcDbLine
 10
100.1944117098
 20
132.8596064661
 30
0.0
 11
100.1944117098
 21
131.4492684125
 31
0.0
  0
LINE
  5
CA
330
1F
100
AcDbEntity
  8
0
  6
Continuous
 62
     7
370
    35
100
AcDbLine
 10
96.6519248205
 20
127.9067815232
 30
0.0
 11
95.2415867669
 21
127.9067815232
 31
0.0
  0
CIRCLE
  5
CB
330
1F
100
AcDbEntity
  8
0
  6
Continuous
 62
     7
370
    35
100
AcDbCircle
 10
70.1944117098
 20
157.9067815232
 30
0.0
 40
20.5381197846483
  0
CIRCLE
  5
CC
330
1F
100
AcDbEntity
  8
0
  6
Continuous
 62
     7
370
    35
100
AcDbCircle
 10
70.1944117098
 20
157.9067815232
 30
0.0
 40
21.0
  0
ARC
  5
CD
330
1F
100
AcDbEntity
  8
0
  6
Continuous
 62
     7
370
    35
100
AcDbCircle
 10
70.1944117098
 20
157.9067815232
 30
0.0
 40
8.700000000000003
100
AcDbArc
 50
0.0
 51
73.3002511197
  0
ARC
  5
CE
330
1F
100
AcDbEntity
  8
0
  6
Continuous
 62
     7
370
    35
100
AcDbCircle
 10
70.1944117098
 20
157.9067815232
 30
0.0
 40
8.700000000000003
100
AcDbArc
 50
106.6997488803
 51
0.0
  0
ARC
  5
CF
330
1F
100
AcDbEntity
  8
0
  6
Continuous
 62
     7
370
    35
100
AcDbCircle
 10
70.1944117098
 20
157.9067815232
 30
0.0
 40
9.617152435830748
100
AcDbArc
 50
0.0
 51
74.9327737074
  0
ARC
  5
D0
330
1F
100
AcDbEntity
  8
0
  6
Continuous
 62
     7
370
    35
100
AcDbCircle
 10
70.1944117098
 20
157.9067815232
 30
0.0
 40
9.617152435830741
100
AcDbArc
 50
105.0672262926
 51
0.0
  0
LINE
  5
D1
330
1F
100
AcDbEntity
  8
0
  6
Continuous
 62
     7
370
    35
100
AcDbLine
 10
67.9444117098
 20
167.9067815232
 30
0.0
 11
72.4444117098
 21
167.9067815232
 31
0.0
  0
LINE
  5
D2
330
1F
100
AcDbEntity
  8
0
  6
Continuous
 62
     7
370
    35
100
AcDbLine
 10
72.6944117098
 20
167.6567815232
 30
0.0
 11
72.4444117098
 21
167.9067815232
 31
0.0
  0
LINE
  5
D3
330
1F
100
AcDbEntity
  8
0
  6
Continuous
 62
     7
370
    35
100
AcDbLine
 10
72.6944117098
 20
167.6567815232
 30
0.0
 11
67.6944117098
 21
167.6567815232
 31
0.0
  0
LINE
  5
D4
330
1F
100
AcDbEntity
  8
0
  6
Continuous
 62
     7
370
    35
100
AcDbLine
 10
67.9444117098
 20
167.9067815232
 30
0.0
 11
67.6944117098
 21
167.6567815232
 31
0.0
  0
LINE
  5
D5
330
1F
100
AcDbEntity
  8
0
  6
Continuous
 62
     7
370
    35
100
AcDbLine
 10
67.6944117098
 20
163.1567815232
 30
0.0
 11
72.6944117098
 21
163.1567815232
 31
0.0
  0
LINE
  5
D6
330
1F
100
AcDbEntity
  8
0
  6
Continuous
 62
     7
370
    35
100
AcDbLine
 10
67.6944117098
 20
167.6567815232
 30
0.0
 11
67.6944117098
 21
163.1567815232
 31
0.0
  0
LINE
  5
D7
330
1F
100
AcDbEntity
  8
0
  6
Continuous
 62
     7
370
    35
100
AcDbLine
 10
72.6944117098
 20
167.6567815232
 30
0.0
 11
72.6944117098
 21
163.1567815232
 31
0.0
  0
LINE
  5
D8
330
1F
100
AcDbEntity
  8
0
  6
Continuous
 62
     7
370
    35
100
AcDbLine
 10
72.4444117098
 20
162.9067815232
 30
0.0
 11
72.6944117098
 21
163.1567815232
 31
0.0
  0
LINE
  5
D9
330
1F
100
AcDbEntity
  8
0
  6
Continuous
 62
     7
370
    35
100
AcDbLine
 10
67.6944117098
 20
163.1567815232
 30
0.0
 11
67.9444117098
 21
162.9067815232
 31
0.0
  0
CIRCLE
  5
DA
330
1F
100
AcDbEntity
  8
0
  6
Continuous
 62
     7
370
    35
100
AcDbCircle
 10
70.1944117098
 20
157.9067815232
 30
0.0
 40
23.50000000000001
  0
CIRCLE
  5
DB
330
1F
100
AcDbEntity
  8
0
  6
Continuous
 62
     7
370
    35
100
AcDbCircle
 10
70.1944117098
 20
157.9067815232
 30
0.0
 40
21.36397023426622
  0
CIRCLE
  5
DC
330
1F
100
AcDbEntity
  8
0
  6
Continuous
 62
     7
370
    35
100
AcDbCircle
 10
70.1944117098
 20
157.9067815232
 30
0.0
 40
24.50000000000001
  0
CIRCLE
  5
DD
330
1F
100
AcDbEntity
  8
0
  6
Continuous
 62
     7
370
    35
100
AcDbCircle
 10
70.1944117098
 20
157.9067815232
 30
0.0
 40
25.00000000000001
  0
CIRCLE
  5
DE
330
1F
100
AcDbEntity
  8
0
  6
Continuous
 62
     7
370
    35
100
AcDbCircle
 10
94.9431490513
 20
182.6555188647
 30
0.0
 40
3.25
  0
CIRCLE
  5
DF
330
1F
100
AcDbEntity
  8
0
  6
Continuous
 62
     7
370
    35
100
AcDbCircle
 10
94.9431490513
 20
133.1580441817
 30
0.0
 40
3.25
  0
CIRCLE
  5
E0
330
1F
100
AcDbEntity
  8
0
  6
Continuous
 62
     7
370
    35
100
AcDbCircle
 10
45.4456743683
 20
133.1580441817
 30
0.0
 40
3.249999999999993
  0
CIRCLE
  5
E1
330
1F
100
AcDbEntity
  8
0
  6
Continuous
 62
     7
370
    35
100
AcDbCircle
 10
45.4456743683
 20
182.6555188647
 30
0.0
 40
3.25
  0
ARC
  5
E2
330
1F
100
AcDbEntity
  8
0
  6
Continuous
 62
     7
370
    35
100
AcDbCircle
 10
95.1944117098
 20
182.9067815232
 30
0.0
 40
4.499999999999972
100
AcDbArc
 50
0.0
 51
90.0
  0
LINE
  5
E3
330
1F
100
AcDbEntity
  8
0
  6
Continuous
 62
     7
370
    35
100
AcDbLine
 10
99.6944117098
 20
132.9067815232
 30
0.0
 11
99.6944117098
 21
182.9067815232
 31
0.0
  0
ARC
  5
E4
330
1F
100
AcDbEntity
  8
0
  6
Continuous
 62
     7
370
    35
100
AcDbCircle
 10
95.1944117098
 20
132.9067815232
 30
0.0
 40
4.499999999999972
100
AcDbArc
 50
270.0
 51
0.0
  0
LINE
  5
E5
330
1F
100
AcDbEntity
  8
0
  6
Continuous
 62
     7
370
    35
100
AcDbLine
 10
45.1944117098
 20
128.4067815232
 30
0.0
 11
95.1944117098
 21
128.4067815232
 31
0.0
  0
ARC
  5
E6
330
1F
100
AcDbEntity
  8
0
  6
Continuous
 62
     7
370
    35
100
AcDbCircle
 10
45.1944117098
 20
132.9067815232
 30
0.0
 40
4.499999999999979
100
AcDbArc
 50
180.0
 51
270.0
  0
LINE
  5
E7
330
1F
100
AcDbEntity
  8
0
  6
Continuous
 62
     7
370
    35
100
AcDbLine
 10
40.6944117098
 20
182.9067815232
 30
0.0
 11
40.6944117098
 21
132.9067815232
 31
0.0
  0
ARC
  5
E8
330
1F
100
AcDbEntity
  8
0
  6
Continuous
 62
     7
370
    35
100
AcDbCircle
 10
45.1944117098
 20
182.9067815232
 30
0.0
 40
4.499999999999972
100
AcDbArc
 50
90.0
 51
180.0
  0
LINE
  5
E9
330
1F
100
AcDbEntity
  8
0
  6
Continuous
 62
     7
370
    35
100
AcDbLine
 10
95.1944117098
 20
187.4067815232
 30
0.0
 11
45.1944117098
 21
187.4067815232
 31
0.0
  0
CIRCLE
  5
EA
330
1F
100
AcDbEntity
  8
0
  6
Continuous
 62
     7
370
    35
100
AcDbCircle
 10
45.4456743683
 20
182.6555188647
 30
0.0
 40
2.749999999999993
  0
CIRCLE
  5
EB
330
1F
100
AcDbEntity
  8
0
  6
Continuous
 62
     7
370
    35
100
AcDbCircle
 10
94.9431490513
 20
182.6555188647
 30
0.0
 40
2.75
  0
CIRCLE
  5
EC
330
1F
100
AcDbEntity
  8
0
  6
Continuous
 62
     7
370
    35
100
AcDbCircle
 10
45.4456743683
 20
133.1580441817
 30
0.0
 40
2.749999999999993
  0
CIRCLE
  5
ED
330
1F
100
AcDbEntity
  8
0
  6
Continuous
 62
     7
370
    35
100
AcDbCircle
 10
94.9431490513
 20
133.1580441817
 30
0.0
 40
2.749999999999986
  0
ARC
  5
EE
330
1F
100
AcDbEntity
  8
0
  6
Continuous
 62
     7
370
    35
100
AcDbCircle
 10
95.1944117098
 20
182.9067815232
 30
0.0
 40
5.0
100
AcDbArc
 50
0.0
 51
90.0
  0
ARC
  5
EF
330
1F
100
AcDbEntity
  8
0
  6
Continuous
 62
     7
370
    35
100
AcDbCircle
 10
45.1944117098
 20
132.9067815232
 30
0.0
 40
5.000000000000007
100
AcDbArc
 50
180.0
 51
270.0
  0
LINE
  5
F0
330
1F
100
AcDbEntity
  8
0
  6
Continuous
 62
     7
370
    35
100
AcDbLine
 10
40.1944117098
 20
182.9067815232
 30
0.0
 11
40.1944117098
 21
132.9067815232
 31
0.0
  0
LINE
  5
F1
330
1F
100
AcDbEntity
  8
0
  6
Continuous
 62
     7
370
    35
100
AcDbLine
 10
95.1944117098
 20
187.9067815232
 30
0.0
 11
93.2323637134
 21
187.9067815232
 31
0.0
  0
LINE
  5
F2
330
1F
100
AcDbEntity
  8
0
  6
Continuous
 62
     7
370
    35
100
AcDbLine
 10
47.1564597062
 20
187.9067815232
 30
0.0
 11
45.1944117098
 21
187.9067815232
 31
0.0
  0
ARC
  5
F3
330
1F
100
AcDbEntity
  8
0
  6
Continuous
 62
     7
370
    35
100
AcDbCircle
 10
45.1944117098
 20
182.9067815232
 30
0.0
 40
5.0
100
AcDbArc
 50
90.0
 51
180.0
  0
LINE
  5
F4
330
1F
100
AcDbEntity
  8
0
  6
Continuous
 62
     7
370
    35
100
AcDbLine
 10
100.1944117098
 20
132.9067815232
 30
0.0
 11
100.1944117098
 21
182.9067815232
 31
0.0
  0
ARC
  5
F5
330
1F
100
AcDbEntity
  8
0
  6
Continuous
 62
     7
370
    35
100
AcDbCircle
 10
95.1944117098
 20
132.9067815232
 30
0.0
 40
5.0
100
AcDbArc
 50
270.0
 51
0.0
  0
LINE
  5
F6
330
1F
100
AcDbEntity
  8
0
  6
Continuous
 62
     7
370
    35
100
AcDbLine
 10
45.1944117098
 20
127.9067815232
 30
0.0
 11
95.1944117098
 21
127.9067815232
 31
0.0
  0
SPLINE
  5
F7
330
1F
100
AcDbEntity
  8
0
  6
Continuous
 62
     7
370
    35
100
AcDbSpline
210
0.0
220
0.0
230
1.0
 70
     8
 71
     3
 72
    12
 73
     8
 74
     0
 42
0.00000001
 43
0.00000001
 40
0.0
 40
0.0
 40
0.0
 40
0.0
 40
0.499999999999999
 40
0.499999999999999
 40
0.7499999999999994
 40
0.7499999999999994
 40
1.0
 40
1.0
 40
1.0
 40
1.0
 10
67.69441170980947
 20
165.2817391501763
 30
0.0
 10
67.69441170980947
 20
165.3283220740456
 30
0.0
 10
67.67556389827857
 20
165.3710927899915
 30
0.0
 10
67.62113789138864
 20
165.4183245547541
 30
0.0
 10
67.59801006760615
 20
165.4312431014389
 30
0.0
 10
67.54303261977155
 20
165.4439792884559
 30
0.0
 10
67.51057221664105
 20
165.4432298337041
 30
0.0
 10
67.48012599552375
 20
165.4322484895028
 30
0.0
  0
ARC
  5
F8
330
1F
100
AcDbEntity
  8
0
  6
Continuous
 62
     7
370
    35
100
AcDbCircle
 10
70.1944117098
 20
157.9067815232
 30
0.0
 40
7.500000000000001
100
AcDbArc
 50
109.4712206345
 51
70.5287793655
  0
SPLINE
  5
F9
330
1F
100
AcDbEntity
  8
0
  6
Continuous
 62
     7
370
    35
100
AcDbSpline
210
0.0
220
0.0
230
1.0
 70
     8
 71
     3
 72
    12
 73
     8
 74
     0
 42
0.00000001
 43
0.00000001
 40
0.0
 40
0.0
 40
0.0
 40
0.0
 40
0.25
 40
0.25
 40
0.5
 40
0.5
 40
1.0
 40
1.0
 40
1.0
 40
1.0
 10
72.90869742409518
 20
165.4322484895028
 30
0.0
 10
72.87828281296093
 20
165.4432184326142
 30
0.0
 10
72.84594472011965
 20
165.4439849188084
 30
0.0
 10
72.79098187475708
 20
165.4313119932283
 30
0.0
 10
72.76801869675091
 20
165.4185303534463
 30
0.0
 10
72.71353707349063
 20
165.371498165498
 30
0.0
 10
72.69441170980372
 20
165.3282649073044
 30
0.0
 10
72.69441170980306
 20
165.2817391501786
 30
0.0
  0
ARC
  5
FA
330
1F
100
AcDbEntity
  8
0
  6
Continuous
 62
     7
370
    35
100
AcDbCircle
 10
70.1944117098
 20
157.9067815232
 30
0.0
 40
8.00000000000001
100
AcDbArc
 50
109.8333619089
 51
70.1666380911
  0
SPLINE
  5
FB
330
1F
100
AcDbEntity
  8
0
  6
Continuous
 62
     7
370
    35
100
AcDbSpline
210
0.0
220
0.0
230
1.0
 70
    24
 71
     3
 72
     8
 73
     4
 74
     0
 42
0.00000001
 43
0.00000001
 40
0.0
 40
0.0
 40
0.0
 40
0.0
 40
1.0
 40
1.0
 40
1.0
 40
1.0
 10
72.69441170980946
 20
164.9778493350449
 30
0.0
 10
72.69441170980946
 20
165.0792565574677
 30
0.0
 10
72.69441170980946
 20
165.1805490576457
 30
0.0
 10
72.69441170980946
 20
165.2817391501763
 30
0.0
  0
SPLINE
  5
FC
330
1F
100
AcDbEntity
  8
0
  6
Continuous
 62
     7
370
    35
100
AcDbSpline
210
0.0
220
0.0
230
1.0
 70
    24
 71
     3
 72
     8
 73
     4
 74
     0
 42
0.00000001
 43
0.00000001
 40
0.0
 40
0.0
 40
0.0
 40
0.0
 40
1.0
 40
1.0
 40
1.0
 40
1.0
 10
67.69441170980947
 20
165.2817391501763
 30
0.0
 10
67.69441170980947
 20
165.1805490405797
 30
0.0
 10
67.69441170980947
 20
165.0792560691484
 30
0.0
 10
67.69441170980947
 20
164.9778493350449
 30
0.0
  0
CIRCLE
  5
FD
330
1F
100
AcDbEntity
  8
0
  6
Continuous
 62
     7
370
    35
100
AcDbCircle
 10
70.1944117098
 20
157.9067815232
 30
0.0
 40
3.825000000000003
  0
CIRCLE
  5
FE
330
1F
100
AcDbEntity
  8
0
  6
Continuous
 62
     7
370
    35
100
AcDbCircle
 10
70.1944117098
 20
157.9067815232
 30
0.0
 40
3.25
  0
LINE
  5
FF
330
1F
100
AcDbEntity
  8
0
  6
Continuous
 62
     7
370
    35
100
AcDbLine
 10
67.6944117098
 20
162.9067815232
 30
0.0
 11
72.6944117098
 21
162.9067815232
 31
0.0
  0
LINE
  5
100
330
1F
100
AcDbEntity
  8
0
  6
Continuous
 62
     7
370
    35
100
AcDbLine
 10
72.6944117098
 20
162.9067815232
 30
0.0
 11
72.6944117098
 21
164.977849335
 31
0.0
  0
LINE
  5
101
330
1F
100
AcDbEntity
  8
0
  6
Continuous
 62
     7
370
    35
100
AcDbLine
 10
67.6944117098
 20
162.9067815232
 30
0.0
 11
67.6944117098
 21
164.977849335
 31
0.0
  0
CIRCLE
  5
102
330
1F
100
AcDbEntity
  8
0
  6
Continuous
 62
     7
370
    35
100
AcDbCircle
 10
70.1944117098
 20
157.9067815232
 30
0.0
 40
2.099999999999994
  0
SPLINE
  5
103
330
1F
100
AcDbEntity
  8
0
  6
Continuous
 62
     7
370
    35
100
AcDbSpline
210
0.0
220
0.0
230
1.0
 70
     8
 71
     3
 72
     9
 73
     5
 74
     0
 42
0.00000001
 43
0.00000001
 40
0.0
 40
0.0
 40
0.0
 40
0.0
 40
0.8503884787005882
 40
1.0
 40
1.0
 40
1.0
 40
1.0
 10
67.48012599552375
 20
165.4322484895028
 30
0.0
 10
67.49031285658869
 20
165.4381236187828
 30
0.0
 10
67.50229192417966
 20
165.4450323780464
 30
0.0
 10
67.66940906076911
 20
165.4966642659726
 30
0.0
 10
67.69441170980947
 20
165.5043889912728
 30
0.0
  0
SPLINE
  5
104
330
1F
100
AcDbEntity
  8
0
  6
Continuous
 62
     7
370
    35
100
AcDbSpline
210
0.0
220
0.0
230
1.0
 70
     8
 71
     3
 72
     9
 73
     5
 74
     0
 42
0.00000001
 43
0.00000001
 40
0.0
 40
0.0
 40
0.0
 40
0.0
 40
0.560855735199971
 40
1.0
 40
1.0
 40
1.0
 40
1.0
 10
72.69441170980947
 20
165.5045001393551
 30
0.0
 10
72.76689283328027
 20
165.4804580240188
 30
0.0
 10
72.89612592999622
 20
165.4375911799672
 30
0.0
 10
72.90486132533249
 20
165.4338787721183
 30
0.0
 10
72.90869742409517
 20
165.4322484895028
 30
0.0
  0
ARC
  5
105
330
1F
100
AcDbEntity
  8
0
  6
Continuous
 62
     7
370
    35
100
AcDbCircle
 10
70.1944117098
 20
157.9067815232
 30
0.0
 40
8.232050807568882
100
AcDbArc
 50
0.0
 51
72.3205694557
  0
ARC
  5
106
330
1F
100
AcDbEntity
  8
0
  6
Continuous
 62
     7
370
    35
100
AcDbCircle
 10
70.1944117098
 20
157.9067815232
 30
0.0
 40
8.232050807568898
100
AcDbArc
 50
107.6794305443
 51
0.0
  0
ARC
  5
107
330
1F
100
AcDbEntity
  8
0
  6
Continuous
 62
     7
370
    35
100
AcDbCircle
 10
70.1944117098
 20
157.9067815232
 30
0.0
 40
8.500000000000014
100
AcDbArc
 50
0.0
 51
72.8953648234
  0
ARC
  5
108
330
1F
100
AcDbEntity
  8
0
  6
Continuous
 62
     7
370
    35
100
AcDbCircle
 10
70.1944117098
 20
157.9067815232
 30
0.0
 40
8.500000000000014
100
AcDbArc
 50
107.1046351766
 51
0.0
  0
INSERT
  5
114
330
1F
100
AcDbEntity
  8
0
  6
Continuous
 62
     7
370
     0
100
AcDbBlockReference
  2
SW_CENTERMARKSYMBOL_0
 10
70.1944117098
 20
157.9067815232
 30
0.0
  0
INSERT
  5
138
330
1F
100
AcDbEntity
  8
0
  6
Continuous
 62
     7
370
     0
100
AcDbBlockReference
  2
SW_CENTERMARKSYMBOL_1
 10
94.9431490513
 20
182.6555188647
 30
0.0
  0
CIRCLE
  5
139
330
1F
100
AcDbEntity
  8
0
  6
Continuous
 62
     7
370
     0
100
AcDbCircle
 10
70.1944117098
 20
157.9067815232
 30
0.0
 40
2.5
  0
LINE
  5
13A
330
1F
100
AcDbEntity
  8
0
  6
CENTERX2
 62
     7
370
    18
100
AcDbLine
 10
80.1944117098
 20
183.8740726416
 30
0.0
 11
80.1944117098
 21
192.288866131
 31
0.0
  0
LINE
  5
13B
330
1F
100
AcDbEntity
  8
0
  6
Continuous
 62
     7
370
    35
100
AcDbLine
 10
345.818220087
 20
187.9067815232
 30
0.0
 11
345.818220087
 21
188.4067815232
 31
0.0
  0
LINE
  5
13C
330
1F
100
AcDbEntity
  8
0
  6
Continuous
 62
     7
370
    35
100
AcDbLine
 10
332.318220087
 20
188.4067815232
 30
0.0
 11
332.318220087
 21
187.9067815232
 31
0.0
  0
ARC
  5
13D
330
1F
100
AcDbEntity
  8
0
  6
Continuous
 62
     7
370
    35
100
AcDbCircle
 10
345.318220087
 20
188.4067815232
 30
0.0
 40
0.5
100
AcDbArc
 50
0.0
 51
90.0
  0
ARC
  5
13E
330
1F
100
AcDbEntity
  8
0
  6
Continuous
 62
     7
370
    35
100
AcDbCircle
 10
332.818220087
 20
188.4067815232
 30
0.0
 40
0.5
100
AcDbArc
 50
90.0
 51
180.0
  0
ARC
  5
13F
330
1F
100
AcDbEntity
  8
0
  6
Continuous
 62
     7
370
    35
100
AcDbCircle
 10
335.158220087
 20
165.7067815232
 30
0.0
 40
0.2000000000000171
100
AcDbArc
 50
90.0
 51
180.0
  0
LINE
  5
140
330
1F
100
AcDbEntity
  8
0
  6
Continuous
 62
     7
370
    35
100
AcDbLine
 10
334.958220087
 20
165.7067815232
 30
0.0
 11
334.958220087
 21
162.9967618768
 31
0.0
  0
LINE
  5
141
330
1F
100
AcDbEntity
  8
0
  6
Continuous
 62
     7
370
    35
100
AcDbLine
 10
340.568220087
 20
157.4067815232
 30
0.0
 11
340.568220087
 21
158.4067815232
 31
0.0
  0
LINE
  5
142
330
1F
100
AcDbEntity
  8
0
  6
Continuous
 62
     7
370
    35
100
AcDbLine
 10
336.568220087
 20
158.4067815232
 30
0.0
 11
336.568220087
 21
157.4067815232
 31
0.0
  0
ARC
  5
143
330
1F
100
AcDbEntity
  8
0
  6
Continuous
 62
     7
370
    35
100
AcDbCircle
 10
349.068220087
 20
157.9067815232
 30
0.0
 40
14.49999999999998
100
AcDbArc
 50
181.9761082857
 51
178.0238917143
  0
LINE
  5
144
330
1F
100
AcDbEntity
  8
0
  6
Continuous
 62
     7
370
    35
100
AcDbLine
 10
334.5768433408
 20
158.4067815232
 30
0.0
 11
334.0765557364
 21
158.4067815232
 31
0.0
  0
ARC
  5
145
330
1F
100
AcDbEntity
  8
0
  6
Continuous
 62
     7
370
    35
100
AcDbCircle
 10
349.068220087
 20
157.9067815232
 30
0.0
 40
14.99999999999997
100
AcDbArc
 50
181.9102131717
 51
178.0897868283
  0
LINE
  5
146
330
1F
100
AcDbEntity
  8
0
  6
Continuous
 62
     7
370
    35
100
AcDbLine
 10
334.0765557364
 20
157.4067815232
 30
0.0
 11
334.5768433408
 21
157.4067815232
 31
0.0
  0
ARC
  5
147
330
1F
100
AcDbEntity
  8
0
  6
Continuous
 62
     7
370
    35
100
AcDbCircle
 10
349.068220087
 20
157.9067815232
 30
0.0
 40
7.000000000000023
100
AcDbArc
 50
184.0960437582
 51
355.9039562418
  0
LINE
  5
148
330
1F
100
AcDbEntity
  8
0
  6
Continuous
 62
     7
370
    35
100
AcDbLine
 10
356.0503401088
 20
157.4067815232
 30
0.0
 11
356.5515348605
 21
157.4067815232
 31
0.0
  0
ARC
  5
149
330
1F
100
AcDbEntity
  8
0
  6
Continuous
 62
     7
370
    35
100
AcDbCircle
 10
349.068220087
 20
157.9067815232
 30
0.0
 40
7.500000000000049
100
AcDbArc
 50
183.8225537293
 51
356.1774462707
  0
LINE
  5
14A
330
1F
100
AcDbEntity
  8
0
  6
Continuous
 62
     7
370
    35
100
AcDbLine
 10
341.5849053134
 20
157.4067815232
 30
0.0
 11
342.0861000651
 21
157.4067815232
 31
0.0
  0
LINE
  5
14B
330
1F
100
AcDbEntity
  8
0
  6
Continuous
 62
     7
370
    35
100
AcDbLine
 10
361.807420087
 20
157.4067815232
 30
0.0
 11
361.807420087
 21
158.4067815232
 31
0.0
  0
SPLINE
  5
14C
330
1F
100
AcDbEntity
  8
0
  6
Continuous
 62
     7
370
    35
100
AcDbSpline
210
0.0
220
0.0
230
1.0
 70
     8
 71
     3
 72
     9
 73
     5
 74
     0
 42
0.00000001
 43
0.00000001
 40
0.0
 40
0.0
 40
0.0
 40
0.0
 40
0.4981717475760876
 40
1.0
 40
1.0
 40
1.0
 40
1.0
 10
356.0503401088395
 20
157.4067815231794
 30
0.0
 10
356.0592582650286
 20
157.5728371040287
 30
0.0
 10
356.0771600353165
 20
157.9061670884312
 30
0.0
 10
356.0593018505116
 20
158.2395037625417
 30
0.0
 10
356.0503401088395
 20
158.4067815231794
 30
0.0
  0
LINE
  5
14D
330
1F
100
AcDbEntity
  8
0
  6
Continuous
 62
     7
370
    35
100
AcDbLine
 10
341.5849053134
 20
157.4067815232
 30
0.0
 11
334.5768433408
 21
157.4067815232
 31
0.0
  0
LINE
  5
14E
330
1F
100
AcDbEntity
  8
0
  6
Continuous
 62
     7
370
    35
100
AcDbLine
 10
361.807420087
 20
158.4067815232
 30
0.0
 11
356.5515348605
 21
158.4067815232
 31
0.0
  0
ARC
  5
14F
330
1F
100
AcDbEntity
  8
0
  6
Continuous
 62
     7
370
    35
100
AcDbCircle
 10
349.068220087
 20
157.9067815232
 30
0.0
 40
7.500000000000049
100
AcDbArc
 50
3.8225537293
 51
176.1774462707
  0
LINE
  5
150
330
1F
100
AcDbEntity
  8
0
  6
Continuous
 62
     7
370
    35
100
AcDbLine
 10
341.5849053134
 20
158.4067815232
 30
0.0
 11
334.5768433408
 21
158.4067815232
 31
0.0
  0
LINE
  5
151
330
1F
100
AcDbEntity
  8
0
  6
Continuous
 62
     7
370
    35
100
AcDbLine
 10
361.807420087
 20
157.4067815232
 30
0.0
 11
356.5515348605
 21
157.4067815232
 31
0.0
  0
ARC
  5
152
330
1F
100
AcDbEntity
  8
0
  6
Continuous
 62
     7
370
    35
100
AcDbCircle
 10
349.068220087
 20
157.9067815232
 30
0.0
 40
7.000000000000029
100
AcDbArc
 50
4.0960437582
 51
175.9039562418
  0
LINE
  5
153
330
1F
100
AcDbEntity
  8
0
  6
Continuous
 62
     7
370
    35
100
AcDbLine
 10
356.5515348605
 20
158.4067815232
 30
0.0
 11
356.0503401088
 21
158.4067815232
 31
0.0
  0
LINE
  5
154
330
1F
100
AcDbEntity
  8
0
  6
Continuous
 62
     7
370
    35
100
AcDbLine
 10
342.0861000651
 20
158.4067815232
 30
0.0
 11
341.5849053134
 21
158.4067815232
 31
0.0
  0
LINE
  5
155
330
1F
100
AcDbEntity
  8
0
  6
Continuous
 62
     7
370
    35
100
AcDbLine
 10
341.1620304258
 20
158.4067815232
 30
0.0
 11
341.1620304258
 21
157.4067815232
 31
0.0
  0
ARC
  5
156
330
1F
100
AcDbEntity
  8
0
  6
Continuous
 62
     7
370
    35
100
AcDbCircle
 10
349.068220087
 20
157.9067815232
 30
0.0
 40
6.999999999999966
100
AcDbArc
 50
175.9039562418
 51
184.0960437582
  0
LINE
  5
157
330
1F
100
AcDbEntity
  8
0
  6
Continuous
 62
     7
370
    35
100
AcDbLine
 10
334.0765557364
 20
158.4067815232
 30
0.0
 11
334.0765557364
 21
157.4067815232
 31
0.0
  0
LINE
  5
158
330
1F
100
AcDbEntity
  8
0
  6
Continuous
 62
     7
370
    35
100
AcDbLine
 10
373.068220087
 20
187.9067815232
 30
0.0
 11
373.068220087
 21
187.9306092007
 31
0.0
  0
LINE
  5
159
330
1F
100
AcDbEntity
  8
0
  6
Continuous
 62
     7
370
    35
100
AcDbLine
 10
325.068220087
 20
187.9306092007
 30
0.0
 11
325.068220087
 21
187.9067815232
 31
0.0
  0
ARC
  5
15A
330
1F
100
AcDbEntity
  8
0
  6
Continuous
 62
     7
370
    35
100
AcDbCircle
 10
325.8182962336
 20
173.6103001777
 30
0.0
 40
14.33993949566023
100
AcDbArc
 50
89.0013690757
 51
92.9983263765
  0
LINE
  5
15B
330
1F
100
AcDbEntity
  8
0
  6
Continuous
 62
     7
370
    35
100
AcDbLine
 10
372.068220087
 20
187.9480616071
 30
0.0
 11
345.818220087
 21
187.9480616071
 31
0.0
  0
LINE
  5
15C
330
1F
100
AcDbEntity
  8
0
  6
Continuous
 62
     7
370
    35
100
AcDbLine
 10
332.318220087
 20
187.9480616071
 30
0.0
 11
326.068220087
 21
187.9480616071
 31
0.0
  0
ARC
  5
15D
330
1F
100
AcDbEntity
  8
0
  6
Continuous
 62
     7
370
    35
100
AcDbCircle
 10
372.3181439403
 20
173.6103001777
 30
0.0
 40
14.33993949566216
100
AcDbArc
 50
87.0016736235
 51
90.9986309243
  0
LINE
  5
15E
330
1F
100
AcDbEntity
  8
0
  6
Continuous
 62
     7
370
    35
100
AcDbLine
 10
339.068220087
 20
188.9067815232
 30
0.0
 11
345.318220087
 21
188.9067815232
 31
0.0
  0
LINE
  5
15F
330
1F
100
AcDbEntity
  8
0
  6
Continuous
 62
     7
370
    35
100
AcDbLine
 10
332.818220087
 20
188.9067815232
 30
0.0
 11
339.068220087
 21
188.9067815232
 31
0.0
  0
ARC
  5
160
330
1F
100
AcDbEntity
  8
0
  6
Continuous
 62
     7
370
    35
100
AcDbCircle
 10
349.068220087
 20
157.9067815232
 30
0.0
 40
16.26315789473683
100
AcDbArc
 50
252.7788313121
 51
259.0927825982
  0
ARC
  5
161
330
1F
100
AcDbEntity
  8
0
  6
Continuous
 62
     7
370
    35
100
AcDbCircle
 10
349.068220087
 20
157.9067815232
 30
0.0
 40
16.26315789473685
100
AcDbArc
 50
262.5
 51
277.5
  0
ARC
  5
162
330
1F
100
AcDbEntity
  8
0
  6
Continuous
 62
     7
370
    35
100
AcDbCircle
 10
349.068220087
 20
157.9067815232
 30
0.0
 40
16.26315789473685
100
AcDbArc
 50
280.9072174018
 51
287.2211686879
  0
LINE
  5
163
330
1F
100
AcDbEntity
  8
0
  6
Continuous
 62
     7
370
    35
100
AcDbLine
 10
346.718748627
 20
140.0607740185
 30
0.0
 11
347.1103272037
 21
143.0351086026
 31
0.0
  0
LINE
  5
164
330
1F
100
AcDbEntity
  8
0
  6
Continuous
 62
     7
370
    35
100
AcDbLine
 10
351.4176915469
 20
140.0607740185
 30
0.0
 11
351.0261129703
 21
143.0351086026
 31
0.0
  0
LINE
  5
165
330
1F
100
AcDbEntity
  8
0
  6
Continuous
 62
     7
370
    35
100
AcDbLine
 10
358.9032243669
 20
146.5810280907
 30
0.0
 11
359.4432092562
 21
146.2692676695
 31
0.0
  0
ARC
  5
166
330
1F
100
AcDbEntity
  8
0
  6
Continuous
 62
     7
370
    35
100
AcDbCircle
 10
359.8182092562
 20
146.9187867224
 30
0.0
 40
0.7500000000000123
100
AcDbArc
 50
240.0
 51
317.3160351152
  0
ARC
  5
167
330
1F
100
AcDbEntity
  8
0
  6
Continuous
 62
     7
370
    35
100
AcDbCircle
 10
349.068220087
 20
156.8330222917
 30
0.0
 40
15.37375923152552
100
AcDbArc
 50
317.3160351152
 51
22.2578457476
  0
ARC
  5
168
330
1F
100
AcDbEntity
  8
0
  6
Continuous
 62
     7
370
    35
100
AcDbCircle
 10
349.068220087
 20
156.8330222917
 30
0.0
 40
15.37375923152543
100
AcDbArc
 50
157.7421542524
 51
222.6839648848
  0
ARC
  5
169
330
1F
100
AcDbEntity
  8
0
  6
Continuous
 62
     7
370
    35
100
AcDbCircle
 10
338.3182309177
 20
146.9187867224
 30
0.0
 40
0.7500000000000123
100
AcDbArc
 50
222.6839648848
 51
300.0
  0
LINE
  5
16A
330
1F
100
AcDbEntity
  8
0
  6
Continuous
 62
     7
370
    35
100
AcDbLine
 10
338.6932309177
 20
146.2692676695
 30
0.0
 11
339.233215807
 21
146.5810280907
 31
0.0
  0
CIRCLE
  5
16B
330
1F
100
AcDbEntity
  8
0
  6
Continuous
 62
     7
370
    35
100
AcDbCircle
 10
352.9928129087
 20
142.2408927459
 30
0.0
 40
0.8999999999999773
  0
CIRCLE
  5
16C
330
1F
100
AcDbEntity
  8
0
  6
Continuous
 62
     7
370
    35
100
AcDbCircle
 10
345.1436272652
 20
142.2408927459
 30
0.0
 40
0.8999999999999773
  0
LINE
  5
16D
330
1F
100
AcDbEntity
  8
0
  6
Continuous
 62
     7
370
    35
100
AcDbLine
 10
335.158220087
 20
165.9067815232
 30
0.0
 11
336.3796425465
 21
165.9067815232
 31
0.0
  0
CIRCLE
  5
16E
330
1F
100
AcDbEntity
  8
0
  6
Continuous
 62
     7
370
    35
100
AcDbCircle
 10
374.9074092884
 20
171.0725060156
 30
0.0
 40
2.839999999999999
  0
LINE
  5
16F
330
1F
100
AcDbEntity
  8
0
  6
Continuous
 62
     7
370
    35
100
AcDbLine
 10
374.9847627052
 20
172.5484971342
 30
0.0
 11
373.6678401923
 21
171.8774915989
 31
0.0
  0
LINE
  5
170
330
1F
100
AcDbEntity
  8
0
  6
Continuous
 62
     7
370
    35
100
AcDbLine
 10
373.6678401923
 20
171.8774915989
 30
0.0
 11
373.5904867755
 21
170.4015004803
 31
0.0
  0
LINE
  5
171
330
1F
100
AcDbEntity
  8
0
  6
Continuous
 62
     7
370
    35
100
AcDbLine
 10
373.5904867755
 20
170.4015004803
 30
0.0
 11
374.8300558716
 21
169.596514897
 31
0.0
  0
LINE
  5
172
330
1F
100
AcDbEntity
  8
0
  6
Continuous
 62
     7
370
    35
100
AcDbLine
 10
376.2243318013
 20
171.7435115509
 30
0.0
 11
374.9847627052
 21
172.5484971342
 31
0.0
  0
LINE
  5
173
330
1F
100
AcDbEntity
  8
0
  6
Continuous
 62
     7
370
    35
100
AcDbLine
 10
376.1469783845
 20
170.2675204323
 30
0.0
 11
376.2243318013
 21
171.7435115509
 31
0.0
  0
LINE
  5
174
330
1F
100
AcDbEntity
  8
0
  6
Continuous
 62
     7
370
    35
100
AcDbLine
 10
374.8300558716
 20
169.596514897
 30
0.0
 11
376.1469783845
 21
170.2675204323
 31
0.0
  0
LINE
  5
175
330
1F
100
AcDbEntity
  8
0
  6
Continuous
 62
     7
370
    35
100
AcDbLine
 10
373.6678401923
 20
143.9360714474
 30
0.0
 11
374.9847627052
 21
143.2650659121
 31
0.0
  0
LINE
  5
176
330
1F
100
AcDbEntity
  8
0
  6
Continuous
 62
     7
370
    35
100
AcDbLine
 10
374.9847627052
 20
143.2650659121
 30
0.0
 11
376.2243318013
 21
144.0700514954
 31
0.0
  0
LINE
  5
177
330
1F
100
AcDbEntity
  8
0
  6
Continuous
 62
     7
370
    35
100
AcDbLine
 10
376.2243318013
 20
144.0700514954
 30
0.0
 11
376.1469783845
 21
145.546042614
 31
0.0
  0
LINE
  5
178
330
1F
100
AcDbEntity
  8
0
  6
Continuous
 62
     7
370
    35
100
AcDbLine
 10
376.1469783845
 20
145.546042614
 30
0.0
 11
374.8300558716
 21
146.2170481494
 31
0.0
  0
LINE
  5
179
330
1F
100
AcDbEntity
  8
0
  6
Continuous
 62
     7
370
    35
100
AcDbLine
 10
374.8300558716
 20
146.2170481494
 30
0.0
 11
373.5904867755
 21
145.4120625661
 31
0.0
  0
LINE
  5
17A
330
1F
100
AcDbEntity
  8
0
  6
Continuous
 62
     7
370
    35
100
AcDbLine
 10
373.5904867755
 20
145.4120625661
 30
0.0
 11
373.6678401923
 21
143.9360714474
 31
0.0
  0
CIRCLE
  5
17B
330
1F
100
AcDbEntity
  8
0
  6
Continuous
 62
     7
370
    35
100
AcDbCircle
 10
374.9074092884
 20
144.7410570307
 30
0.0
 40
2.839999999999973
  0
CIRCLE
  5
17C
330
1F
100
AcDbEntity
  8
0
  6
Continuous
 62
     7
370
    35
100
AcDbCircle
 10
362.2339445794
 20
183.7459707246
 30
0.0
 40
2.840000000000063
  0
LINE
  5
17D
330
1F
100
AcDbEntity
  8
0
  6
Continuous
 62
     7
370
    35
100
AcDbLine
 10
363.709935698
 20
183.8233241414
 30
0.0
 11
362.9049501147
 21
185.0628932375
 31
0.0
  0
LINE
  5
17E
330
1F
100
AcDbEntity
  8
0
  6
Continuous
 62
     7
370
    35
100
AcDbLine
 10
362.9049501147
 20
185.0628932375
 30
0.0
 11
361.4289589961
 21
184.9855398207
 31
0.0
  0
LINE
  5
17F
330
1F
100
AcDbEntity
  8
0
  6
Continuous
 62
     7
370
    35
100
AcDbLine
 10
361.4289589961
 20
184.9855398207
 30
0.0
 11
360.7579534608
 21
183.6686173079
 31
0.0
  0
LINE
  5
180
330
1F
100
AcDbEntity
  8
0
  6
Continuous
 62
     7
370
    35
100
AcDbLine
 10
360.7579534608
 20
183.6686173079
 30
0.0
 11
361.5629390441
 21
182.4290482118
 31
0.0
  0
LINE
  5
181
330
1F
100
AcDbEntity
  8
0
  6
Continuous
 62
     7
370
    35
100
AcDbLine
 10
361.5629390441
 20
182.4290482118
 30
0.0
 11
363.0389301627
 21
182.5064016285
 31
0.0
  0
LINE
  5
182
330
1F
100
AcDbEntity
  8
0
  6
Continuous
 62
     7
370
    35
100
AcDbLine
 10
363.0389301627
 20
182.5064016285
 30
0.0
 11
363.709935698
 21
183.8233241414
 31
0.0
  0
LINE
  5
183
330
1F
100
AcDbEntity
  8
0
  6
Continuous
 62
     7
370
    35
100
AcDbLine
 10
324.4685999816
 20
171.8774915989
 30
0.0
 11
323.1516774687
 21
172.5484971342
 31
0.0
  0
LINE
  5
184
330
1F
100
AcDbEntity
  8
0
  6
Continuous
 62
     7
370
    35
100
AcDbLine
 10
323.1516774687
 20
172.5484971342
 30
0.0
 11
321.9121083726
 21
171.7435115509
 31
0.0
  0
LINE
  5
185
330
1F
100
AcDbEntity
  8
0
  6
Continuous
 62
     7
370
    35
100
AcDbLine
 10
321.9121083726
 20
171.7435115509
 30
0.0
 11
321.9894617894
 21
170.2675204323
 31
0.0
  0
LINE
  5
186
330
1F
100
AcDbEntity
  8
0
  6
Continuous
 62
     7
370
    35
100
AcDbLine
 10
321.9894617894
 20
170.2675204323
 30
0.0
 11
323.3063843023
 21
169.596514897
 31
0.0
  0
LINE
  5
187
330
1F
100
AcDbEntity
  8
0
  6
Continuous
 62
     7
370
    35
100
AcDbLine
 10
323.3063843023
 20
169.596514897
 30
0.0
 11
324.5459533984
 21
170.4015004803
 31
0.0
  0
LINE
  5
188
330
1F
100
AcDbEntity
  8
0
  6
Continuous
 62
     7
370
    35
100
AcDbLine
 10
324.5459533984
 20
170.4015004803
 30
0.0
 11
324.4685999816
 21
171.8774915989
 31
0.0
  0
CIRCLE
  5
189
330
1F
100
AcDbEntity
  8
0
  6
Continuous
 62
     7
370
    35
100
AcDbCircle
 10
323.2290308855
 20
171.0725060156
 30
0.0
 40
2.839999999999999
  0
LINE
  5
18A
330
1F
100
AcDbEntity
  8
0
  6
Continuous
 62
     7
370
    35
100
AcDbLine
 10
361.5629390441
 20
133.3845148346
 30
0.0
 11
360.7579534608
 21
132.1449457385
 31
0.0
  0
LINE
  5
18B
330
1F
100
AcDbEntity
  8
0
  6
Continuous
 62
     7
370
    35
100
AcDbLine
 10
360.7579534608
 20
132.1449457385
 30
0.0
 11
361.4289589961
 21
130.8280232256
 31
0.0
  0
LINE
  5
18C
330
1F
100
AcDbEntity
  8
0
  6
Continuous
 62
     7
370
    35
100
AcDbLine
 10
361.4289589961
 20
130.8280232256
 30
0.0
 11
362.9049501147
 21
130.7506698088
 31
0.0
  0
LINE
  5
18D
330
1F
100
AcDbEntity
  8
0
  6
Continuous
 62
     7
370
    35
100
AcDbLine
 10
362.9049501147
 20
130.7506698088
 30
0.0
 11
363.709935698
 21
131.9902389049
 31
0.0
  0
LINE
  5
18E
330
1F
100
AcDbEntity
  8
0
  6
Continuous
 62
     7
370
    35
100
AcDbLine
 10
363.709935698
 20
131.9902389049
 30
0.0
 11
363.0389301627
 21
133.3071614178
 31
0.0
  0
LINE
  5
18F
330
1F
100
AcDbEntity
  8
0
  6
Continuous
 62
     7
370
    35
100
AcDbLine
 10
363.0389301627
 20
133.3071614178
 30
0.0
 11
361.5629390441
 21
133.3845148346
 31
0.0
  0
CIRCLE
  5
190
330
1F
100
AcDbEntity
  8
0
  6
Continuous
 62
     7
370
    35
100
AcDbCircle
 10
362.2339445794
 20
132.0675923217
 30
0.0
 40
2.839999999999962
  0
LINE
  5
191
330
1F
100
AcDbEntity
  8
0
  6
Continuous
 62
     7
370
    35
100
AcDbLine
 10
336.5735011298
 20
133.3845148346
 30
0.0
 11
335.0975100112
 21
133.3071614178
 31
0.0
  0
LINE
  5
192
330
1F
100
AcDbEntity
  8
0
  6
Continuous
 62
     7
370
    35
100
AcDbLine
 10
335.0975100112
 20
133.3071614178
 30
0.0
 11
334.4265044759
 21
131.9902389049
 31
0.0
  0
LINE
  5
193
330
1F
100
AcDbEntity
  8
0
  6
Continuous
 62
     7
370
    35
100
AcDbLine
 10
334.4265044759
 20
131.9902389049
 30
0.0
 11
335.2314900592
 21
130.7506698088
 31
0.0
  0
LINE
  5
194
330
1F
100
AcDbEntity
  8
0
  6
Continuous
 62
     7
370
    35
100
AcDbLine
 10
335.2314900592
 20
130.7506698088
 30
0.0
 11
336.7074811778
 21
130.8280232256
 31
0.0
  0
LINE
  5
195
330
1F
100
AcDbEntity
  8
0
  6
Continuous
 62
     7
370
    35
100
AcDbLine
 10
336.7074811778
 20
130.8280232256
 30
0.0
 11
337.3784867131
 21
132.1449457385
 31
0.0
  0
LINE
  5
196
330
1F
100
AcDbEntity
  8
0
  6
Continuous
 62
     7
370
    35
100
AcDbLine
 10
337.3784867131
 20
132.1449457385
 30
0.0
 11
336.5735011298
 21
133.3845148346
 31
0.0
  0
CIRCLE
  5
197
330
1F
100
AcDbEntity
  8
0
  6
Continuous
 62
     7
370
    35
100
AcDbCircle
 10
335.9024955945
 20
132.0675923217
 30
0.0
 40
2.839999999999999
  0
CIRCLE
  5
198
330
1F
100
AcDbEntity
  8
0
  6
Continuous
 62
     7
370
    35
100
AcDbCircle
 10
323.2290308855
 20
144.7410570307
 30
0.0
 40
2.839999999999999
  0
LINE
  5
199
330
1F
100
AcDbEntity
  8
0
  6
Continuous
 62
     7
370
    35
100
AcDbLine
 10
321.9894617894
 20
145.546042614
 30
0.0
 11
321.9121083726
 21
144.0700514954
 31
0.0
  0
LINE
  5
19A
330
1F
100
AcDbEntity
  8
0
  6
Continuous
 62
     7
370
    35
100
AcDbLine
 10
321.9121083726
 20
144.0700514954
 30
0.0
 11
323.1516774687
 21
143.2650659121
 31
0.0
  0
LINE
  5
19B
330
1F
100
AcDbEntity
  8
0
  6
Continuous
 62
     7
370
    35
100
AcDbLine
 10
323.1516774687
 20
143.2650659121
 30
0.0
 11
324.4685999816
 21
143.9360714474
 31
0.0
  0
LINE
  5
19C
330
1F
100
AcDbEntity
  8
0
  6
Continuous
 62
     7
370
    35
100
AcDbLine
 10
324.4685999816
 20
143.9360714474
 30
0.0
 11
324.5459533984
 21
145.4120625661
 31
0.0
  0
LINE
  5
19D
330
1F
100
AcDbEntity
  8
0
  6
Continuous
 62
     7
370
    35
100
AcDbLine
 10
323.3063843023
 20
146.2170481494
 30
0.0
 11
321.9894617894
 21
145.546042614
 31
0.0
  0
LINE
  5
19E
330
1F
100
AcDbEntity
  8
0
  6
Continuous
 62
     7
370
    35
100
AcDbLine
 10
324.5459533984
 20
145.4120625661
 30
0.0
 11
323.3063843023
 21
146.2170481494
 31
0.0
  0
ARC
  5
19F
330
1F
100
AcDbEntity
  8
0
  6
Continuous
 62
     7
370
    35
100
AcDbCircle
 10
349.068220087
 20
157.9067815232
 30
0.0
 40
39.49999999999999
100
AcDbArc
 50
130.580418656
 51
139.419581344
  0
LINE
  5
1A0
330
1F
100
AcDbEntity
  8
0
  6
Continuous
 62
     7
370
    35
100
AcDbLine
 10
323.3728897719
 20
187.9067815232
 30
0.0
 11
374.763550402
 21
187.9067815232
 31
0.0
  0
ARC
  5
1A1
330
1F
100
AcDbEntity
  8
0
  6
Continuous
 62
     7
370
    35
100
AcDbCircle
 10
349.068220087
 20
157.9067815232
 30
0.0
 40
39.50000000000007
100
AcDbArc
 50
40.580418656
 51
49.419581344
  0
LINE
  5
1A2
330
1F
100
AcDbEntity
  8
0
  6
Continuous
 62
     7
370
    35
100
AcDbLine
 10
379.068220087
 20
183.6021118382
 30
0.0
 11
379.068220087
 21
132.2114512081
 31
0.0
  0
ARC
  5
1A3
330
1F
100
AcDbEntity
  8
0
  6
Continuous
 62
     7
370
    35
100
AcDbCircle
 10
349.068220087
 20
157.9067815232
 30
0.0
 40
39.50000000000004
100
AcDbArc
 50
310.580418656
 51
319.419581344
  0
LINE
  5
1A4
330
1F
100
AcDbEntity
  8
0
  6
Continuous
 62
     7
370
    35
100
AcDbLine
 10
374.763550402
 20
127.9067815232
 30
0.0
 11
323.3728897719
 21
127.9067815232
 31
0.0
  0
ARC
  5
1A5
330
1F
100
AcDbEntity
  8
0
  6
Continuous
 62
     7
370
    35
100
AcDbCircle
 10
349.068220087
 20
157.9067815232
 30
0.0
 40
39.49999999999996
100
AcDbArc
 50
220.580418656
 51
229.419581344
  0
LINE
  5
1A6
330
1F
100
AcDbEntity
  8
0
  6
Continuous
 62
     7
370
    35
100
AcDbLine
 10
319.068220087
 20
132.2114512081
 30
0.0
 11
319.068220087
 21
183.6021118382
 31
0.0
  0
CIRCLE
  5
1A7
330
1F
100
AcDbEntity
  8
0
  6
Continuous
 62
     7
370
    35
100
AcDbCircle
 10
362.2339445794
 20
183.7459707246
 30
0.0
 40
3.249999999999943
  0
CIRCLE
  5
1A8
330
1F
100
AcDbEntity
  8
0
  6
Continuous
 62
     7
370
    35
100
AcDbCircle
 10
323.2290308855
 20
171.0725060156
 30
0.0
 40
3.25
  0
CIRCLE
  5
1A9
330
1F
100
AcDbEntity
  8
0
  6
Continuous
 62
     7
370
    35
100
AcDbCircle
 10
335.9024955945
 20
132.0675923217
 30
0.0
 40
3.249999999999943
  0
CIRCLE
  5
1AA
330
1F
100
AcDbEntity
  8
0
  6
Continuous
 62
     7
370
    35
100
AcDbCircle
 10
374.9074092884
 20
144.7410570307
 30
0.0
 40
3.25
  0
CIRCLE
  5
1AB
330
1F
100
AcDbEntity
  8
0
  6
Continuous
 62
     7
370
    35
100
AcDbCircle
 10
374.9074092884
 20
171.0725060156
 30
0.0
 40
3.25
  0
CIRCLE
  5
1AC
330
1F
100
AcDbEntity
  8
0
  6
Continuous
 62
     7
370
    35
100
AcDbCircle
 10
323.2290308855
 20
144.7410570307
 30
0.0
 40
3.25
  0
CIRCLE
  5
1AD
330
1F
100
AcDbEntity
  8
0
  6
Continuous
 62
     7
370
    35
100
AcDbCircle
 10
362.2339445794
 20
132.0675923217
 30
0.0
 40
3.25
  0
CIRCLE
  5
1AE
330
1F
100
AcDbEntity
  8
0
  6
Continuous
 62
     7
370
    35
100
AcDbCircle
 10
374.0644448019
 20
182.9030062381
 30
0.0
 40
1.649999999999977
  0
CIRCLE
  5
1AF
330
1F
100
AcDbEntity
  8
0
  6
Continuous
 62
     7
370
    35
100
AcDbCircle
 10
324.071995372
 20
132.9105568082
 30
0.0
 40
1.649999999999977
  0
CIRCLE
  5
1B0
330
1F
100
AcDbEntity
  8
0
  6
Continuous
 62
     7
370
    35
100
AcDbCircle
 10
374.0644448019
 20
132.9105568082
 30
0.0
 40
1.649999999999977
  0
CIRCLE
  5
1B1
330
1F
100
AcDbEntity
  8
0
  6
Continuous
 62
     7
370
    35
100
AcDbCircle
 10
349.068220087
 20
157.9067815232
 30
0.0
 40
18.50000000000006
  0
CIRCLE
  5
1B2
330
1F
100
AcDbEntity
  8
0
  6
Continuous
 62
     7
370
    35
100
AcDbCircle
 10
324.071995372
 20
182.9030062381
 30
0.0
 40
1.649999999999977
  0
CIRCLE
  5
1B3
330
1F
100
AcDbEntity
  8
0
  6
Continuous
 62
     7
370
    35
100
AcDbCircle
 10
349.068220087
 20
157.9067815232
 30
0.0
 40
18.00000000000003
  0
ARC
  5
1B4
330
1F
100
AcDbEntity
  8
0
  6
Continuous
 62
     7
370
    35
100
AcDbCircle
 10
349.068220087
 20
157.9067815232
 30
0.0
 40
40.00000000000004
100
AcDbArc
 50
311.4096221093
 51
318.5903778907
  0
LINE
  5
1B5
330
1F
100
AcDbEntity
  8
0
  6
Continuous
 62
     7
370
    35
100
AcDbLine
 10
375.5257331976
 20
127.9067815232
 30
0.0
 11
374.763550402
 21
127.9067815232
 31
0.0
  0
LINE
  5
1B6
330
1F
100
AcDbEntity
  8
0
  6
Continuous
 62
     7
370
    35
100
AcDbLine
 10
379.068220087
 20
132.2114512081
 30
0.0
 11
379.068220087
 21
131.4492684125
 31
0.0
  0
ARC
  5
1B7
330
1F
100
AcDbEntity
  8
0
  6
Continuous
 62
     7
370
    35
100
AcDbCircle
 10
349.068220087
 20
157.9067815232
 30
0.0
 40
40.00000000000004
100
AcDbArc
 50
41.4096221093
 51
48.5903778907
  0
LINE
  5
1B8
330
1F
100
AcDbEntity
  8
0
  6
Continuous
 62
     7
370
    35
100
AcDbLine
 10
374.763550402
 20
187.9067815232
 30
0.0
 11
375.5257331976
 21
187.9067815232
 31
0.0
  0
LINE
  5
1B9
330
1F
100
AcDbEntity
  8
0
  6
Continuous
 62
     7
370
    35
100
AcDbLine
 10
379.068220087
 20
184.3642946338
 30
0.0
 11
379.068220087
 21
183.6021118382
 31
0.0
  0
ARC
  5
1BA
330
1F
100
AcDbEntity
  8
0
  6
Continuous
 62
     7
370
    35
100
AcDbCircle
 10
349.068220087
 20
157.9067815232
 30
0.0
 40
39.99999999999995
100
AcDbArc
 50
221.4096221093
 51
228.5903778907
  0
LINE
  5
1BB
330
1F
100
AcDbEntity
  8
0
  6
Continuous
 62
     7
370
    35
100
AcDbLine
 10
323.3728897719
 20
127.9067815232
 30
0.0
 11
322.6107069763
 21
127.9067815232
 31
0.0
  0
LINE
  5
1BC
330
1F
100
AcDbEntity
  8
0
  6
Continuous
 62
     7
370
    35
100
AcDbLine
 10
319.068220087
 20
131.4492684125
 30
0.0
 11
319.068220087
 21
132.2114512081
 31
0.0
  0
ARC
  5
1BD
330
1F
100
AcDbEntity
  8
0
  6
Continuous
 62
     7
370
    35
100
AcDbCircle
 10
349.068220087
 20
157.9067815232
 30
0.0
 40
39.99999999999996
100
AcDbArc
 50
131.4096221093
 51
138.5903778907
  0
LINE
  5
1BE
330
1F
100
AcDbEntity
  8
0
  6
Continuous
 62
     7
370
    35
100
AcDbLine
 10
319.068220087
 20
183.6021118382
 30
0.0
 11
319.068220087
 21
184.3642946338
 31
0.0
  0
LINE
  5
1BF
330
1F
100
AcDbEntity
  8
0
  6
Continuous
 62
     7
370
    35
100
AcDbLine
 10
322.6107069763
 20
187.9067815232
 30
0.0
 11
323.3728897719
 21
187.9067815232
 31
0.0
  0
SPLINE
  5
1C0
330
1F
100
AcDbEntity
  8
0
  6
Continuous
 62
     7
370
    35
100
AcDbSpline
210
0.0
220
0.0
230
1.0
 70
     8
 71
     3
 72
    11
 73
     7
 74
     0
 42
0.00000001
 43
0.00000001
 40
0.0
 40
0.0
 40
0.0
 40
0.0
 40
0.183784910741449
 40
0.5239246671077163
 40
0.8640473012975202
 40
1.0
 40
1.0
 40
1.0
 40
1.0
 10
321.8704073948188
 20
128.6264974687056
 30
0.0
 10
321.7128644675224
 20
128.7046751170178
 30
0.0
 10
321.2637491108484
 20
128.9275399768258
 30
0.0
 10
320.641437795827
 20
129.4794600790021
 30
0.0
 10
320.1157213432733
 20
130.0654473750404
 30
0.0
 10
319.9110344777333
 20
130.47209262762
 30
0.0
 10
319.8525821072019
 20
130.5882181978462
 30
0.0
  0
SPLINE
  5
1C1
330
1F
100
AcDbEntity
  8
0
  6
Continuous
 62
     7
370
    35
100
AcDbSpline
210
0.0
220
0.0
230
1.0
 70
     8
 71
     3
 72
    11
 73
     7
 74
     0
 42
0.00000001
 43
0.00000001
 40
0.0
 40
0.0
 40
0.0
 40
0.0
 40
0.1837849105784055
 40
0.5239246671411859
 40
0.8640473011449257
 40
0.9999999999999999
 40
0.9999999999999999
 40
0.9999999999999999
 40
0.9999999999999999
 10
378.3485041414941
 20
130.7089688311102
 30
0.0
 10
378.2703264932559
 20
130.5514259039529
 30
0.0
 10
378.0474616334467
 20
130.1023105472485
 30
0.0
 10
377.4955415313907
 20
129.4799992323098
 30
0.0
 10
376.9095542352639
 20
128.9542827796368
 30
0.0
 10
376.5029089827175
 20
128.7495959141021
 30
0.0
 10
376.3867834123623
 20
128.6911435435024
 30
0.0
  0
SPLINE
  5
1C2
330
1F
100
AcDbEntity
  8
0
  6
Continuous
 62
     7
370
    35
100
AcDbSpline
210
0.0
220
0.0
230
1.0
 70
     8
 71
     3
 72
    11
 73
     7
 74
     0
 42
0.00000001
 43
0.00000001
 40
0.0
 40
0.0
 40
0.0
 40
0.0
 40
0.183784910586939
 40
0.5239246671408413
 40
0.8640473011414703
 40
0.9999999999999999
 40
0.9999999999999999
 40
0.9999999999999999
 40
0.9999999999999999
 10
376.2660327790276
 20
187.1870655777152
 30
0.0
 10
376.4235757061918
 20
187.1088879294733
 30
0.0
 10
376.8726910628947
 20
186.8860230696643
 30
0.0
 10
377.4950023778281
 20
186.3341029676105
 30
0.0
 10
378.0207188304948
 20
185.7481156714918
 30
0.0
 10
378.2254056960295
 20
185.3414704189461
 30
0.0
 10
378.2838580666306
 20
185.2253448485882
 30
0.0
  0
SPLINE
  5
1C3
330
1F
100
AcDbEntity
  8
0
  6
Continuous
 62
     7
370
    35
100
AcDbSpline
210
0.0
220
0.0
230
1.0
 70
     8
 71
     3
 72
    11
 73
     7
 74
     0
 42
0.00000001
 43
0.00000001
 40
0.0
 40
0.0
 40
0.0
 40
0.0
 40
0.1837849105811264
 40
0.5239246671415496
 40
0.8640473011400251
 40
1.0
 40
1.0
 40
1.0
 40
1.0
 10
319.787936032417
 20
185.1045942152497
 30
0.0
 10
319.8661136806563
 20
185.262137142409
 30
0.0
 10
320.0889785404654
 20
185.711252499113
 30
0.0
 10
320.6408986425179
 20
186.3335638140468
 30
0.0
 10
321.226885938641
 20
186.8592802667178
 30
0.0
 10
321.6335311911863
 20
187.0639671322524
 30
0.0
 10
321.7496567615456
 20
187.1224195028542
 30
0.0
  0
ELLIPSE
  5
1C4
330
1F
100
AcDbEntity
  8
0
  6
Continuous
 62
     7
370
    35
100
AcDbEllipse
 10
324.0777092596
 20
132.9162706959
 30
0.0
 11
-3.53661094584794
 21
-3.536610945847883
 31
0.0
210
0.0
220
0.0
230
1.0
 40
0.9996954599
 41
5.885486850531744
 42
6.680883763827451
  0
ELLIPSE
  5
1C5
330
1F
100
AcDbEntity
  8
0
  6
Continuous
 62
     7
370
    35
100
AcDbEllipse
 10
324.0777092596
 20
182.8972923505
 30
0.0
 11
-3.536610945847941
 21
3.536610945847912
 31
0.0
210
0.0
220
0.0
230
1.0
 40
0.9996954599
 41
5.885486850531737
 42
6.680883763827442
  0
ELLIPSE
  5
1C6
330
1F
100
AcDbEntity
  8
0
  6
Continuous
 62
     7
370
    35
100
AcDbEllipse
 10
374.0587309143
 20
182.8972923505
 30
0.0
 11
3.536610945847941
 21
3.536610945847912
 31
0.0
210
0.0
220
0.0
230
1.0
 40
0.9996954599
 41
5.885486850531745
 42
6.68088376382745
  0
ELLIPSE
  5
1C7
330
1F
100
AcDbEntity
  8
0
  6
Continuous
 62
     7
370
    35
100
AcDbEllipse
 10
374.0587309143
 20
132.9162706959
 30
0.0
 11
3.53661094584794
 21
-3.536610945847883
 31
0.0
210
0.0
220
0.0
230
1.0
 40
0.9996954599
 41
5.885486850531732
 42
6.680883763827445
  0
ARC
  5
1C8
330
1F
100
AcDbEntity
  8
0
  6
Continuous
 62
     7
370
    35
100
AcDbCircle
 10
374.068220087
 20
182.9067815232
 30
0.0
 40
5.000000000000018
100
AcDbArc
 50
21.8150544339
 51
68.1849455661
  0
ARC
  5
1C9
330
1F
100
AcDbEntity
  8
0
  6
Continuous
 62
     7
370
    35
100
AcDbCircle
 10
324.068220087
 20
132.9067815232
 30
0.0
 40
4.999999999999997
100
AcDbArc
 50
201.8150544339
 51
248.1849455661
  0
ARC
  5
1CA
330
1F
100
AcDbEntity
  8
0
  6
Continuous
 62
     7
370
    35
100
AcDbCircle
 10
324.068220087
 20
182.9067815232
 30
0.0
 40
5.000000000000028
100
AcDbArc
 50
111.8150544339
 51
158.1849455661
  0
ARC
  5
1CB
330
1F
100
AcDbEntity
  8
0
  6
Continuous
 62
     7
370
    35
100
AcDbCircle
 10
374.068220087
 20
132.9067815232
 30
0.0
 40
4.99999999999996
100
AcDbArc
 50
291.8150544339
 51
338.1849455661
  0
LINE
  5
1CC
330
1F
100
AcDbEntity
  8
0
  6
HIDDEN
 62
     7
370
    18
100
AcDbLine
 10
334.6113877922
 20
161.9067815232
 30
0.0
 11
338.568220087
 21
161.9067815232
 31
0.0
  0
ARC
  5
1CD
330
1F
100
AcDbEntity
  8
0
  6
HIDDEN
 62
     7
370
    18
100
AcDbCircle
 10
349.068220087
 20
157.9067815232
 30
0.0
 40
15.00000000000001
100
AcDbArc
 50
134.4270040008
 51
164.5339900466
  0
LINE
  5
1CE
330
1F
100
AcDbEntity
  8
0
  6
HIDDEN
 62
     7
370
    18
100
AcDbLine
 10
338.568220087
 20
161.9067815232
 30
0.0
 11
342.568220087
 21
161.9067815232
 31
0.0
  0
SPLINE
  5
1CF
330
1F
100
AcDbEntity
  8
0
  6
HIDDEN
 62
     7
370
    18
100
AcDbSpline
210
0.0
220
0.0
230
1.0
 70
    11
 71
     3
 72
    26
 73
    22
 74
     0
 42
0.00000001
 43
0.00000001
 40
0.0
 40
0.0
 40
0.0
 40
0.0
 40
0.0720764018950341
 40
0.1440411026553149
 40
0.197115461559687
 40
0.2501451355170304
 40
0.3035555434506362
 40
0.3569303656000746
 40
0.4040865249597947
 40
0.4512334071747328
 40
0.4950867533922164
 40
0.5389397850326982
 40
0.5819744168674605
 40
0.6250144017926323
 40
0.668528580182177
 40
0.712056065838709
 40
0.7576349349164613
 40
0.8032374054750784
 40
0.853667668866425
 40
0.9041323035249754
 40
1.0
 40
1.0
 40
1.0
 40
1.0
 10
338.568220086955
 20
168.6189241659937
 30
0.0
 10
338.8156723684514
 20
168.851715340643
 30
0.0
 10
339.3101934397616
 20
169.316936919458
 30
0.0
 10
340.024269560872
 20
169.8832643671127
 30
0.0
 10
340.6588364512338
 20
170.3335632847425
 30
0.0
 10
341.2009862400073
 20
170.6830731602207
 30
0.0
 10
341.6883343448333
 20
170.9689727763873
 30
0.0
 10
342.0802807305078
 20
171.1813865217846
 30
0.0
 10
342.3581660801319
 20
171.3231093250812
 30
0.0
 10
342.5237531460995
 20
171.4038952978389
 30
0.0
 10
342.5828716513595
 20
171.4324902999095
 30
0.0
 10
342.5467747365383
 20
171.4149683801567
 30
0.0
 10
342.4158999724776
 20
171.3515431485195
 30
0.0
 10
342.2016501237127
 20
171.2438284037726
 30
0.0
 10
341.9077281544768
 20
171.0890543893577
 30
0.0
 10
341.5438509958237
 20
170.8858014909615
 30
0.0
 10
341.1206026553496
 20
170.6316476969087
 30
0.0
 10
340.6382239526681
 20
170.3191056164517
 30
0.0
 10
340.1165887287705
 20
169.9482506797972
 30
0.0
 10
339.4053885677944
 20
169.3989931329752
 30
0.0
 10
338.8995883969095
 20
168.9276913271479
 30
0.0
 10
338.568220086955
 20
168.6189241659937
 30
0.0
  0
LINE
  5
1D0
330
1F
100
AcDbEntity
  8
0
  6
HIDDEN
 62
     7
370
    18
100
AcDbLine
 10
340.8058943515
 20
161.9067815232
 30
0.0
 11
336.3305458224
 21
161.9067815232
 31
0.0
  0
LINE
  5
1D1
330
1F
100
AcDbEntity
  8
0
  6
HIDDEN
 62
     7
370
    18
100
AcDbLine
 10
340.8058943515
 20
158.4067815232
 30
0.0
 11
336.3305458224
 21
158.4067815232
 31
0.0
  0
LINE
  5
1D2
330
1F
100
AcDbEntity
  8
0
  6
HIDDEN
 62
     7
370
    18
100
AcDbLine
 10
340.818220087
 20
156.9067815232
 30
0.0
 11
336.318220087
 21
156.9067815232
 31
0.0
  0
LINE
  5
1D3
330
1F
100
AcDbEntity
  8
0
  6
HIDDEN
 62
     7
370
    18
100
AcDbLine
 10
340.8058943515
 20
157.4067815232
 30
0.0
 11
336.3305458224
 21
157.4067815232
 31
0.0
  0
LINE
  5
1D4
330
1F
100
AcDbEntity
  8
0
  6
HIDDEN
 62
     7
370
    18
100
AcDbLine
 10
340.2061897292
 20
156.9067815232
 30
0.0
 11
336.9302504447
 21
156.9067815232
 31
0.0
  0
SPLINE
  5
1D5
330
1F
100
AcDbEntity
  8
0
  6
HIDDEN
 62
     7
370
    18
100
AcDbSpline
210
0.0
220
0.0
230
1.0
 70
    11
 71
     3
 72
    28
 73
    24
 74
     0
 42
0.00000001
 43
0.00000001
 40
0.0
 40
0.0
 40
0.0
 40
0.0
 40
0.0661702221864769
 40
0.122513634685374
 40
0.1679173726326797
 40
0.2136128069701566
 40
0.2525157798808877
 40
0.2882349705071318
 40
0.3251029549857647
 40
0.3664974396777985
 40
0.4279403603927872
 40
0.507615405100206
 40
0.5886415302186426
 40
0.6498788367973896
 40
0.6895933932055867
 40
0.7196859268297696
 40
0.7499901252365553
 40
0.7761966571725266
 40
0.8138913808707142
 40
0.8722270986535552
 40
0.9149264972933256
 40
0.9576560596922309
 40
1.0
 40
1.0
 40
1.0
 40
1.0
 10
338.568220086955
 20
147.1946388803651
 30
0.0
 10
338.7706692331781
 20
147.0025693259954
 30
0.0
 10
339.145502200685
 20
146.6469540894025
 30
0.0
 10
339.6485066890052
 20
146.229662556782
 30
0.0
 10
340.0120047502749
 20
145.9473573397015
 30
0.0
 10
340.2098289078416
 20
145.8017560090572
 30
0.0
 10
340.2331809609433
 20
145.7848148142795
 30
0.0
 10
340.1199295160713
 20
145.8676166014747
 30
0.0
 10
339.8958445132381
 20
146.0363869464561
 30
0.0
 10
339.5283267445076
 20
146.3267335880632
 30
0.0
 10
338.9707616875503
 20
146.8024509880388
 30
0.0
 10
338.2875628862522
 20
147.4603535683296
 30
0.0
 10
337.6748021873459
 20
148.138304419177
 30
0.0
 10
337.2555903359524
 20
148.6578519758054
 30
0.0
 10
337.0272672638584
 20
148.9605720213631
 30
0.0
 10
336.9217534915794
 20
149.1053334164205
 30
0.0
 10
336.9099719634706
 20
149.1217305700473
 30
0.0
 10
336.9833463396242
 20
149.0204926472803
 30
0.0
 10
337.1711368893588
 20
148.7678036059398
 30
0.0
 10
337.4729378607569
 20
148.3849096721539
 30
0.0
 10
337.8367392938762
 20
147.9605156646375
 30
0.0
 10
338.1897791801589
 20
147.5732712670813
 30
0.0
 10
338.4424548950921
 20
147.3204677057001
 30
0.0
 10
338.568220086955
 20
147.1946388803651
 30
0.0
  0
ARC
  5
1D6
330
1F
100
AcDbEntity
  8
0
  6
HIDDEN
 62
     7
370
    18
100
AcDbCircle
 10
349.068220087
 20
157.9067815232
 30
0.0
 40
14.99999999999999
100
AcDbArc
 50
134.4270040008
 51
164.5339900466
  0
ARC
  5
1D7
330
1F
100
AcDbEntity
  8
0
  6
HIDDEN
 62
     7
370
    18
100
AcDbCircle
 10
349.068220087
 20
157.9067815232
 30
0.0
 40
7.000000000000044
100
AcDbArc
 50
55.150095421
 51
175.9039562418
  0
ARC
  5
1D8
330
1F
100
AcDbEntity
  8
0
  6
HIDDEN
 62
     7
370
    18
100
AcDbCircle
 10
349.068220087
 20
157.9067815232
 30
0.0
 40
14.99999999999997
100
AcDbArc
 50
74.5339900466
 51
178.0897868283
  0
LINE
  5
1D9
330
1F
100
AcDbEntity
  8
0
  6
HIDDEN
 62
     7
370
    18
100
AcDbLine
 10
334.0765557364
 20
158.4067815232
 30
0.0
 11
342.0861000651
 21
158.4067815232
 31
0.0
  0
LINE
  5
1DA
330
1F
100
AcDbEntity
  8
0
  6
HIDDEN
 62
     7
370
    18
100
AcDbLine
 10
353.068220087
 20
163.6513441697
 30
0.0
 11
353.068220087
 21
172.363613818
 31
0.0
  0
ARC
  5
1DB
330
1F
100
AcDbEntity
  8
0
  6
HIDDEN
 62
     7
370
    18
100
AcDbCircle
 10
349.068220087
 20
157.9067815232
 30
0.0
 40
7.00000000000002
100
AcDbArc
 50
184.0960437582
 51
304.849904579
  0
ARC
  5
1DC
330
1F
100
AcDbEntity
  8
0
  6
HIDDEN
 62
     7
370
    18
100
AcDbCircle
 10
349.068220087
 20
157.9067815232
 30
0.0
 40
15.0
100
AcDbArc
 50
181.9102131717
 51
285.4660099534
  0
LINE
  5
1DD
330
1F
100
AcDbEntity
  8
0
  6
HIDDEN
 62
     7
370
    18
100
AcDbLine
 10
334.0765557364
 20
157.4067815232
 30
0.0
 11
342.0861000651
 21
157.4067815232
 31
0.0
  0
LINE
  5
1DE
330
1F
100
AcDbEntity
  8
0
  6
HIDDEN
 62
     7
370
    18
100
AcDbLine
 10
353.068220087
 20
143.4499492284
 30
0.0
 11
353.068220087
 21
152.1622188766
 31
0.0
  0
LINE
  5
1DF
330
1F
100
AcDbEntity
  8
0
  6
HIDDEN
 62
     7
370
    18
100
AcDbLine
 10
334.0765557364
 20
158.4067815232
 30
0.0
 11
341.1620304258
 21
158.4067815232
 31
0.0
  0
LINE
  5
1E0
330
1F
100
AcDbEntity
  8
0
  6
HIDDEN
 62
     7
370
    18
100
AcDbLine
 10
334.0765557364
 20
157.4067815232
 30
0.0
 11
341.1620304258
 21
157.4067815232
 31
0.0
  0
ARC
  5
1E1
330
1F
100
AcDbEntity
  8
0
  6
HIDDEN
 62
     7
370
    18
100
AcDbCircle
 10
349.068220087
 20
157.9067815232
 30
0.0
 40
6.999999999999988
100
AcDbArc
 50
184.0960437582
 51
304.849904579
  0
ARC
  5
1E2
330
1F
100
AcDbEntity
  8
0
  6
HIDDEN
 62
     7
370
    18
100
AcDbCircle
 10
349.068220087
 20
157.9067815232
 30
0.0
 40
7.000000000000012
100
AcDbArc
 50
55.150095421
 51
175.9039562418
  0
ARC
  5
1E3
330
1F
100
AcDbEntity
  8
0
  6
HIDDEN
 62
     7
370
    18
100
AcDbCircle
 10
349.068220087
 20
157.9067815232
 30
0.0
 40
15.00000000000003
100
AcDbArc
 50
74.5339900466
 51
178.0897868283
  0
ARC
  5
1E4
330
1F
100
AcDbEntity
  8
0
  6
HIDDEN
 62
     7
370
    18
100
AcDbCircle
 10
349.068220087
 20
157.9067815232
 30
0.0
 40
14.99999999999997
100
AcDbArc
 50
181.9102131717
 51
285.4660099534
  0
LINE
  5
1E5
330
1F
100
AcDbEntity
  8
0
  6
HIDDEN
 62
     7
370
    18
100
AcDbLine
 10
345.8152557334
 20
187.9067815232
 30
0.0
 11
332.3211844405
 21
187.9067815232
 31
0.0
  0
LINE
  5
1E6
330
1F
100
AcDbEntity
  8
0
  6
HIDDEN
 62
     7
370
    18
100
AcDbLine
 10
345.318220087
 20
188.9067815232
 30
0.0
 11
332.818220087
 21
188.9067815232
 31
0.0
  0
LINE
  5
1E7
330
1F
100
AcDbEntity
  8
0
  6
HIDDEN
 62
     7
370
    18
100
AcDbLine
 10
344.818220087
 20
184.4067815232
 30
0.0
 11
333.318220087
 21
184.4067815232
 31
0.0
  0
LINE
  5
1E8
330
1F
100
AcDbEntity
  8
0
  6
HIDDEN
 62
     7
370
    18
100
AcDbLine
 10
344.8152658301
 20
187.9067815232
 30
0.0
 11
333.3211743438
 21
187.9067815232
 31
0.0
  0
LINE
  5
1E9
330
1F
100
AcDbEntity
  8
0
  6
HIDDEN
 62
     7
370
    18
100
AcDbLine
 10
343.306336225
 20
184.4067815232
 30
0.0
 11
334.8301039489
 21
184.4067815232
 31
0.0
  0
LINE
  5
1EA
330
1F
100
AcDbEntity
  8
0
  6
HIDDEN
 62
     7
370
    18
100
AcDbLine
 10
335.158220087
 20
165.9067815232
 30
0.0
 11
341.9782200696
 21
165.9067815232
 31
0.0
  0
LINE
  5
1EB
330
1F
100
AcDbEntity
  8
0
  6
HIDDEN
 62
     7
370
    18
100
AcDbLine
 10
342.178220087
 20
161.9067815232
 30
0.0
 11
334.958220087
 21
161.9067815232
 31
0.0
  0
LINE
  5
1EC
330
1F
100
AcDbEntity
  8
0
  6
HIDDEN
 62
     7
370
    18
100
AcDbLine
 10
340.768220087
 20
161.9067815232
 30
0.0
 11
336.368220087
 21
161.9067815232
 31
0.0
  0
LINE
  5
1ED
330
1F
100
AcDbEntity
  8
0
  6
HIDDEN
 62
     7
370
    18
100
AcDbLine
 10
336.947220087
 20
149.9067815232
 30
0.0
 11
340.189220087
 21
149.9067815232
 31
0.0
  0
LINE
  5
1EE
330
1F
100
AcDbEntity
  8
0
  6
HIDDEN
 62
     7
370
    18
100
AcDbLine
 10
336.568220087
 20
150.2857815232
 30
0.0
 11
340.568220087
 21
150.2857815232
 31
0.0
  0
LINE
  5
1EF
330
1F
100
AcDbEntity
  8
0
  6
HIDDEN
 62
     7
370
    18
100
AcDbLine
 10
337.028220087
 20
165.9067815232
 30
0.0
 11
338.568220087
 21
165.9067815232
 31
0.0
  0
LINE
  5
1F0
330
1F
100
AcDbEntity
  8
0
  6
HIDDEN
 62
     7
370
    18
100
AcDbLine
 10
338.568220087
 20
165.9067815232
 30
0.0
 11
340.108220087
 21
165.9067815232
 31
0.0
  0
SPLINE
  5
1F1
330
1F
100
AcDbEntity
  8
0
  6
HIDDEN
 62
     7
370
    18
100
AcDbSpline
210
0.0
220
0.0
230
1.0
 70
    11
 71
     3
 72
    46
 73
    42
 74
     0
 42
0.00000001
 43
0.00000001
 40
0.0
 40
0.0
 40
0.0
 40
0.0
 40
0.036787000259722
 40
0.0736128974266846
 40
0.1075239560715172
 40
0.1414290033287677
 40
0.1686557366218891
 40
0.1958426078502076
 40
0.2143505741328034
 40
0.2328319165377624
 40
0.2481616980102529
 40
0.2634812863739165
 40
0.27882238079634
 40
0.2941737437679192
 40
0.3137139884591004
 40
0.3332868274043932
 40
0.3623903737698261
 40
0.3915403845289147
 40
0.4289998798750842
 40
0.4664592593915379
 40
0.5039726447766594
 40
0.5414370685119211
 40
0.5683476222363049
 40
0.5952409666301111
 40
0.62227015514883
 40
0.6492887600416246
 40
0.6738953537757479
 40
0.6985004644518851
 40
0.7221737982230098
 40
0.7458473088604426
 40
0.7694338003841033
 40
0.7930202437198838
 40
0.8166283429208967
 40
0.8402363714855692
 40
0.8638141546414378
 40
0.8873939497158688
 40
0.9111096053245014
 40
0.9348322848292546
 40
0.959508485273228
 40
0.9841969485483811
 40
1.0
 40
1.0
 40
1.0
 40
1.0
 10
339.0682200869551
 20
174.6474505659627
 30
0.0
 10
338.6710374524455
 20
174.3982473701319
 30
0.0
 10
337.8762522205051
 20
173.8995774823027
 30
0.0
 10
336.8173889150135
 20
173.0951857037081
 30
0.0
 10
335.8884966214372
 20
172.2932902993602
 30
0.0
 10
335.1452773739313
 20
171.5710101677063
 30
0.0
 10
334.5514022449267
 20
170.9331841913061
 30
0.0
 10
334.1420387773475
 20
170.4588412337656
 30
0.0
 10
333.8584185024516
 20
170.1112499610903
 30
0.0
 10
333.6866816100372
 20
169.8931129069031
 30
0.0
 10
333.5897467843926
 20
169.7673547034583
 30
0.0
 10
333.5574268380685
 20
169.7246953063021
 30
0.0
 10
333.5898810144246
 20
169.7675299127888
 30
0.0
 10
333.6891867675601
 20
169.896366819124
 30
0.0
 10
333.8704588816755
 20
170.1264602558788
 30
0.0
 10
334.1784395951394
 20
170.502706461669
 30
0.0
 10
334.6268158137869
 20
171.0179562291194
 30
0.0
 10
335.2886934544246
 20
171.7184192559417
 30
0.0
 10
336.1300295216384
 20
172.5141617320311
 30
0.0
 10
337.1648704052123
 20
173.3736250499356
 30
0.0
 10
338.3130992190804
 20
174.1917064364717
 30
0.0
 10
339.427559366807
 20
174.8726097595752
 30
0.0
 10
340.449275096474
 20
175.4074613739328
 30
0.0
 10
341.3445795510467
 20
175.8208247474715
 30
0.0
 10
342.1964140302651
 20
176.1622306397757
 30
0.0
 10
342.947047944812
 20
176.4259242217454
 30
0.0
 10
343.5648380771238
 20
176.6168287902068
 30
0.0
 10
344.0377790138371
 20
176.7482078740406
 30
0.0
 10
344.3664989075269
 20
176.8322593708211
 30
0.0
 10
344.5521944709443
 20
176.8766006082315
 30
0.0
 10
344.5870160561537
 20
176.885151729999
 30
0.0
 10
344.476938749775
 20
176.8587445359709
 30
0.0
 10
344.2190315082347
 20
176.7953508837564
 30
0.0
 10
343.8283164039109
 20
176.6915257628388
 30
0.0
 10
343.3129177224159
 20
176.5411511596556
 30
0.0
 10
342.695764547119
 20
176.3407150875483
 30
0.0
 10
341.9945341498671
 20
176.0838079624364
 30
0.0
 10
341.2269977607082
 20
175.7680952656227
 30
0.0
 10
340.4169270133808
 20
175.3897756212927
 30
0.0
 10
339.6868899999718
 20
175.0093863544401
 30
0.0
 10
339.2418935536977
 20
174.749053443039
 30
0.0
 10
339.0682200869551
 20
174.6474505659627
 30
0.0
  0
LINE
  5
1F2
330
1F
100
AcDbEntity
  8
0
  6
HIDDEN
 62
     7
370
    18
100
AcDbLine
 10
344.5651486875
 20
187.9067815232
 30
0.0
 11
333.5712914864
 21
187.9067815232
 31
0.0
  0
LINE
  5
1F3
330
1F
100
AcDbEntity
  8
0
  6
HIDDEN
 62
     7
370
    18
100
AcDbLine
 10
342.568220087
 20
161.9067815232
 30
0.0
 11
342.568220087
 21
171.4229146384
 31
0.0
  0
LINE
  5
1F4
330
1F
100
AcDbEntity
  8
0
  6
HIDDEN
 62
     7
370
    18
100
AcDbLine
 10
336.318220087
 20
161.9067815232
 30
0.0
 11
336.318220087
 21
158.4067815232
 31
0.0
  0
LINE
  5
1F5
330
1F
100
AcDbEntity
  8
0
  6
HIDDEN
 62
     7
370
    18
100
AcDbLine
 10
340.818220087
 20
158.4067815232
 30
0.0
 11
340.818220087
 21
161.9067815232
 31
0.0
  0
LINE
  5
1F6
330
1F
100
AcDbEntity
  8
0
  6
HIDDEN
 62
     7
370
    18
100
AcDbLine
 10
336.318220087
 20
157.4067815232
 30
0.0
 11
336.318220087
 21
156.9067815232
 31
0.0
  0
LINE
  5
1F7
330
1F
100
AcDbEntity
  8
0
  6
HIDDEN
 62
     7
370
    18
100
AcDbLine
 10
340.818220087
 20
156.9067815232
 30
0.0
 11
340.818220087
 21
157.4067815232
 31
0.0
  0
LINE
  5
1F8
330
1F
100
AcDbEntity
  8
0
  6
HIDDEN
 62
     7
370
    18
100
AcDbLine
 10
336.918220087
 20
156.9067815232
 30
0.0
 11
336.918220087
 21
149.0961273766
 31
0.0
  0
LINE
  5
1F9
330
1F
100
AcDbEntity
  8
0
  6
HIDDEN
 62
     7
370
    18
100
AcDbLine
 10
340.218220087
 20
145.8078885103
 30
0.0
 11
340.218220087
 21
156.9067815232
 31
0.0
  0
LINE
  5
1FA
330
1F
100
AcDbEntity
  8
0
  6
HIDDEN
 62
     7
370
    18
100
AcDbLine
 10
344.818220087
 20
184.4067815232
 30
0.0
 11
344.818220087
 21
187.9067815232
 31
0.0
  0
LINE
  5
1FB
330
1F
100
AcDbEntity
  8
0
  6
HIDDEN
 62
     7
370
    18
100
AcDbLine
 10
333.318220087
 20
187.9067815232
 30
0.0
 11
333.318220087
 21
184.4067815232
 31
0.0
  0
LINE
  5
1FC
330
1F
100
AcDbEntity
  8
0
  6
HIDDEN
 62
     7
370
    18
100
AcDbLine
 10
342.178220087
 20
161.9067815232
 30
0.0
 11
342.178220087
 21
165.7067815232
 31
0.0
  0
LINE
  5
1FD
330
1F
100
AcDbEntity
  8
0
  6
HIDDEN
 62
     7
370
    18
100
AcDbLine
 10
334.958220087
 20
162.9967618768
 30
0.0
 11
334.958220087
 21
161.9067815232
 31
0.0
  0
LINE
  5
1FE
330
1F
100
AcDbEntity
  8
0
  6
HIDDEN
 62
     7
370
    18
100
AcDbLine
 10
336.568220087
 20
150.2857815232
 30
0.0
 11
336.947220087
 21
149.9067815232
 31
0.0
  0
LINE
  5
1FF
330
1F
100
AcDbEntity
  8
0
  6
HIDDEN
 62
     7
370
    18
100
AcDbLine
 10
340.189220087
 20
149.9067815232
 30
0.0
 11
340.568220087
 21
150.2857815232
 31
0.0
  0
LINE
  5
200
330
1F
100
AcDbEntity
  8
0
  6
HIDDEN
 62
     7
370
    18
100
AcDbLine
 10
340.568220087
 20
150.2857815232
 30
0.0
 11
340.568220087
 21
157.4067815232
 31
0.0
  0
LINE
  5
201
330
1F
100
AcDbEntity
  8
0
  6
HIDDEN
 62
     7
370
    18
100
AcDbLine
 10
340.568220087
 20
158.4067815232
 30
0.0
 11
340.568220087
 21
161.7067815232
 31
0.0
  0
LINE
  5
202
330
1F
100
AcDbEntity
  8
0
  6
HIDDEN
 62
     7
370
    18
100
AcDbLine
 10
336.568220087
 20
161.7067815232
 30
0.0
 11
336.568220087
 21
158.4067815232
 31
0.0
  0
LINE
  5
203
330
1F
100
AcDbEntity
  8
0
  6
HIDDEN
 62
     7
370
    18
100
AcDbLine
 10
336.568220087
 20
157.4067815232
 30
0.0
 11
336.568220087
 21
150.2857815232
 31
0.0
  0
LINE
  5
204
330
1F
100
AcDbEntity
  8
0
  6
HIDDEN
 62
     7
370
    18
100
AcDbLine
 10
333.568220087
 20
187.9067815232
 30
0.0
 11
333.568220087
 21
169.7389643888
 31
0.0
  0
LINE
  5
205
330
1F
100
AcDbEntity
  8
0
  6
HIDDEN
 62
     7
370
    18
100
AcDbLine
 10
344.568220087
 20
176.877126832
 30
0.0
 11
344.568220087
 21
187.9067815232
 31
0.0
  0
CIRCLE
  5
206
330
1F
100
AcDbEntity
  8
0
  6
HIDDEN
 62
     1
370
    18
100
AcDbCircle
 10
349.068220087
 20
157.9067815232
 30
0.0
 40
19.49999999999999
  0
INSERT
  5
212
330
1F
100
AcDbEntity
  8
0
  6
Continuous
 62
     7
370
     0
100
AcDbBlockReference
  2
SW_CENTERMARKSYMBOL_2
 10
349.068220087
 20
157.9067815232
 30
0.0
  0
INSERT
  5
232
330
1F
100
AcDbEntity
  8
0
  6
Continuous
 62
     7
370
     0
100
AcDbBlockReference
  2
SW_CENTERMARKSYMBOL_3
 10
374.0644448019
 20
182.9030062381
 30
0.0
  0
INSERT
  5
26E
330
1F
100
AcDbEntity
  8
0
  6
Continuous
 62
     7
370
     0
100
AcDbBlockReference
  2
SW_CENTERMARKSYMBOL_4
 10
362.2339445794
 20
183.7459707246
 30
0.0
  0
INSERT
  5
28E
330
1F
100
AcDbEntity
  8
0
  6
Continuous
 62
     7
370
     0
100
AcDbBlockReference
  2
SW_CENTERMARKSYMBOL_5
 10
374.0644448019
 20
182.9030062381
 30
0.0
  0
LINE
  5
28F
330
1F
100
AcDbEntity
  8
0
  6
CENTER
 62
     7
370
    18
100
AcDbLine
 10
332.6279874244
 20
141.4665488606
 30
0.0
 11
311.8493593253
 21
120.6879207615
 31
0.0
  0
LINE
  5
290
330
1F
100
AcDbEntity
  8
0
  6
Continuous
 62
     7
370
    18
100
AcDbLine
 10
325.9950523654
 20
145.2710567948
 30
0.0
 11
331.213773862
 21
140.0523352982
 31
0.0
  0
SOLID
  5
291
330
1F
100
AcDbEntity
  8
0
  6
Continuous
 62
     7
370
    18
100
AcDbTrace
 10
331.213773862
 20
140.0523352982
 30
0.0
 11
328.3297435612
 21
144.0350438088
 31
0.0
 12
327.2310653514
 22
142.936365599
 32
0.0
 13
327.2310653514
 23
142.936365599
 33
0.0
  0
LINE
  5
292
330
1F
100
AcDbEntity
  8
0
  6
Continuous
 62
     7
370
    18
100
AcDbLine
 10
308.0448513911
 20
127.3208558205
 30
0.0
 11
313.2635728877
 21
122.1021343239
 31
0.0
  0
SOLID
  5
293
330
1F
100
AcDbEntity
  8
0
  6
Continuous
 62
     7
370
    18
100
AcDbTrace
 10
313.2635728877
 20
122.1021343239
 30
0.0
 11
310.3795425869
 21
126.0848428345
 31
0.0
 12
309.2808643771
 22
124.9861646246
 32
0.0
 13
309.2808643771
 23
124.9861646246
 33
0.0
  0
MTEXT
  5
294
330
1F
100
AcDbEntity
  8
0
  6
Continuous
 62
     7
100
AcDbMText
 10
324.5952474482
 20
152.6574102305
 30
0.0
 40
4.8555175781
 41
0.0
 71
     1
 72
     1
  1
X
  7
SLDTEXTSTYLE2
 73
     1
 44
1.0
  0
MTEXT
  5
295
330
1F
100
AcDbEntity
  8
0
  6
Continuous
 62
     7
100
AcDbMText
 10
303.5396758931
 20
131.2133446704
 30
0.0
 40
4.8555175781
 41
0.0
 71
     1
 72
     1
  1
X
  7
SLDTEXTSTYLE2
 73
     1
 44
1.0
  0
LINE
  5
296
330
1F
100
AcDbEntity
  8
0
  6
Continuous
 62
     7
370
    18
100
AcDbLine
 10
336.947220087
 20
158.4067815232
 30
0.0
 11
336.947220087
 21
157.4067815232
 31
0.0
  0
LINE
  5
297
330
1F
100
AcDbEntity
  8
0
  6
Continuous
 62
     7
370
    18
100
AcDbLine
 10
340.189220087
 20
157.4067815232
 30
0.0
 11
340.189220087
 21
158.4067815232
 31
0.0
  0
LINE
  5
298
330
1F
100
AcDbEntity
  8
0
  6
HIDDEN
 62
     7
370
    18
100
AcDbLine
 10
336.947220087
 20
161.9067815232
 30
0.0
 11
336.947220087
 21
158.4067815232
 31
0.0
  0
LINE
  5
299
330
1F
100
AcDbEntity
  8
0
  6
HIDDEN
 62
     7
370
    18
100
AcDbLine
 10
336.947220087
 20
157.4067815232
 30
0.0
 11
336.947220087
 21
149.9067815232
 31
0.0
  0
LINE
  5
29A
330
1F
100
AcDbEntity
  8
0
  6
HIDDEN
 62
     7
370
    18
100
AcDbLine
 10
340.189220087
 20
149.9067815232
 30
0.0
 11
340.189220087
 21
157.4067815232
 31
0.0
  0
LINE
  5
29B
330
1F
100
AcDbEntity
  8
0
  6
HIDDEN
 62
     7
370
    18
100
AcDbLine
 10
340.189220087
 20
158.4067815232
 30
0.0
 11
340.189220087
 21
161.9067815232
 31
0.0
  0
CIRCLE
  5
29C
330
1F
100
AcDbEntity
  8
0
  6
Continuous
 62
     7
370
     0
100
AcDbCircle
 10
374.0644448019
 20
182.9030062381
 30
0.0
 40
2.0
  0
CIRCLE
  5
29D
330
1F
100
AcDbEntity
  8
0
  6
Continuous
 62
     7
370
     0
100
AcDbCircle
 10
324.071995372
 20
182.9030062381
 30
0.0
 40
2.0
  0
CIRCLE
  5
29E
330
1F
100
AcDbEntity
  8
0
  6
Continuous
 62
     7
370
     0
100
AcDbCircle
 10
324.071995372
 20
132.9105568082
 30
0.0
 40
2.0
  0
CIRCLE
  5
29F
330
1F
100
AcDbEntity
  8
0
  6
Continuous
 62
     7
370
     0
100
AcDbCircle
 10
374.0644448019
 20
132.9105568082
 30
0.0
 40
2.0
  0
LINE
  5
2A0
330
1F
100
AcDbEntity
  8
0
  6
Continuous
 62
     7
370
    18
100
AcDbLine
 10
336.568220087
 20
149.6152195473
 30
0.0
 11
336.568220087
 21
149.6136259219
 31
0.0
  0
LINE
  5
2A1
330
1F
100
AcDbEntity
  8
0
  6
HIDDEN
 62
     7
370
    18
100
AcDbLine
 10
340.568220087
 20
145.7957328485
 30
0.0
 11
340.568220087
 21
156.9067815232
 31
0.0
  0
LINE
  5
2A2
330
1F
100
AcDbEntity
  8
0
  6
HIDDEN
 62
     7
370
    18
100
AcDbLine
 10
336.568220087
 20
156.9067815232
 30
0.0
 11
336.568220087
 21
149.6152195473
 31
0.0
  0
LINE
  5
2A3
330
1F
100
AcDbEntity
  8
0
  6
HIDDEN
 62
     7
370
    18
100
AcDbLine
 10
340.568220087
 20
145.7957328485
 30
0.0
 11
340.5457178284
 21
145.7957328485
 31
0.0
  0
LINE
  5
2A4
330
1F
100
AcDbEntity
  8
0
  6
HIDDEN
 62
     7
370
     0
100
AcDbLine
 10
340.5456542969
 20
145.7957328485
 30
0.0
 11
340.218220087
 21
145.7957328485
 31
0.0
  0
LINE
  5
2A5
330
1F
100
AcDbEntity
  8
0
  6
CENTERX2
 62
     7
370
    18
100
AcDbLine
 10
338.568220087
 20
144.9704644996
 30
0.0
 11
338.568220087
 21
170.2276249742
 31
0.0
  0
LINE
  5
2A6
330
1F
100
AcDbEntity
  8
0
  6
CENTERX2
 62
     7
370
    18
100
AcDbLine
 10
339.068220087
 20
169.6392745364
 30
0.0
 11
339.068220087
 21
190.2894459936
 31
0.0
  0
ARC
  5
2A7
330
1F
100
AcDbEntity
  8
0
  6
Continuous
 62
     7
370
    18
100
AcDbCircle
 10
268.7008243131
 20
82.9277917538
 30
0.0
 40
17.76868450647446
100
AcDbArc
 50
156.4908139033
 51
188.6166192988
  0
LINE
  5
2A8
330
1F
100
AcDbEntity
  8
0
  6
Continuous
 62
     7
370
    35
100
AcDbLine
 10
269.360608056
 20
90.0156505967
 30
0.0
 11
269.360608056
 21
79.5656487907
 31
0.0
  0
LINE
  5
2A9
330
1F
100
AcDbEntity
  8
0
  6
Continuous
 62
     7
370
    35
100
AcDbLine
 10
256.8606050758
 20
79.5656487907
 30
0.0
 11
269.360608056
 21
79.5656487907
 31
0.0
  0
LINE
  5
2AA
330
1F
100
AcDbEntity
  8
0
  6
Continuous
 62
     7
370
    35
100
AcDbLine
 10
255.8691861181
 20
77.9156506623
 30
0.0
 11
256.8606050758
 21
79.5656487907
 31
0.0
  0
LINE
  5
2AB
330
1F
100
AcDbEntity
  8
0
  6
Continuous
 62
     7
370
    35
100
AcDbLine
 10
256.8606050758
 20
76.2656488086
 30
0.0
 11
255.8691861181
 21
77.9156506623
 31
0.0
  0
LINE
  5
2AC
330
1F
100
AcDbEntity
  8
0
  6
Continuous
 62
     7
370
    35
100
AcDbLine
 10
269.360608056
 20
76.2656488086
 30
0.0
 11
256.8606050758
 21
76.2656488086
 31
0.0
  0
LINE
  5
2AD
330
1F
100
AcDbEntity
  8
0
  6
Continuous
 62
     7
370
    35
100
AcDbLine
 10
269.360608056
 20
76.2656488086
 30
0.0
 11
269.360608056
 21
73.7656474674
 31
0.0
  0
LINE
  5
2AE
330
1F
100
AcDbEntity
  8
0
  6
Continuous
 62
     7
370
    35
100
AcDbLine
 10
269.360608056
 20
73.7656474674
 30
0.0
 11
268.8606070427
 21
73.2656501795
 31
0.0
  0
LINE
  5
2AF
330
1F
100
AcDbEntity
  8
0
  6
Continuous
 62
     7
370
    35
100
AcDbLine
 10
258.3606081156
 20
73.2656501795
 30
0.0
 11
268.8606070427
 21
73.2656501795
 31
0.0
  0
LINE
  5
2B0
330
1F
100
AcDbEntity
  8
0
  6
Continuous
 62
     7
370
    35
100
AcDbLine
 10
251.3606069682
 20
80.2656494642
 30
0.0
 11
258.3606081156
 21
73.2656501795
 31
0.0
  0
LINE
  5
2B1
330
1F
100
AcDbEntity
  8
0
  6
Continuous
 62
     7
370
    35
100
AcDbLine
 10
251.1326955704
 20
80.2656494642
 30
0.0
 11
251.3606069682
 21
80.2656494642
 31
0.0
  0
LINE
  5
2B2
330
1F
100
AcDbEntity
  8
0
  6
Continuous
 62
     7
370
    35
100
AcDbLine
 10
256.8606050758
 20
76.2656488086
 30
0.0
 11
256.8606050758
 21
79.5656487907
 31
0.0
  0
LINE
  5
2B3
330
1F
100
AcDbEntity
  8
0
  6
Continuous
 62
     7
370
    35
100
AcDbLine
 10
269.360608056
 20
76.2656488086
 30
0.0
 11
269.360608056
 21
79.5656487907
 31
0.0
  0
INSERT
  5
2C8
330
1F
100
AcDbEntity
  8
0
  6
Continuous
 62
     7
370
    18
100
AcDbBlockReference
  2
SW_HATCH_0
 10
269.360608056
 20
74.0091585184
 30
0.0
  0
MTEXT
  5
2C9
330
1F
100
AcDbEntity
  8
0
  6
Continuous
 62
     7
370
     0
100
AcDbMText
 10
261.7391338284
 20
68.0475141558
 30
0.0
 40
2.6458333333
 41
0.0
 71
     2
 72
     1
  1
SECTION X-X
  7
SLDTEXTSTYLE2
 73
     1
 44
1.0
  0
LINE
  5
2CA
330
1F
100
AcDbEntity
  8
0
  6
Continuous
 62
     7
370
    18
100
AcDbLine
 10
269.360608056
 20
75.9156503344
 30
0.0
 11
259.3606064169
 21
75.9156503344
 31
0.0
  0
LINE
  5
2CB
330
1F
100
AcDbEntity
  8
0
  6
Continuous
 62
     7
370
    18
100
AcDbLine
 10
259.3606064169
 20
79.9156509901
 30
0.0
 11
269.360608056
 21
79.9156509901
 31
0.0
  0
LINE
  5
2CC
330
1F
100
AcDbEntity
  8
0
  6
Continuous
 62
     7
370
    25
100
AcDbLine
 10
259.3606064169
 20
79.5656487907
 30
0.0
 11
259.3606064169
 21
79.9156509901
 31
0.0
  0
LINE
  5
2CD
330
1F
100
AcDbEntity
  8
0
  6
Continuous
 62
     7
370
    25
100
AcDbLine
 10
259.3606064169
 20
75.9156503344
 30
0.0
 11
259.3606064169
 21
76.2656488086
 31
0.0
  0
LWPOLYLINE
  5
2CE
330
1F
100
AcDbEntity
  8
0
  6
Continuous
 62
     7
370
     0
100
AcDbPolyline
 90
       19
 70
   128
 43
0.0
 10
259.3605518341
 20
79.5656487907
 10
259.3606064169
 20
79.5405813123
 10
259.3606064169
 20
79.4661425615
 10
259.3606064169
 20
79.3445900644
 10
259.3606064169
 20
79.1796230341
 10
259.3606064169
 20
78.9762482608
 10
259.3606064169
 20
78.7406497265
 10
259.3606064169
 20
78.4799837137
 10
259.3606064169
 20
78.2021701897
 10
259.3606064169
 20
77.9156506623
 10
259.3606064169
 20
77.6291311348
 10
259.3606064169
 20
77.3513176108
 10
259.3606064169
 20
77.0906478728
 10
259.3606064169
 20
76.8550493384
 10
259.3606064169
 20
76.6516745651
 10
259.3606064169
 20
76.4867075349
 10
259.3606064169
 20
76.3651550377
 10
259.3606064169
 20
76.290716287
 10
259.3606064169
 20
76.2656488086
  0
LINE
  5
2CF
330
1F
100
AcDbEntity
  8
0
  6
CENTERX2
 62
     7
370
    18
100
AcDbLine
 10
271.1311156003
 20
77.9156506623
 30
0.0
 11
254.3013418166
 21
77.9156506623
 31
0.0
  0
LINE
  5
2D0
330
1F
100
AcDbEntity
  8
0
  6
Continuous
 62
     7
370
    35
100
AcDbLine
 10
186.8606063295
 20
166.4067815232
 30
0.0
 11
185.8606063295
 21
166.1388323307
 31
0.0
  0
LINE
  5
2D1
330
1F
100
AcDbEntity
  8
0
  6
Continuous
 62
     7
370
    35
100
AcDbLine
 10
185.8606063295
 20
149.6747307156
 30
0.0
 11
186.8606063295
 21
149.4067815232
 31
0.0
  0
ARC
  5
2D2
330
1F
100
AcDbEntity
  8
0
  6
Continuous
 62
     7
370
    35
100
AcDbCircle
 10
185.4664199431
 20
149.6067815232
 30
0.0
 40
0.3999999999999863
100
AcDbArc
 50
9.7804339929
 51
107.5
  0
ARC
  5
2D3
330
1F
100
AcDbEntity
  8
0
  6
Continuous
 62
     7
370
    35
100
AcDbCircle
 10
185.4664199431
 20
166.2067815232
 30
0.0
 40
0.4000000000000133
100
AcDbArc
 50
252.5
 51
350.2195660071
  0
LINE
  5
2D4
330
1F
100
AcDbEntity
  8
0
  6
Continuous
 62
     7
370
    35
100
AcDbLine
 10
161.3606063295
 20
149.9067815232
 30
0.0
 11
185.0876945744
 21
149.9067815232
 31
0.0
  0
LINE
  5
2D5
330
1F
100
AcDbEntity
  8
0
  6
Continuous
 62
     7
370
    35
100
AcDbLine
 10
185.0876945744
 20
165.9067815232
 30
0.0
 11
183.9915947852
 21
165.9067815232
 31
0.0
  0
LINE
  5
2D6
330
1F
100
AcDbEntity
  8
0
  6
Continuous
 62
     7
370
    35
100
AcDbLine
 10
185.0876945744
 20
149.9067815232
 30
0.0
 11
185.3461376233
 21
149.9882683035
 31
0.0
  0
LINE
  5
2D7
330
1F
100
AcDbEntity
  8
0
  6
Continuous
 62
     7
370
    35
100
AcDbLine
 10
185.3461376233
 20
165.8252947429
 30
0.0
 11
185.0876945744
 21
165.9067815232
 31
0.0
  0
LINE
  5
2D8
330
1F
100
AcDbEntity
  8
0
  6
Continuous
 62
     7
370
    35
100
AcDbLine
 10
160.8606063295
 20
150.4067815232
 30
0.0
 11
161.3606063295
 21
149.9067815232
 31
0.0
  0
LINE
  5
2D9
330
1F
100
AcDbEntity
  8
0
  6
Continuous
 62
     7
370
    35
100
AcDbLine
 10
181.3606063295
 20
165.4417391502
 30
0.0
 11
161.3503108238
 21
165.4417391502
 31
0.0
  0
LINE
  5
2DA
330
1F
100
AcDbEntity
  8
0
  6
Continuous
 62
     7
370
    35
100
AcDbLine
 10
250.6345867151
 20
146.2410570307
 30
0.0
 11
250.6321476994
 21
146.2410570307
 31
0.0
  0
LINE
  5
2DB
330
1F
100
AcDbEntity
  8
0
  6
Continuous
 62
     7
370
    35
100
AcDbLine
 10
252.4599060416
 20
169.5725060156
 30
0.0
 11
252.463148556
 21
169.5725060156
 31
0.0
  0
LINE
  5
2DC
330
1F
100
AcDbEntity
  8
0
  6
Continuous
 62
     7
370
    35
100
AcDbLine
 10
264.3606063295
 20
172.9067815232
 30
0.0
 11
254.8606063295
 21
172.9067815232
 31
0.0
  0
LINE
  5
2DD
330
1F
100
AcDbEntity
  8
0
  6
Continuous
 62
     7
370
    35
100
AcDbLine
 10
254.8606063295
 20
142.9067815232
 30
0.0
 11
264.3606063295
 21
142.9067815232
 31
0.0
  0
LINE
  5
2DE
330
1F
100
AcDbEntity
  8
0
  6
Continuous
 62
     7
370
    35
100
AcDbLine
 10
251.5381199438
 20
142.9067815232
 30
0.0
 11
253.8606063295
 21
142.9067815232
 31
0.0
  0
LINE
  5
2DF
330
1F
100
AcDbEntity
  8
0
  6
Continuous
 62
     7
370
    35
100
AcDbLine
 10
264.3606063295
 20
142.9067815232
 30
0.0
 11
264.8606063295
 21
143.4067815232
 31
0.0
  0
LINE
  5
2E0
330
1F
100
AcDbEntity
  8
0
  6
Continuous
 62
     7
370
    35
100
AcDbLine
 10
264.8606063295
 20
172.4067815232
 30
0.0
 11
264.3606063295
 21
172.9067815232
 31
0.0
  0
LINE
  5
2E1
330
1F
100
AcDbEntity
  8
0
  6
Continuous
 62
     7
370
    35
100
AcDbLine
 10
266.6106063295
 20
187.9067815232
 30
0.0
 11
266.6106063295
 21
188.4067815232
 31
0.0
  0
LINE
  5
2E2
330
1F
100
AcDbEntity
  8
0
  6
Continuous
 62
     7
370
    35
100
AcDbLine
 10
253.1106063295
 20
188.4067815232
 30
0.0
 11
253.1106063295
 21
187.9067815232
 31
0.0
  0
ARC
  5
2E3
330
1F
100
AcDbEntity
  8
0
  6
Continuous
 62
     7
370
    35
100
AcDbCircle
 10
266.1106063295
 20
188.4067815232
 30
0.0
 40
0.5
100
AcDbArc
 50
0.0
 51
90.0
  0
ARC
  5
2E4
330
1F
100
AcDbEntity
  8
0
  6
Continuous
 62
     7
370
    35
100
AcDbCircle
 10
253.6106063295
 20
188.4067815232
 30
0.0
 40
0.5
100
AcDbArc
 50
90.0
 51
180.0
  0
ARC
  5
2E5
330
1F
100
AcDbEntity
  8
0
  6
Continuous
 62
     7
370
    35
100
AcDbCircle
 10
256.4506063295
 20
165.7067815232
 30
0.0
 40
0.2000000000000455
100
AcDbArc
 50
90.0
 51
180.0
  0
ARC
  5
2E6
330
1F
100
AcDbEntity
  8
0
  6
Continuous
 62
     7
370
    35
100
AcDbCircle
 10
263.2706063295
 20
165.7067815232
 30
0.0
 40
0.2000000000000171
100
AcDbArc
 50
0.0
 51
90.0
  0
LINE
  5
2E7
330
1F
100
AcDbEntity
  8
0
  6
Continuous
 62
     7
370
    35
100
AcDbLine
 10
263.4706063295
 20
161.9067815232
 30
0.0
 11
263.4706063295
 21
165.7067815232
 31
0.0
  0
LINE
  5
2E8
330
1F
100
AcDbEntity
  8
0
  6
Continuous
 62
     7
370
    35
100
AcDbLine
 10
256.2506063295
 20
165.7067815232
 30
0.0
 11
256.2506063295
 21
161.9067815232
 31
0.0
  0
LINE
  5
2E9
330
1F
100
AcDbEntity
  8
0
  6
Continuous
 62
     7
370
    35
100
AcDbLine
 10
261.8606063295
 20
157.4067815232
 30
0.0
 11
261.8606063295
 21
158.4067815232
 31
0.0
  0
LINE
  5
2EA
330
1F
100
AcDbEntity
  8
0
  6
Continuous
 62
     7
370
    35
100
AcDbLine
 10
257.8606063295
 20
158.4067815232
 30
0.0
 11
257.8606063295
 21
157.4067815232
 31
0.0
  0
LINE
  5
2EB
330
1F
100
AcDbEntity
  8
0
  6
Continuous
 62
     7
370
    35
100
AcDbLine
 10
183.8606063295
 20
165.8533892883
 30
0.0
 11
183.8606063295
 21
167.6567815232
 31
0.0
  0
LINE
  5
2EC
330
1F
100
AcDbEntity
  8
0
  6
Continuous
 62
     7
370
    35
100
AcDbLine
 10
183.8606063295
 20
167.6567815232
 30
0.0
 11
183.6106063295
 21
167.9067815232
 31
0.0
  0
LINE
  5
2ED
330
1F
100
AcDbEntity
  8
0
  6
Continuous
 62
     7
370
    35
100
AcDbLine
 10
192.8606063295
 20
132.9067815232
 30
0.0
 11
197.8606063295
 21
132.9067815232
 31
0.0
  0
LINE
  5
2EE
330
1F
100
AcDbEntity
  8
0
  6
Continuous
 62
     7
370
    35
100
AcDbLine
 10
197.8606063295
 20
182.9067815232
 30
0.0
 11
192.8606063295
 21
182.9067815232
 31
0.0
  0
LINE
  5
2EF
330
1F
100
AcDbEntity
  8
0
  6
Continuous
 62
     7
370
    35
100
AcDbLine
 10
192.8606063295
 20
182.9067815232
 30
0.0
 11
192.3606063295
 21
182.4067815232
 31
0.0
  0
LINE
  5
2F0
330
1F
100
AcDbEntity
  8
0
  6
Continuous
 62
     7
370
    35
100
AcDbLine
 10
192.3606063295
 20
133.4067815232
 30
0.0
 11
192.8606063295
 21
132.9067815232
 31
0.0
  0
LINE
  5
2F1
330
1F
100
AcDbEntity
  8
0
  6
Continuous
 62
     7
370
    35
100
AcDbLine
 10
187.8606063295
 20
133.4067815232
 30
0.0
 11
192.3606063295
 21
133.4067815232
 31
0.0
  0
LINE
  5
2F2
330
1F
100
AcDbEntity
  8
0
  6
Continuous
 62
     7
370
    35
100
AcDbLine
 10
192.3606063295
 20
182.4067815232
 30
0.0
 11
187.8606063295
 21
182.4067815232
 31
0.0
  0
LINE
  5
2F3
330
1F
100
AcDbEntity
  8
0
  6
Continuous
 62
     7
370
    35
100
AcDbLine
 10
187.8606063295
 20
182.4067815232
 30
0.0
 11
186.8606063295
 21
181.4067815232
 31
0.0
  0
LINE
  5
2F4
330
1F
100
AcDbEntity
  8
0
  6
Continuous
 62
     7
370
    35
100
AcDbLine
 10
186.8606063295
 20
134.4067815232
 30
0.0
 11
187.8606063295
 21
133.4067815232
 31
0.0
  0
LINE
  5
2F5
330
1F
100
AcDbEntity
  8
0
  6
Continuous
 62
     7
370
    35
100
AcDbLine
 10
185.8606063295
 20
157.9067815232
 30
0.0
 11
185.8606063295
 21
166.1388323307
 31
0.0
  0
LINE
  5
2F6
330
1F
100
AcDbEntity
  8
0
  6
Continuous
 62
     7
370
    35
100
AcDbLine
 10
185.8606063295
 20
149.6747307156
 30
0.0
 11
185.8606063295
 21
157.9067815232
 31
0.0
  0
LINE
  5
2F7
330
1F
100
AcDbEntity
  8
0
  6
Continuous
 62
     7
370
    35
100
AcDbLine
 10
185.0876945744
 20
157.9067815232
 30
0.0
 11
185.0876945744
 21
165.9067815232
 31
0.0
  0
LINE
  5
2F8
330
1F
100
AcDbEntity
  8
0
  6
Continuous
 62
     7
370
    35
100
AcDbLine
 10
185.0876945744
 20
149.9067815232
 30
0.0
 11
185.0876945744
 21
157.9067815232
 31
0.0
  0
SPLINE
  5
2F9
330
1F
100
AcDbEntity
  8
0
  6
Continuous
 62
     7
370
    35
100
AcDbSpline
210
0.0
220
0.0
230
1.0
 70
     8
 71
     3
 72
    13
 73
     9
 74
     0
 42
0.00000001
 43
0.00000001
 40
0.0
 40
0.0
 40
0.0
 40
0.0
 40
0.0570596520802832
 40
0.2614329465141539
 40
0.4677044557656714
 40
0.6826618597545027
 40
0.8994820245268967
 40
1.0
 40
1.0
 40
1.0
 40
1.0
 10
183.9915947851638
 20
165.8968400972898
 30
0.0
 10
184.0002654117972
 20
165.8998078689448
 30
0.0
 10
184.0399920379901
 20
165.9134054507751
 30
0.0
 10
183.8284729731755
 20
165.840120589617
 30
0.0
 10
183.3745229154009
 20
165.7009193599721
 30
0.0
 10
182.670533781936
 20
165.5364623651836
 30
0.0
 10
181.9512272988317
 20
165.4428487318658
 30
0.0
 10
181.5026840013992
 20
165.4347984459634
 30
0.0
 10
181.360606329503
 20
165.4322484895028
 30
0.0
  0
LINE
  5
2FA
330
1F
100
AcDbEntity
  8
0
  6
Continuous
 62
     7
370
    35
100
AcDbLine
 10
161.3606063295
 20
153.7773811965
 30
0.0
 11
161.3606063295
 21
149.9067815232
 31
0.0
  0
SPLINE
  5
2FB
330
1F
100
AcDbEntity
  8
0
  6
Continuous
 62
     7
370
    18
100
AcDbSpline
210
0.0
220
0.0
230
1.0
 70
     8
 71
     3
 72
    54
 73
    50
 74
     0
 42
0.00000001
 43
0.00000001
 40
0.0
 40
0.0
 40
0.0
 40
0.0
 40
0.1249999999999991
 40
0.1249999999999991
 40
0.2499999999999983
 40
0.2499999999999983
 40
0.3124999999999978
 40
0.3124999999999978
 40
0.3749999999999974
 40
0.3749999999999974
 40
0.4062499999999973
 40
0.4062499999999973
 40
0.4374999999999972
 40
0.4374999999999972
 40
0.4531249999999972
 40
0.4531249999999972
 40
0.4687499999999971
 40
0.4687499999999971
 40
0.4843749999999971
 40
0.4843749999999971
 40
0.4921874999999971
 40
0.4921874999999971
 40
0.4960937499999971
 40
0.4960937499999971
 40
0.4999999999999971
 40
0.4999999999999971
 40
0.5078124999999972
 40
0.5078124999999972
 40
0.5156249999999972
 40
0.5156249999999972
 40
0.5234374999999973
 40
0.5234374999999973
 40
0.5312499999999973
 40
0.5312499999999973
 40
0.5468749999999974
 40
0.5468749999999974
 40
0.5624999999999976
 40
0.5624999999999976
 40
0.5937499999999977
 40
0.5937499999999977
 40
0.6249999999999978
 40
0.6249999999999978
 40
0.687499999999998
 40
0.687499999999998
 40
0.7499999999999982
 40
0.7499999999999982
 40
0.8749999999999991
 40
0.8749999999999991
 40
1.0
 40
1.0
 40
1.0
 40
1.0
 10
161.360606329503
 20
162.0326091677164
 30
0.0
 10
163.3485567388401
 20
162.0427353000601
 30
0.0
 10
165.3364845342872
 20
162.0006561122781
 30
0.0
 10
169.3051616347306
 20
161.8055757355837
 30
0.0
 10
171.2861342143657
 20
161.6535634063312
 30
0.0
 10
174.2439133510853
 20
161.3125062845061
 30
0.0
 10
175.2267578611176
 20
161.1798377195763
 30
0.0
 10
177.1839162395111
 20
160.8621702735084
 30
0.0
 10
178.1588783528709
 20
160.6778497440397
 30
0.0
 10
179.6040277922505
 20
160.3380651585888
 30
0.0
 10
180.083050603039
 20
160.2140879311107
 30
0.0
 10
181.0330948001096
 20
159.9338015892031
 30
0.0
 10
181.5051017817217
 20
159.7777237164755
 30
0.0
 10
182.1946590113541
 20
159.5032062818681
 30
0.0
 10
182.4216097827945
 20
159.4048217259314
 30
0.0
 10
182.8665471339466
 20
159.1867285248764
 30
0.0
 10
183.0858831640709
 20
159.0665765044029
 30
0.0
 10
183.4991636373675
 20
158.7934017158847
 30
0.0
 10
183.6965326935437
 20
158.6405435866116
 30
0.0
 10
183.9442956404605
 20
158.3577310832173
 30
0.0
 10
184.0179073443998
 20
158.254168040136
 30
0.0
 10
184.098938306988
 20
158.0854445269258
 30
0.0
 10
184.1209037295739
 20
158.0273152023542
 30
0.0
 10
184.1523473067037
 20
157.9063828484179
 30
0.0
 10
184.1616342055324
 20
157.8430714138893
 30
0.0
 10
184.1664846326649
 20
157.6556759721541
 30
0.0
 10
184.1385556715067
 20
157.5299355867828
 30
0.0
 10
184.0379117813133
 20
157.3000045488706
 30
0.0
 10
183.9671176455552
 20
157.195616054377
 30
0.0
 10
183.8060451369747
 20
157.0056030147415
 30
0.0
 10
183.71461384869
 20
156.9188075283431
 30
0.0
 10
183.5244133284898
 20
156.7605893242537
 30
0.0
 10
183.4246396090135
 20
156.6882183199178
 30
0.0
 10
183.1160438093956
 20
156.4844627507674
 30
0.0
 10
182.8972032073125
 20
156.3657681550418
 30
0.0
 10
182.451212923033
 20
156.1504082444778
 30
0.0
 10
182.2237956588261
 20
156.053875036296
 30
0.0
 10
181.5330546833138
 20
155.7855728810778
 30
0.0
 10
181.0606782676545
 20
155.6345405905274
 30
0.0
 10
180.1078997463844
 20
155.3642434976872
 30
0.0
 10
179.6270576107647
 20
155.2454530306619
 30
0.0
 10
178.1757876072548
 20
154.9216554667402
 30
0.0
 10
177.2002580426525
 20
154.749363689513
 30
0.0
 10
175.2394071917086
 20
154.4554840802263
 30
0.0
 10
174.2540805295853
 20
154.3348521512696
 30
0.0
 10
171.2927353734534
 20
154.0306730459293
 30
0.0
 10
169.3091008819846
 20
153.9035921734855
 30
0.0
 10
165.3366867532476
 20
153.758753628431
 30
0.0
 10
163.3482224952938
 20
153.7419866069233
 30
0.0
 10
161.360606329503
 20
153.77738119651
 30
0.0
  0
LINE
  5
2FC
330
1F
100
AcDbEntity
  8
0
  6
Continuous
 62
     7
370
    35
100
AcDbLine
 10
161.3606063295
 20
165.4322484895
 30
0.0
 11
161.3606063295
 21
162.0326091677
 31
0.0
  0
LINE
  5
2FD
330
1F
100
AcDbEntity
  8
0
  6
Continuous
 62
     7
370
    35
100
AcDbLine
 10
160.8606063295
 20
162.0289388019
 30
0.0
 11
160.8606063295
 21
164.977849335
 31
0.0
  0
SPLINE
  5
2FE
330
1F
100
AcDbEntity
  8
0
  6
Continuous
 62
     7
370
    35
100
AcDbSpline
210
0.0
220
0.0
230
1.0
 70
     8
 71
     3
 72
     8
 73
     4
 74
     0
 42
0.00000001
 43
0.00000001
 40
0.0
 40
0.0
 40
0.0
 40
0.0
 40
1.0
 40
1.0
 40
1.0
 40
1.0
 10
160.860606329503
 20
164.9778493350449
 30
0.0
 10
160.956213975685
 20
165.0792565574677
 30
0.0
 10
161.0519416358549
 20
165.1805490576457
 30
0.0
 10
161.1477752630757
 20
165.2817391501763
 30
0.0
  0
SPLINE
  5
2FF
330
1F
100
AcDbEntity
  8
0
  6
Continuous
 62
     7
370
    35
100
AcDbSpline
210
0.0
220
0.0
230
1.0
 70
     8
 71
     3
 72
    12
 73
     8
 74
     0
 42
0.00000001
 43
0.00000001
 40
0.0
 40
0.0
 40
0.0
 40
0.0
 40
0.25
 40
0.25
 40
0.5
 40
0.5
 40
1.0
 40
1.0
 40
1.0
 40
1.0
 10
161.360606329503
 20
165.4322484895028
 30
0.0
 10
161.360606329503
 20
165.4432184326142
 30
0.0
 10
161.350568327814
 20
165.4439849188084
 30
0.0
 10
161.3205162422344
 20
165.4313119932283
 30
0.0
 10
161.3009889564598
 20
165.4185303534463
 30
0.0
 10
161.2388928531683
 20
165.371498165498
 30
0.0
 10
161.1918381940702
 20
165.3282649073044
 30
0.0
 10
161.147775263075
 20
165.2817391501786
 30
0.0
  0
SPLINE
  5
300
330
1F
100
AcDbEntity
  8
0
  6
Continuous
 62
     7
370
    18
100
AcDbSpline
210
0.0
220
0.0
230
1.0
 70
     8
 71
     3
 72
     8
 73
     4
 74
     0
 42
0.00000001
 43
0.00000001
 40
0.0
 40
0.0
 40
0.0
 40
0.0
 40
0.0007721662125887
 40
0.0007721662125887
 40
0.0007721662125887
 40
0.0007721662125887
 10
161.360606329503
 20
162.0326091677164
 30
0.0
 10
161.1928909737243
 20
162.0317548667838
 30
0.0
 10
161.0261352624153
 20
162.0305264631843
 30
0.0
 10
160.860606329503
 20
162.0289388018803
 30
0.0
  0
LINE
  5
301
330
1F
100
AcDbEntity
  8
0
  6
Continuous
 62
     7
370
    35
100
AcDbLine
 10
160.8606063295
 20
150.4067815232
 30
0.0
 11
160.8606063295
 21
153.7874084637
 31
0.0
  0
SPLINE
  5
302
330
1F
100
AcDbEntity
  8
0
  6
Continuous
 62
     7
370
    18
100
AcDbSpline
210
0.0
220
0.0
230
1.0
 70
     8
 71
     3
 72
     8
 73
     4
 74
     0
 42
0.00000001
 43
0.00000001
 40
0.0
 40
0.0
 40
0.0
 40
0.0
 40
0.0007691921955396
 40
0.0007691921955396
 40
0.0007691921955396
 40
0.0007691921955396
 10
160.860606329503
 20
153.7874084637018
 30
0.0
 10
161.0261921321318
 20
153.7837150317088
 30
0.0
 10
161.1929432403233
 20
153.7803668666472
 30
0.0
 10
161.360606329503
 20
153.77738119651
 30
0.0
  0
LINE
  5
303
330
1F
100
AcDbEntity
  8
0
  6
Continuous
 62
     7
370
    35
100
AcDbLine
 10
181.3606063295
 20
165.4322484895
 30
0.0
 11
181.3606063295
 21
165.4417391502
 31
0.0
  0
LINE
  5
304
330
1F
100
AcDbEntity
  8
0
  6
Continuous
 62
     7
370
    35
100
AcDbLine
 10
165.0245591391
 20
155.8067815232
 30
0.0
 11
165.0245591391
 21
160.0067815232
 31
0.0
  0
LINE
  5
305
330
1F
100
AcDbEntity
  8
0
  6
Continuous
 62
     7
370
    35
100
AcDbLine
 10
165.0245591391
 20
155.8067815232
 30
0.0
 11
164.3606063295
 21
154.6567815232
 31
0.0
  0
LINE
  5
306
330
1F
100
AcDbEntity
  8
0
  6
Continuous
 62
     7
370
    35
100
AcDbLine
 10
164.3606063295
 20
161.1567815232
 30
0.0
 11
164.3606063295
 21
154.6567815232
 31
0.0
  0
LINE
  5
307
330
1F
100
AcDbEntity
  8
0
  6
Continuous
 62
     7
370
    35
100
AcDbLine
 10
164.3606063295
 20
161.1567815232
 30
0.0
 11
165.0245591391
 21
160.0067815232
 31
0.0
  0
LINE
  5
308
330
1F
100
AcDbEntity
  8
0
  6
Continuous
 62
     7
370
    35
100
AcDbLine
 10
179.8606063295
 20
160.0067815232
 30
0.0
 11
179.8606063295
 21
155.8067815232
 31
0.0
  0
LINE
  5
309
330
1F
100
AcDbEntity
  8
0
  6
Continuous
 62
     7
370
    35
100
AcDbLine
 10
179.8606063295
 20
155.8067815232
 30
0.0
 11
165.0245591391
 21
155.8067815232
 31
0.0
  0
LINE
  5
30A
330
1F
100
AcDbEntity
  8
0
  6
Continuous
 62
     7
370
    35
100
AcDbLine
 10
165.0245591391
 20
160.0067815232
 30
0.0
 11
179.8606063295
 21
160.0067815232
 31
0.0
  0
LINE
  5
30B
330
1F
100
AcDbEntity
  8
0
  6
Continuous
 62
     7
370
    35
100
AcDbLine
 10
181.1224136295
 20
157.9067815232
 30
0.0
 11
179.8606063295
 21
155.8067815232
 31
0.0
  0
LINE
  5
30C
330
1F
100
AcDbEntity
  8
0
  6
Continuous
 62
     7
370
    35
100
AcDbLine
 10
179.8606063295
 20
160.0067815232
 30
0.0
 11
181.1224136295
 21
157.9067815232
 31
0.0
  0
LINE
  5
30D
330
1F
100
AcDbEntity
  8
0
  6
Continuous
 62
     7
370
    35
100
AcDbLine
 10
161.8565355439
 20
154.6567815232
 30
0.0
 11
160.8606063295
 21
154.0817815232
 31
0.0
  0
LINE
  5
30E
330
1F
100
AcDbEntity
  8
0
  6
Continuous
 62
     7
370
    35
100
AcDbLine
 10
164.3606063295
 20
154.6567815232
 30
0.0
 11
161.8565355439
 21
154.6567815232
 31
0.0
  0
LINE
  5
30F
330
1F
100
AcDbEntity
  8
0
  6
Continuous
 62
     7
370
    35
100
AcDbLine
 10
161.8565355439
 20
161.1567815232
 30
0.0
 11
164.3606063295
 21
161.1567815232
 31
0.0
  0
LINE
  5
310
330
1F
100
AcDbEntity
  8
0
  6
Continuous
 62
     7
370
    35
100
AcDbLine
 10
160.8606063295
 20
161.7317815232
 30
0.0
 11
161.8565355439
 21
161.1567815232
 31
0.0
  0
LINE
  5
311
330
1F
100
AcDbEntity
  8
0
  6
Continuous
 62
     7
370
    35
100
AcDbLine
 10
160.8606063295
 20
154.0817815232
 30
0.0
 11
160.8606063295
 21
153.7874084637
 31
0.0
  0
LINE
  5
312
330
1F
100
AcDbEntity
  8
0
  6
Continuous
 62
     7
370
    35
100
AcDbLine
 10
160.8606063295
 20
162.0289388019
 30
0.0
 11
160.8606063295
 21
161.7317815232
 31
0.0
  0
LINE
  5
313
330
1F
100
AcDbEntity
  8
0
  6
Continuous
 62
     7
370
    35
100
AcDbLine
 10
161.8565355439
 20
161.1567815232
 30
0.0
 11
161.8565355439
 21
154.6567815232
 31
0.0
  0
LINE
  5
314
330
1F
100
AcDbEntity
  8
0
  6
Continuous
 62
     7
370
    35
100
AcDbLine
 10
160.8606063295
 20
161.7317815232
 30
0.0
 11
160.8606063295
 21
154.0817815232
 31
0.0
  0
LINE
  5
315
330
1F
100
AcDbEntity
  8
0
  6
Continuous
 62
     7
370
    35
100
AcDbLine
 10
258.3606063295
 20
187.9067815232
 30
0.0
 11
258.3606063295
 21
184.3642946338
 31
0.0
  0
LINE
  5
316
330
1F
100
AcDbEntity
  8
0
  6
Continuous
 62
     7
370
    35
100
AcDbLine
 10
258.3606063295
 20
187.9067815232
 30
0.0
 11
268.8606063295
 21
187.9067815232
 31
0.0
  0
LINE
  5
317
330
1F
100
AcDbEntity
  8
0
  6
Continuous
 62
     7
370
    35
100
AcDbLine
 10
268.8606063295
 20
184.3642946338
 30
0.0
 11
268.8606063295
 21
187.9067815232
 31
0.0
  0
LINE
  5
318
330
1F
100
AcDbEntity
  8
0
  6
Continuous
 62
     7
370
    35
100
AcDbLine
 10
268.8606063295
 20
184.3642946338
 30
0.0
 11
258.3606063295
 21
184.3642946338
 31
0.0
  0
SPLINE
  5
319
330
1F
100
AcDbEntity
  8
0
  6
Continuous
 62
     7
370
    35
100
AcDbSpline
210
0.0
220
0.0
230
1.0
 70
    24
 71
     3
 72
    11
 73
     7
 74
     0
 42
0.00000001
 43
0.00000001
 40
0.0
 40
0.0
 40
0.0
 40
0.0
 40
0.2503332254321597
 40
0.5009852369611367
 40
0.7501095500280549
 40
1.0
 40
1.0
 40
1.0
 40
1.0
 10
258.360606329503
 20
127.9067815231794
 30
0.0
 10
257.7000791847422
 20
127.9067815231794
 30
0.0
 10
256.3781837489044
 20
127.9067815231794
 30
0.0
 10
254.5403114721026
 20
127.9067815231794
 30
0.0
 10
252.8243427874365
 20
127.9067815231794
 30
0.0
 10
251.8490176207569
 20
127.9067815231794
 30
0.0
 10
251.360606329503
 20
127.9067815231794
 30
0.0
  0
LINE
  5
31A
330
1F
100
AcDbEntity
  8
0
  6
Continuous
 62
     7
370
    35
100
AcDbLine
 10
251.3606063295
 20
143.4263496078
 30
0.0
 11
251.3606063295
 21
127.9067815232
 31
0.0
  0
LINE
  5
31B
330
1F
100
AcDbEntity
  8
0
  6
Continuous
 62
     7
370
    35
100
AcDbLine
 10
258.3606063295
 20
131.239398402
 30
0.0
 11
258.3606063295
 21
127.9067815232
 31
0.0
  0
SPLINE
  5
31C
330
1F
100
AcDbEntity
  8
0
  6
Continuous
 62
     7
370
    18
100
AcDbSpline
210
0.0
220
0.0
230
1.0
 70
     8
 71
     3
 72
    15
 73
    11
 74
     0
 42
0.00000001
 43
0.00000001
 40
0.0
 40
0.0
 40
0.0
 40
0.0
 40
0.0907290575087854
 40
0.1814703068574144
 40
0.2753238069749193
 40
0.3692005182501298
 40
0.500806079170688
 40
0.6335132525351955
 40
0.8160853822905229
 40
1.0
 40
1.0
 40
1.0
 40
1.0
 10
258.360606329503
 20
131.239398401998
 30
0.0
 10
258.0689106855392
 20
131.5338950797606
 30
0.0
 10
257.4854802006146
 20
132.1229280086754
 30
0.0
 10
256.644406964757
 20
133.1037493536137
 30
0.0
 10
255.8379556105395
 20
134.149213885116
 30
0.0
 10
254.9732009305378
 20
135.4046438755404
 30
0.0
 10
254.0870122944904
 20
136.8725509486448
 30
0.0
 10
253.1082953011481
 20
138.768304912043
 30
0.0
 10
252.1628448124104
 20
140.948160695543
 30
0.0
 10
251.6286714057004
 20
142.5982717808786
 30
0.0
 10
251.3606063295
 20
143.4263496078042
 30
0.0
  0
SPLINE
  5
31D
330
1F
100
AcDbEntity
  8
0
  6
Continuous
 62
     7
370
    35
100
AcDbSpline
210
0.0
220
0.0
230
1.0
 70
     8
 71
     3
 72
    11
 73
     7
 74
     0
 42
0.00000001
 43
0.00000001
 40
0.0
 40
0.0
 40
0.0
 40
0.0
 40
0.2503332254321584
 40
0.5009852369611337
 40
0.7501095500280538
 40
1.0
 40
1.0
 40
1.0
 40
1.0
 10
258.360606329503
 20
184.3642946338254
 30
0.0
 10
257.7000791847422
 20
183.3473853534335
 30
0.0
 10
256.3781837489044
 20
181.3122718125697
 30
0.0
 10
254.5403114721026
 20
178.1774532353765
 30
0.0
 10
252.8243427874365
 20
174.9745913100778
 30
0.0
 10
251.8490176207569
 20
172.7623350004139
 30
0.0
 10
251.360606329503
 20
171.6545086080469
 30
0.0
  0
LINE
  5
31E
330
1F
100
AcDbEntity
  8
0
  6
Continuous
 62
     7
370
    35
100
AcDbLine
 10
251.3606063295
 20
187.9067815232
 30
0.0
 11
251.3606063295
 21
171.654508608
 31
0.0
  0
SPLINE
  5
31F
330
1F
100
AcDbEntity
  8
0
  6
Continuous
 62
     7
370
    35
100
AcDbSpline
210
0.0
220
0.0
230
1.0
 70
    24
 71
     3
 72
    11
 73
     7
 74
     0
 42
0.00000001
 43
0.00000001
 40
0.0
 40
0.0
 40
0.0
 40
0.0
 40
0.2487292007255029
 40
0.4975193266602713
 40
0.7487469858280061
 40
1.0
 40
1.0
 40
1.0
 40
1.0
 10
251.360606329503
 20
187.9067815231794
 30
0.0
 10
251.8464891442503
 20
187.9067815231794
 30
0.0
 10
252.8183737887704
 20
187.9067815231794
 30
0.0
 10
254.5320153177837
 20
187.9067815231794
 30
0.0
 10
256.3714736106966
 20
187.9067815231794
 30
0.0
 10
257.6975397856178
 20
187.9067815231794
 30
0.0
 10
258.360606329503
 20
187.9067815231794
 30
0.0
  0
LINE
  5
320
330
1F
100
AcDbEntity
  8
0
  6
Continuous
 62
     7
370
    35
100
AcDbLine
 10
269.2673904936
 20
183.7451781497
 30
0.0
 11
268.8606063295
 21
184.3642946338
 31
0.0
  0
LINE
  5
321
330
1F
100
AcDbEntity
  8
0
  6
Continuous
 62
     7
370
    35
100
AcDbLine
 10
268.8606063295
 20
187.9067815232
 30
0.0
 11
269.3606063295
 21
187.9067815232
 31
0.0
  0
LINE
  5
322
330
1F
100
AcDbEntity
  8
0
  6
Continuous
 62
     7
370
    35
100
AcDbLine
 10
269.3606063295
 20
187.9067815232
 30
0.0
 11
269.3606063295
 21
183.7461135632
 31
0.0
  0
LINE
  5
323
330
1F
100
AcDbEntity
  8
0
  6
Continuous
 62
     7
370
    18
100
AcDbLine
 10
269.3606063295
 20
183.7461135632
 30
0.0
 11
269.2673904936
 21
183.7451781497
 31
0.0
  0
LINE
  5
324
330
1F
100
AcDbEntity
  8
0
  6
Continuous
 62
     7
370
    35
100
AcDbLine
 10
251.3606063295
 20
171.654508608
 30
0.0
 11
241.8606063295
 21
171.654508608
 31
0.0
  0
LINE
  5
325
330
1F
100
AcDbEntity
  8
0
  6
Continuous
 62
     7
370
    35
100
AcDbLine
 10
241.8606063295
 20
187.9067815232
 30
0.0
 11
241.8606063295
 21
171.654508608
 31
0.0
  0
LINE
  5
326
330
1F
100
AcDbEntity
  8
0
  6
Continuous
 62
     7
370
    35
100
AcDbLine
 10
241.8606063295
 20
187.9067815232
 30
0.0
 11
251.3606063295
 21
187.9067815232
 31
0.0
  0
LINE
  5
327
330
1F
100
AcDbEntity
  8
0
  6
Continuous
 62
     7
370
    35
100
AcDbLine
 10
241.8606063295
 20
171.654508608
 30
0.0
 11
241.8606063295
 21
144.1590544383
 31
0.0
  0
LINE
  5
328
330
1F
100
AcDbEntity
  8
0
  6
Continuous
 62
     7
370
    35
100
AcDbLine
 10
241.8606063295
 20
144.1590544383
 30
0.0
 11
251.1483329535
 21
144.1590544383
 31
0.0
  0
ELLIPSE
  5
329
330
1F
100
AcDbEntity
  8
0
  6
Continuous
 62
     7
370
    18
100
AcDbEllipse
 10
269.3266694281
 20
155.0952852555
 30
0.0
 11
0.2298795135126852
 21
28.65068546910507
 31
0.0
210
0.0
220
0.0
230
1.0
 40
0.6846629593
 41
0.0147401618843138
 42
1.967928283608549
  0
LINE
  5
32A
330
1F
100
AcDbEntity
  8
0
  6
Continuous
 62
     7
370
    35
100
AcDbLine
 10
251.3606063295
 20
127.9067815232
 30
0.0
 11
241.8606063295
 21
127.9067815232
 31
0.0
  0
LINE
  5
32B
330
1F
100
AcDbEntity
  8
0
  6
Continuous
 62
     7
370
    35
100
AcDbLine
 10
241.8606063295
 20
144.1590544383
 30
0.0
 11
241.8606063295
 21
127.9067815232
 31
0.0
  0
LINE
  5
32C
330
1F
100
AcDbEntity
  8
0
  6
Continuous
 62
     7
370
    18
100
AcDbLine
 10
251.3606063295
 20
143.4263496078
 30
0.0
 11
251.1483329535
 21
144.1590544383
 31
0.0
  0
LINE
  5
32D
330
1F
100
AcDbEntity
  8
0
  6
Continuous
 62
     7
370
    35
100
AcDbLine
 10
263.0231057435
 20
127.9067815232
 30
0.0
 11
258.3606063295
 21
127.9067815232
 31
0.0
  0
SPLINE
  5
32E
330
1F
100
AcDbEntity
  8
0
  6
Continuous
 62
     7
370
    18
100
AcDbSpline
210
0.0
220
0.0
230
1.0
 70
     8
 71
     3
 72
    11
 73
     7
 74
     0
 42
0.00000001
 43
0.00000001
 40
0.0
 40
0.0
 40
0.0
 40
0.0
 40
0.247016850440355
 40
0.4941404474435426
 40
0.7470506952751073
 40
1.0
 40
1.0
 40
1.0
 40
1.0
 10
263.0231057435388
 20
127.9067815231794
 30
0.0
 10
262.5902711230005
 20
128.1319898412589
 30
0.0
 10
261.7244148355426
 20
128.5825037995797
 30
0.0
 10
260.533969002242
 20
129.3840746642167
 30
0.0
 10
259.4034853849104
 20
130.2606218014853
 30
0.0
 10
258.7082505740926
 20
130.913122742186
 30
0.0
 10
258.360606329503
 20
131.239398401998
 30
0.0
  0
LINE
  5
32F
330
1F
100
AcDbEntity
  8
0
  6
Continuous
 62
     7
370
    35
100
AcDbLine
 10
257.1148508253
 20
177.4067801854
 30
0.0
 11
266.3606063295
 21
177.4067815232
 31
0.0
  0
LINE
  5
330
330
1F
100
AcDbEntity
  8
0
  6
Continuous
 62
     7
370
    35
100
AcDbLine
 10
266.3606063295
 20
138.4067815232
 30
0.0
 11
253.3098348311
 21
138.4067828609
 31
0.0
  0
LINE
  5
331
330
1F
100
AcDbEntity
  8
0
  6
Continuous
 62
     7
370
    35
100
AcDbLine
 10
269.3606063295
 20
176.4067801131
 30
0.0
 11
268.8606063295
 21
175.9067800739
 31
0.0
  0
LINE
  5
332
330
1F
100
AcDbEntity
  8
0
  6
Continuous
 62
     7
370
    35
100
AcDbLine
 10
266.3606063295
 20
175.9067800739
 30
0.0
 11
268.8606063295
 21
175.9067800739
 31
0.0
  0
LINE
  5
333
330
1F
100
AcDbEntity
  8
0
  6
Continuous
 62
     7
370
    35
100
AcDbLine
 10
266.3606063295
 20
177.4067815232
 30
0.0
 11
266.3606063295
 21
175.9067800739
 31
0.0
  0
LINE
  5
334
330
1F
100
AcDbEntity
  8
0
  6
Continuous
 62
     7
370
    35
100
AcDbLine
 10
269.3606063295
 20
183.7461135632
 30
0.0
 11
269.3606063295
 21
176.4067801131
 31
0.0
  0
LINE
  5
335
330
1F
100
AcDbEntity
  8
0
  6
Continuous
 62
     7
370
    35
100
AcDbLine
 10
268.8606063295
 20
139.9067829724
 30
0.0
 11
269.3606063295
 21
139.4067829332
 31
0.0
  0
LINE
  5
336
330
1F
100
AcDbEntity
  8
0
  6
Continuous
 62
     7
370
    35
100
AcDbLine
 10
269.3606063295
 20
176.4067801131
 30
0.0
 11
269.3606063295
 21
139.4067829332
 31
0.0
  0
LINE
  5
337
330
1F
100
AcDbEntity
  8
0
  6
Continuous
 62
     7
370
    35
100
AcDbLine
 10
268.8606063295
 20
139.9067829724
 30
0.0
 11
266.3606063295
 21
139.9067829724
 31
0.0
  0
LINE
  5
338
330
1F
100
AcDbEntity
  8
0
  6
Continuous
 62
     7
370
    35
100
AcDbLine
 10
266.3606063295
 20
139.9067829724
 30
0.0
 11
266.3606063295
 21
138.4067815232
 31
0.0
  0
LINE
  5
339
330
1F
100
AcDbEntity
  8
0
  6
Continuous
 62
     7
370
    35
100
AcDbLine
 10
263.0231057435
 20
127.9067815232
 30
0.0
 11
269.3606063295
 21
127.9067815232
 31
0.0
  0
LINE
  5
33A
330
1F
100
AcDbEntity
  8
0
  6
Continuous
 62
     7
370
    35
100
AcDbLine
 10
269.3606063295
 20
139.4067829332
 30
0.0
 11
269.3606063295
 21
127.9067815232
 31
0.0
  0
LINE
  5
33B
330
1F
100
AcDbEntity
  8
0
  6
Continuous
 62
     7
370
    35
100
AcDbLine
 10
266.3606063295
 20
139.9067829724
 30
0.0
 11
266.3606063295
 21
175.9067800739
 31
0.0
  0
LINE
  5
33C
330
1F
100
AcDbEntity
  8
0
  6
Continuous
 62
     7
370
    35
100
AcDbLine
 10
255.8606063295
 20
161.9067815232
 30
0.0
 11
255.8606063295
 21
168.618924166
 31
0.0
  0
LINE
  5
33D
330
1F
100
AcDbEntity
  8
0
  6
Continuous
 62
     7
370
    35
100
AcDbLine
 10
263.8606063295
 20
161.9067815232
 30
0.0
 11
255.8606063295
 21
161.9067815232
 31
0.0
  0
LINE
  5
33E
330
1F
100
AcDbEntity
  8
0
  6
Continuous
 62
     7
370
    35
100
AcDbLine
 10
263.8606063295
 20
168.618924166
 30
0.0
 11
263.8606063295
 21
161.9067815232
 31
0.0
  0
SPLINE
  5
33F
330
1F
100
AcDbEntity
  8
0
  6
Continuous
 62
     7
370
    35
100
AcDbSpline
210
0.0
220
0.0
230
1.0
 70
     8
 71
     3
 72
    26
 73
    22
 74
     0
 42
0.00000001
 43
0.00000001
 40
0.0
 40
0.0
 40
0.0
 40
0.0
 40
0.0720764018950341
 40
0.1440411026553149
 40
0.197115461559687
 40
0.2501451355170304
 40
0.3035555434506362
 40
0.3569303656000746
 40
0.4040865249597947
 40
0.4512334071747328
 40
0.4950867533922164
 40
0.5389397850326982
 40
0.5819744168674605
 40
0.6250144017926323
 40
0.668528580182177
 40
0.712056065838709
 40
0.7576349349164613
 40
0.8032374054750784
 40
0.853667668866425
 40
0.9041323035249754
 40
1.0
 40
1.0
 40
1.0
 40
1.0
 10
255.8606063295031
 20
168.6189241659937
 30
0.0
 10
255.8735257700183
 20
168.851715340643
 30
0.0
 10
255.8993446290146
 20
169.316936919458
 30
0.0
 10
256.1115928799146
 20
169.8832643671127
 30
0.0
 10
256.4304384542839
 20
170.3335632847425
 30
0.0
 10
256.8227599159366
 20
170.6830731602207
 30
0.0
 10
257.3259951308646
 20
170.9689727763873
 30
0.0
 10
257.9035565413394
 20
171.1813865217846
 30
0.0
 10
258.5290383825227
 20
171.3231093250812
 30
0.0
 10
259.1566790760785
 20
171.4038952978389
 30
0.0
 10
259.7912669559188
 20
171.4324902999095
 30
0.0
 10
260.4085269994382
 20
171.4149683801567
 30
0.0
 10
261.0056275214341
 20
171.3515431485195
 30
0.0
 10
261.5696384445875
 20
171.2438284037726
 30
0.0
 10
262.0874017116897
 20
171.0890543893577
 30
0.0
 10
262.5557350620128
 20
170.8858014909615
 30
0.0
 10
262.9579586150298
 20
170.6316476969087
 30
0.0
 10
263.3006629702682
 20
170.3191056164517
 30
0.0
 10
263.5631781212325
 20
169.9482506797972
 30
0.0
 10
263.8062171504067
 20
169.3989931329752
 30
0.0
 10
263.8390779863207
 20
168.9276913271479
 30
0.0
 10
263.8606063295031
 20
168.6189241659937
 30
0.0
  0
LINE
  5
340
330
1F
100
AcDbEntity
  8
0
  6
Continuous
 62
     7
370
    35
100
AcDbLine
 10
251.3606063295
 20
166.4375406538
 30
0.0
 11
251.3606063295
 21
143.4237990601
 31
0.0
  0
LINE
  5
341
330
1F
100
AcDbEntity
  8
0
  6
Continuous
 62
     7
370
    35
100
AcDbLine
 10
254.8606063295
 20
172.9067815232
 30
0.0
 11
254.8606063295
 21
158.4067815232
 31
0.0
  0
LINE
  5
342
330
1F
100
AcDbEntity
  8
0
  6
Continuous
 62
     7
370
    35
100
AcDbLine
 10
254.8606063295
 20
172.363613818
 30
0.0
 11
253.8606063295
 21
172.363613818
 31
0.0
  0
LINE
  5
343
330
1F
100
AcDbEntity
  8
0
  6
Continuous
 62
     7
370
    35
100
AcDbLine
 10
253.8606063295
 20
172.5725060156
 30
0.0
 11
253.8606063295
 21
158.4067815232
 31
0.0
  0
LINE
  5
344
330
1F
100
AcDbEntity
  8
0
  6
Continuous
 62
     7
370
    35
100
AcDbLine
 10
253.8606063295
 20
158.4067815232
 30
0.0
 11
252.5615197875
 21
158.4067815232
 31
0.0
  0
LINE
  5
345
330
1F
100
AcDbEntity
  8
0
  6
Continuous
 62
     7
370
    35
100
AcDbLine
 10
252.5615197875
 20
158.4067815232
 30
0.0
 11
252.5615197875
 21
157.4067815232
 31
0.0
  0
LINE
  5
346
330
1F
100
AcDbEntity
  8
0
  6
Continuous
 62
     7
370
    35
100
AcDbLine
 10
253.8606063295
 20
157.4067815232
 30
0.0
 11
252.5615197875
 21
157.4067815232
 31
0.0
  0
LINE
  5
347
330
1F
100
AcDbEntity
  8
0
  6
Continuous
 62
     7
370
    35
100
AcDbLine
 10
253.8606063295
 20
157.4067815232
 30
0.0
 11
253.8606063295
 21
142.9067815232
 31
0.0
  0
LINE
  5
348
330
1F
100
AcDbEntity
  8
0
  6
Continuous
 62
     7
370
    35
100
AcDbLine
 10
254.8606063295
 20
143.4499492284
 30
0.0
 11
253.8606063295
 21
143.4499492284
 31
0.0
  0
LINE
  5
349
330
1F
100
AcDbEntity
  8
0
  6
Continuous
 62
     7
370
    35
100
AcDbLine
 10
254.8606063295
 20
157.4067815232
 30
0.0
 11
254.8606063295
 21
142.9067815232
 31
0.0
  0
LINE
  5
34A
330
1F
100
AcDbEntity
  8
0
  6
Continuous
 62
     7
370
    35
100
AcDbLine
 10
264.3606063295
 20
157.4067815232
 30
0.0
 11
254.8606063295
 21
157.4067815232
 31
0.0
  0
LINE
  5
34B
330
1F
100
AcDbEntity
  8
0
  6
Continuous
 62
     7
370
    35
100
AcDbLine
 10
264.3606063295
 20
158.4067815232
 30
0.0
 11
264.3606063295
 21
172.9067815232
 31
0.0
  0
LINE
  5
34C
330
1F
100
AcDbEntity
  8
0
  6
Continuous
 62
     7
370
    35
100
AcDbLine
 10
264.3606063295
 20
142.9067815232
 30
0.0
 11
264.3606063295
 21
157.4067815232
 31
0.0
  0
LINE
  5
34D
330
1F
100
AcDbEntity
  8
0
  6
Continuous
 62
     7
370
    35
100
AcDbLine
 10
264.3606063295
 20
158.4067815232
 30
0.0
 11
254.8606063295
 21
158.4067815232
 31
0.0
  0
SPLINE
  5
34E
330
1F
100
AcDbEntity
  8
0
  6
Continuous
 62
     7
370
    35
100
AcDbSpline
210
0.0
220
0.0
230
1.0
 70
    11
 71
     3
 72
    28
 73
    24
 74
     0
 42
0.00000001
 43
0.00000001
 40
0.0
 40
0.0
 40
0.0
 40
0.0
 40
0.0661702221864769
 40
0.122513634685374
 40
0.1679173726326797
 40
0.2136128069701566
 40
0.2525157798808877
 40
0.2882349705071318
 40
0.3251029549857647
 40
0.3664974396777985
 40
0.4279403603927872
 40
0.507615405100206
 40
0.5886415302186426
 40
0.6498788367973896
 40
0.6895933932055867
 40
0.7196859268297696
 40
0.7499901252365553
 40
0.7761966571725266
 40
0.8138913808707142
 40
0.8722270986535552
 40
0.9149264972933256
 40
0.9576560596922309
 40
1.0
 40
1.0
 40
1.0
 40
1.0
 10
258.2106063295031
 20
147.1946388803651
 30
0.0
 10
258.2308982205109
 20
147.0025693259954
 30
0.0
 10
258.2684684936618
 20
146.6469540894025
 30
0.0
 10
258.5739935543422
 20
146.229662556782
 30
0.0
 10
259.0018113552023
 20
145.9473573397015
 30
0.0
 10
259.5068055173165
 20
145.8017560090572
 30
0.0
 10
260.0228134306398
 20
145.7848148142795
 30
0.0
 10
260.4781613431354
 20
145.8676166014747
 30
0.0
 10
260.8746507424359
 20
146.0363869464561
 30
0.0
 10
261.2401810977605
 20
146.3267335880632
 30
0.0
 10
261.5084836956345
 20
146.8024509880388
 30
0.0
 10
261.5375689280173
 20
147.4603535683296
 30
0.0
 10
261.2966376083892
 20
148.138304419177
 30
0.0
 10
260.9037554898581
 20
148.6578519758054
 30
0.0
 10
260.494466213056
 20
148.9605720213631
 30
0.0
 10
260.1060358365939
 20
149.1053334164205
 30
0.0
 10
259.7327943247587
 20
149.1217305700473
 30
0.0
 10
259.3508930007837
 20
149.0204926472803
 30
0.0
 10
258.934346180025
 20
148.7678036059398
 30
0.0
 10
258.5975818020476
 20
148.3849096721539
 30
0.0
 10
258.366474827609
 20
147.9605156646375
 30
0.0
 10
258.2360886852951
 20
147.5732712670813
 30
0.0
 10
258.2190747411038
 20
147.3204677057001
 30
0.0
 10
258.2106063295031
 20
147.1946388803651
 30
0.0
  0
LINE
  5
34F
330
1F
100
AcDbEntity
  8
0
  6
Continuous
 62
     7
370
    35
100
AcDbLine
 10
253.8606063295
 20
158.4067815232
 30
0.0
 11
253.8606063295
 21
157.4067815232
 31
0.0
  0
LINE
  5
350
330
1F
100
AcDbEntity
  8
0
  6
Continuous
 62
     7
370
    35
100
AcDbLine
 10
264.8606063295
 20
157.4067815232
 30
0.0
 11
264.8606063295
 21
143.4067815232
 31
0.0
  0
LINE
  5
351
330
1F
100
AcDbEntity
  8
0
  6
Continuous
 62
     7
370
    35
100
AcDbLine
 10
264.8606063295
 20
172.4067815232
 30
0.0
 11
264.8606063295
 21
158.4067815232
 31
0.0
  0
LINE
  5
352
330
1F
100
AcDbEntity
  8
0
  6
Continuous
 62
     7
370
    35
100
AcDbLine
 10
264.8606063295
 20
158.4067815232
 30
0.0
 11
264.3606063295
 21
158.4067815232
 31
0.0
  0
LINE
  5
353
330
1F
100
AcDbEntity
  8
0
  6
Continuous
 62
     7
370
    35
100
AcDbLine
 10
264.3606063295
 20
157.4067815232
 30
0.0
 11
264.8606063295
 21
157.4067815232
 31
0.0
  0
LINE
  5
354
330
1F
100
AcDbEntity
  8
0
  6
Continuous
 62
     7
370
    35
100
AcDbLine
 10
254.8606063295
 20
152.1622188766
 30
0.0
 11
253.8606063295
 21
152.1622188766
 31
0.0
  0
LINE
  5
355
330
1F
100
AcDbEntity
  8
0
  6
Continuous
 62
     7
370
    35
100
AcDbLine
 10
253.8606063295
 20
163.6513441697
 30
0.0
 11
254.8606063295
 21
163.6513441697
 31
0.0
  0
LINE
  5
356
330
1F
100
AcDbEntity
  8
0
  6
Continuous
 62
     7
370
    35
100
AcDbLine
 10
264.8606063295
 20
157.4067815232
 30
0.0
 11
264.8606063295
 21
158.4067815232
 31
0.0
  0
LINE
  5
357
330
1F
100
AcDbEntity
  8
0
  6
Continuous
 62
     7
370
    35
100
AcDbLine
 10
203.7597838833
 20
187.8538186124
 30
0.0
 11
204.7596315785
 21
187.8363662059
 31
0.0
  0
LINE
  5
358
330
1F
100
AcDbEntity
  8
0
  6
Continuous
 62
     7
370
    35
100
AcDbLine
 10
204.7596315785
 20
187.8363662059
 30
0.0
 11
204.7587589582
 21
187.7863738212
 31
0.0
  0
LINE
  5
359
330
1F
100
AcDbEntity
  8
0
  6
Continuous
 62
     7
370
    35
100
AcDbLine
 10
198.3606063295
 20
187.9480616071
 30
0.0
 11
198.3598729823
 21
187.906048176
 31
0.0
  0
LINE
  5
35A
330
1F
100
AcDbEntity
  8
0
  6
Continuous
 62
     7
370
    35
100
AcDbLine
 10
198.3606063295
 20
187.9480616071
 30
0.0
 11
199.3604540247
 21
187.9306092007
 31
0.0
  0
LINE
  5
35B
330
1F
100
AcDbEntity
  8
0
  6
Continuous
 62
     7
370
    35
100
AcDbLine
 10
199.3604540247
 20
187.9306092007
 30
0.0
 11
203.7597838833
 21
187.8538186124
 31
0.0
  0
LINE
  5
35C
330
1F
100
AcDbEntity
  8
0
  6
Continuous
 62
     7
370
    35
100
AcDbLine
 10
253.6106063724
 20
188.9067815232
 30
0.0
 11
266.1106063295
 21
188.9067815232
 31
0.0
  0
LINE
  5
35D
330
1F
100
AcDbEntity
  8
0
  6
Continuous
 62
     7
370
    35
100
AcDbLine
 10
259.8606063295
 20
165.9067815232
 30
0.0
 11
263.2706063295
 21
165.9067815232
 31
0.0
  0
LINE
  5
35E
330
1F
100
AcDbEntity
  8
0
  6
Continuous
 62
     7
370
    35
100
AcDbLine
 10
256.4506063295
 20
165.9067815232
 30
0.0
 11
259.8606063295
 21
165.9067815232
 31
0.0
  0
LINE
  5
35F
330
1F
100
AcDbEntity
  8
0
  6
Continuous
 62
     7
370
    35
100
AcDbLine
 10
181.3606063295
 20
167.6567815232
 30
0.0
 11
160.8606063295
 21
167.6567815232
 31
0.0
  0
LINE
  5
360
330
1F
100
AcDbEntity
  8
0
  6
Continuous
 62
     7
370
    18
100
AcDbLine
 10
160.8606063295
 20
167.6567815232
 30
0.0
 11
161.1106063295
 21
167.9067815232
 31
0.0
  0
LINE
  5
361
330
1F
100
AcDbEntity
  8
0
  6
Continuous
 62
     7
370
    35
100
AcDbLine
 10
161.1106063295
 20
167.9067815232
 30
0.0
 11
181.3606063295
 21
167.9067815232
 31
0.0
  0
LINE
  5
362
330
1F
100
AcDbEntity
  8
0
  6
Continuous
 62
     7
370
    35
100
AcDbLine
 10
160.8606063295
 20
167.6567815232
 30
0.0
 11
160.8606063295
 21
164.977849335
 31
0.0
  0
LINE
  5
363
330
1F
100
AcDbEntity
  8
0
  6
Continuous
 62
     7
370
    35
100
AcDbLine
 10
183.8606063295
 20
167.6567815232
 30
0.0
 11
181.3606063295
 21
167.6567815232
 31
0.0
  0
LINE
  5
364
330
1F
100
AcDbEntity
  8
0
  6
Continuous
 62
     7
370
    35
100
AcDbLine
 10
181.3606063295
 20
167.9067815232
 30
0.0
 11
183.6106063295
 21
167.9067815232
 31
0.0
  0
LINE
  5
365
330
1F
100
AcDbEntity
  8
0
  6
Continuous
 62
     7
370
    35
100
AcDbLine
 10
204.8428411726
 20
168.8104440636
 30
0.0
 11
204.8428411726
 21
182.7856676849
 31
0.0
  0
LINE
  5
366
330
1F
100
AcDbEntity
  8
0
  6
Continuous
 62
     7
370
    35
100
AcDbLine
 10
205.8606063295
 20
182.7856676849
 30
0.0
 11
205.8606063295
 21
171.7299378434
 31
0.0
  0
ARC
  5
367
330
1F
100
AcDbEntity
  8
0
  6
Continuous
 62
     7
370
    35
100
AcDbCircle
 10
234.7209658101
 20
157.9067815232
 30
0.0
 40
31.99999999999994
100
AcDbArc
 50
154.4071226707
 51
157.9232317274
  0
SPLINE
  5
368
330
1F
100
AcDbEntity
  8
0
  6
Continuous
 62
     7
370
    35
100
AcDbSpline
210
0.0
220
0.0
230
1.0
 70
     8
 71
     3
 72
    10
 73
     6
 74
     0
 42
0.00000001
 43
0.00000001
 40
0.0
 40
0.0
 40
0.0
 40
0.0
 40
0.5
 40
0.5
 40
1.0
 40
1.0
 40
1.0
 40
1.0
 10
205.0671705330725
 20
169.9339352043082
 30
0.0
 10
204.999563939314
 20
169.7672463813463
 30
0.0
 10
204.9457014077284
 20
169.5934027605919
 30
0.0
 10
204.8690913391816
 20
169.229517870087
 30
0.0
 10
204.8466126312132
 20
169.0378501561844
 30
0.0
 10
204.843284452509
 20
168.8456553902099
 30
0.0
  0
SPLINE
  5
369
330
1F
100
AcDbEntity
  8
0
  6
Continuous
 62
     7
370
    35
100
AcDbSpline
210
0.0
220
0.0
230
1.0
 70
     8
 71
     3
 72
    14
 73
    10
 74
     0
 42
0.00000001
 43
0.00000001
 40
0.0000000062848769
 40
0.0000000062848769
 40
0.0000000062848769
 40
0.0000000062848769
 40
0.0000163349175867
 40
0.0000163349175867
 40
0.0000163349175867
 40
0.0000296809022006
 40
0.0000296809022006
 40
0.0000296809022006
 40
0.0000423045449008
 40
0.0000423045449008
 40
0.0000423045449008
 40
0.0000423045449008
 10
204.8577401135736
 20
168.810447649256
 30
0.0
 10
204.8545634255694
 20
168.8135204692934
 30
0.0
 10
204.8516265541873
 20
168.8172338606716
 30
0.0
 10
204.849252976532
 20
168.8215183880158
 30
0.0
 10
204.8473121758491
 20
168.8250217128712
 30
0.0
 10
204.8457130974444
 20
168.8289946921699
 30
0.0
 10
204.8446784241333
 20
168.8331977389103
 30
0.0
 10
204.8437010003722
 20
168.8371682267046
 30
0.0
 10
204.8432116710777
 20
168.8414524277465
 30
0.0
 10
204.843284452509
 20
168.8456553902099
 30
0.0
  0
LINE
  5
36A
330
1F
100
AcDbEntity
  8
0
  6
Continuous
 62
     7
370
    35
100
AcDbLine
 10
204.8577377753
 20
168.8104440636
 30
0.0
 11
204.8428411726
 21
168.8104440636
 31
0.0
  0
LINE
  5
36B
330
1F
100
AcDbEntity
  8
0
  6
Continuous
 62
     7
370
    35
100
AcDbLine
 10
197.8606063295
 20
132.9067815232
 30
0.0
 11
197.8606063295
 21
182.9067815232
 31
0.0
  0
LINE
  5
36C
330
1F
100
AcDbEntity
  8
0
  6
Continuous
 62
     7
370
    35
100
AcDbLine
 10
198.3606063295
 20
132.9067815232
 30
0.0
 11
198.3606063295
 21
182.9067815232
 31
0.0
  0
LINE
  5
36D
330
1F
100
AcDbEntity
  8
0
  6
Continuous
 62
     7
370
    35
100
AcDbLine
 10
197.8606063295
 20
128.4067815232
 30
0.0
 11
197.8606063295
 21
132.9067815232
 31
0.0
  0
LINE
  5
36E
330
1F
100
AcDbEntity
  8
0
  6
Continuous
 62
     7
370
    35
100
AcDbLine
 10
198.3606063295
 20
132.9067815232
 30
0.0
 11
198.3606063295
 21
127.9067815232
 31
0.0
  0
LINE
  5
36F
330
1F
100
AcDbEntity
  8
0
  6
Continuous
 62
     7
370
    35
100
AcDbLine
 10
198.3606063295
 20
127.9067815232
 30
0.0
 11
197.8606063295
 21
128.4067815232
 31
0.0
  0
LINE
  5
370
330
1F
100
AcDbEntity
  8
0
  6
Continuous
 62
     7
370
    35
100
AcDbLine
 10
197.8606063295
 20
182.9067815232
 30
0.0
 11
197.8606063295
 21
187.4067815232
 31
0.0
  0
LINE
  5
371
330
1F
100
AcDbEntity
  8
0
  6
Continuous
 62
     7
370
    35
100
AcDbLine
 10
197.8606063295
 20
187.4067815232
 30
0.0
 11
198.3606063295
 21
187.9067815232
 31
0.0
  0
LINE
  5
372
330
1F
100
AcDbEntity
  8
0
  6
Continuous
 62
     7
370
    35
100
AcDbLine
 10
198.3606063295
 20
187.9067815232
 30
0.0
 11
198.3606063295
 21
182.9067815232
 31
0.0
  0
SPLINE
  5
373
330
1F
100
AcDbEntity
  8
0
  6
Continuous
 62
     7
370
    35
100
AcDbSpline
210
0.0
220
0.0
230
1.0
 70
     8
 71
     3
 72
    25
 73
    21
 74
     0
 42
0.00000001
 43
0.00000001
 40
0.0
 40
0.0
 40
0.0
 40
0.0
 40
0.0288802334896757
 40
0.0574906153164173
 40
0.0858311569622925
 40
0.1139018702894485
 40
0.1417027675543894
 40
0.1692338614229396
 40
0.1964951649859615
 40
0.2234866917758425
 40
0.2502084557838191
 40
0.3759253578098674
 40
0.5000222648800627
 40
0.6241129250793714
 40
0.7498360731903563
 40
0.7981193102002772
 40
0.8472772613365943
 40
0.8973099890304317
 40
0.9482175508902931
 40
1.0
 40
1.0
 40
1.0
 40
1.0
 10
204.8428411726078
 20
128.0286568857099
 30
0.0
 10
204.8431062183668
 20
128.02964917038
 30
0.0
 10
204.8436338333453
 20
128.0316244679922
 30
0.0
 10
204.8443767338053
 20
128.047417058074
 30
0.0
 10
204.8450764523392
 20
128.072238019908
 30
0.0
 10
204.8457287398207
 20
128.1066748706427
 30
0.0
 10
204.8463337519609
 20
128.1501421702616
 30
0.0
 10
204.8468913193538
 20
128.2023506365437
 30
0.0
 10
204.8474021942983
 20
128.2629169001877
 30
0.0
 10
204.8478675338239
 20
128.3314850560842
 30
0.0
 10
204.8488120592517
 20
128.5019314755288
 30
0.0
 10
204.8498877623636
 20
128.8457156100849
 30
0.0
 10
204.8503489855472
 20
129.4704583652743
 30
0.0
 10
204.8498877809085
 20
130.2305976616773
 30
0.0
 10
204.8487282026192
 20
130.9229440086405
 30
0.0
 10
204.8475101282664
 20
131.4706063039681
 30
0.0
 10
204.8465742695215
 20
131.8418359866038
 30
0.0
 10
204.8454829874083
 20
132.2269050353542
 30
0.0
 10
204.8442456119093
 20
132.6238018229328
 30
0.0
 10
204.8433119704873
 20
132.8924346257383
 30
0.0
 10
204.8428411726078
 20
133.0278953614919
 30
0.0
  0
LINE
  5
374
330
1F
100
AcDbEntity
  8
0
  6
Continuous
 62
     7
370
    35
100
AcDbLine
 10
204.8428411726
 20
128.0286568857
 30
0.0
 11
198.3606063295
 21
127.9155090556
 31
0.0
  0
LINE
  5
375
330
1F
100
AcDbEntity
  8
0
  6
Continuous
 62
     7
370
    35
100
AcDbLine
 10
198.3606063295
 20
187.8980539907
 30
0.0
 11
204.8428411726
 21
187.7849061606
 31
0.0
  0
SPLINE
  5
376
330
1F
100
AcDbEntity
  8
0
  6
Continuous
 62
     7
370
    35
100
AcDbSpline
210
0.0
220
0.0
230
1.0
 70
     8
 71
     3
 72
    25
 73
    21
 74
     0
 42
0.00000001
 43
0.00000001
 40
0.0
 40
0.0
 40
0.0
 40
0.0
 40
0.0288802334901417
 40
0.0574906153172313
 40
0.0858311569633385
 40
0.113901870290611
 40
0.1417027675555518
 40
0.1692338614239863
 40
0.1964951649867755
 40
0.223486691776307
 40
0.2502084557838201
 40
0.3759253577397233
 40
0.5000222648800737
 40
0.6241129250088973
 40
0.7498360731903552
 40
0.7981193102007803
 40
0.847277261337349
 40
0.8973099890311871
 40
0.9482175508907964
 40
1.0
 40
1.0
 40
1.0
 40
1.0
 10
204.8428411726078
 20
182.785667684867
 30
0.0
 10
204.8431062183668
 20
182.8612028521873
 30
0.0
 10
204.8436338333453
 20
183.011567399926
 30
0.0
 10
204.8443767338054
 20
183.2355956803216
 30
0.0
 10
204.8450764523392
 20
183.4566149084759
 30
0.0
 10
204.8457287398207
 20
183.6742197995636
 30
0.0
 10
204.8463337519609
 20
183.8880316234146
 30
0.0
 10
204.8468913193538
 20
184.0976998730116
 30
0.0
 10
204.8474021942983
 20
184.3028953777792
 30
0.0
 10
204.8478675338239
 20
184.5033349486022
 30
0.0
 10
204.8488120592512
 20
184.9405877624395
 30
0.0
 10
204.8498877623669
 20
185.5829893594787
 30
0.0
 10
204.8503489855472
 20
186.3430683260866
 30
0.0
 10
204.8498877809052
 20
186.9678535383738
 30
0.0
 10
204.8487282026198
 20
187.3383947535453
 30
0.0
 10
204.8475101282664
 20
187.5412118508655
 30
0.0
 10
204.8465742695215
 20
187.6474285967366
 30
0.0
 10
204.8454829874083
 20
187.7252056497349
 30
0.0
 10
204.8442456119093
 20
187.7754082795051
 30
0.0
 10
204.8433119704873
 20
187.7817222691855
 30
0.0
 10
204.8428411726078
 20
187.784906160649
 30
0.0
  0
LINE
  5
377
330
1F
100
AcDbEntity
  8
0
  6
Continuous
 62
     7
370
    35
100
AcDbLine
 10
204.8428411726
 20
146.9984467221
 30
0.0
 11
204.792388748
 21
146.9984467221
 31
0.0
  0
LINE
  5
378
330
1F
100
AcDbEntity
  8
0
  6
Continuous
 62
     7
370
    35
100
AcDbLine
 10
204.8428411726
 20
133.0278953615
 30
0.0
 11
204.8428411726
 21
146.9984467221
 31
0.0
  0
LINE
  5
379
330
1F
100
AcDbEntity
  8
0
  6
Continuous
 62
     7
370
    35
100
AcDbLine
 10
204.8428411726
 20
168.8104440636
 30
0.0
 11
204.792388748
 21
168.8104440636
 31
0.0
  0
ARC
  5
37A
330
1F
100
AcDbEntity
  8
0
  6
Continuous
 62
     7
370
    35
100
AcDbCircle
 10
234.7209658101
 20
157.9067815232
 30
0.0
 40
31.99999999999992
100
AcDbArc
 50
202.0767682726
 51
205.5928773293
  0
LINE
  5
37B
330
1F
100
AcDbEntity
  8
0
  6
Continuous
 62
     7
370
    35
100
AcDbLine
 10
205.8606063295
 20
144.083625203
 30
0.0
 11
205.8606063295
 21
133.0278953615
 31
0.0
  0
LINE
  5
37C
330
1F
100
AcDbEntity
  8
0
  6
Continuous
 62
     7
370
    35
100
AcDbLine
 10
204.8535154386
 20
146.9984467221
 30
0.0
 11
204.8428411726
 21
146.9984467221
 31
0.0
  0
SPLINE
  5
37D
330
1F
100
AcDbEntity
  8
0
  6
Continuous
 62
     7
370
    35
100
AcDbSpline
210
0.0
220
0.0
230
1.0
 70
     8
 71
     3
 72
    14
 73
    10
 74
     0
 42
0.00000001
 43
0.00000001
 40
0.0000000000000001
 40
0.0000000000000001
 40
0.0000000000000001
 40
0.0000000000000001
 40
0.000012772566078
 40
0.000012772566078
 40
0.000012772566078
 40
0.0000254606508147
 40
0.0000254606508147
 40
0.0000254606508147
 40
0.0000346309996901
 40
0.0000346309996901
 40
0.0000346309996901
 40
0.0000346309996901
 10
204.84328445251
 20
146.9679076561491
 30
0.0
 10
204.8432107483854
 20
146.9721639020543
 30
0.0
 10
204.8437141165169
 20
146.9765040325892
 30
0.0
 10
204.8447164416734
 20
146.9805186536626
 30
0.0
 10
204.8457151234517
 20
146.9845186818842
 30
0.0
 10
204.8472235894045
 20
146.9883065946648
 30
0.0
 10
204.8490490597296
 20
146.9916726416857
 30
0.0
 10
204.8503776296733
 20
146.9941224371382
 30
0.0
 10
204.8518883431175
 20
146.9963883696936
 30
0.0
 10
204.8535154386047
 20
146.9984467220689
 30
0.0
  0
SPLINE
  5
37E
330
1F
100
AcDbEntity
  8
0
  6
Continuous
 62
     7
370
    35
100
AcDbSpline
210
0.0
220
0.0
230
1.0
 70
     8
 71
     3
 72
    10
 73
     6
 74
     0
 42
0.00000001
 43
0.00000001
 40
0.0
 40
0.0
 40
0.0
 40
0.0
 40
0.5
 40
0.5
 40
1.0
 40
1.0
 40
1.0
 40
1.0
 10
204.843284452509
 20
146.9679076561491
 30
0.0
 10
204.846601945414
 20
146.7763299708243
 30
0.0
 10
204.8682659413324
 20
146.5891987940205
 30
0.0
 10
204.9448502717893
 20
146.2229965373664
 30
0.0
 10
204.9995876201192
 20
146.0462582783181
 30
0.0
 10
205.0671705330725
 20
145.8796278420507
 30
0.0
  0
LINE
  5
37F
330
1F
100
AcDbEntity
  8
0
  6
Continuous
 62
     7
370
    35
100
AcDbLine
 10
204.858188824
 20
168.8104440636
 30
0.0
 11
204.8579743805
 21
168.8102212193
 31
0.0
  0
LINE
  5
380
330
1F
100
AcDbEntity
  8
0
  6
Continuous
 62
     7
370
    35
100
AcDbLine
 10
204.858188824
 20
168.8104440636
 30
0.0
 11
204.8577377753
 21
168.8104440636
 31
0.0
  0
SPLINE
  5
381
330
1F
100
AcDbEntity
  8
0
  6
Continuous
 62
     7
370
    35
100
AcDbSpline
210
0.0
220
0.0
230
1.0
 70
     8
 71
     3
 72
     8
 73
     4
 74
     0
 42
0.00000001
 43
0.00000001
 40
0.0
 40
0.0
 40
0.0
 40
0.0
 40
0.0000003794457062
 40
0.0000003794457062
 40
0.0000003794457062
 40
0.0000003794457062
 10
204.8581976983226
 20
168.810010889461
 30
0.0
 10
204.8581231097905
 20
168.8100811399672
 30
0.0
 10
204.8580486695067
 20
168.8101517063155
 30
0.0
 10
204.8579743804858
 20
168.8102225887152
 30
0.0
  0
SPLINE
  5
382
330
1F
100
AcDbEntity
  8
0
  6
Continuous
 62
     7
370
    35
100
AcDbSpline
210
0.0
220
0.0
230
1.0
 70
     8
 71
     3
 72
     8
 73
     4
 74
     0
 42
0.00000001
 43
0.00000001
 40
0.0
 40
0.0
 40
0.0
 40
0.0
 40
0.000000380208215
 40
0.000000380208215
 40
0.000000380208215
 40
0.000000380208215
 10
204.8579743804855
 20
147.0033404576445
 30
0.0
 10
204.8580486695064
 20
147.0034113400442
 30
0.0
 10
204.8581231097906
 20
147.0034819063918
 30
0.0
 10
204.8581976983226
 20
147.003552156898
 30
0.0
  0
SPLINE
  5
383
330
1F
100
AcDbEntity
  8
0
  6
Continuous
 62
     7
370
    35
100
AcDbSpline
210
0.0
220
0.0
230
1.0
 70
    24
 71
     3
 72
     8
 73
     4
 74
     0
 42
0.00000001
 43
0.00000001
 40
0.0
 40
0.0
 40
0.0
 40
0.0
 40
1.0
 40
1.0
 40
1.0
 40
1.0
 10
204.8535154386038
 20
146.9984467220699
 30
0.0
 10
204.856554010681
 20
146.9984467220699
 30
0.0
 10
204.8595925417806
 20
146.9984467220699
 30
0.0
 10
204.8626310301809
 20
146.9984467220699
 30
0.0
  0
SPLINE
  5
384
330
1F
100
AcDbEntity
  8
0
  6
Continuous
 62
     7
370
    35
100
AcDbSpline
210
0.0
220
0.0
230
1.0
 70
     8
 71
     3
 72
     8
 73
     4
 74
     0
 42
0.00000001
 43
0.00000001
 40
0.0
 40
0.0
 40
0.0
 40
0.0
 40
0.0000078628118775
 40
0.0000078628118775
 40
0.0000078628118775
 40
0.0000078628118775
 10
204.8579744875065
 20
147.0033405597662
 30
0.0
 10
204.8594747286448
 20
147.001770091881
 30
0.0
 10
204.8610342856327
 20
147.000131908046
 30
0.0
 10
204.8626310301815
 20
146.9984467220702
 30
0.0
  0
SPLINE
  5
385
330
1F
100
AcDbEntity
  8
0
  6
Continuous
 62
     7
370
    35
100
AcDbSpline
210
0.0
220
0.0
230
1.0
 70
    24
 71
     3
 72
    26
 73
    22
 74
     0
 42
0.00000001
 43
0.00000001
 40
0.0
 40
0.0
 40
0.0
 40
0.0
 40
0.0312233548226506
 40
0.0625203588570068
 40
0.1250202690638404
 40
0.1875183002397211
 40
0.2500147814960178
 40
0.3125099425631274
 40
0.3750040680090757
 40
0.4374974789728421
 40
0.499990526274032
 40
0.5624835735752247
 40
0.6249769845389945
 40
0.6874711099849401
 40
0.7499662710520465
 40
0.8124627523083456
 40
0.8749607834842296
 40
0.9061662547134239
 40
0.9374795352938288
 40
0.9687328261450622
 40
1.0
 40
1.0
 40
1.0
 40
1.0
 10
205.860606329503
 20
186.7671410037537
 30
0.0
 10
205.860606329503
 20
186.7662153359929
 30
0.0
 10
205.860606329503
 20
186.7643618170191
 30
0.0
 10
205.860606329503
 20
186.7445307863669
 30
0.0
 10
205.860606329503
 20
186.6970164651134
 30
0.0
 10
205.860606329503
 20
186.6017899511276
 30
0.0
 10
205.860606329503
 20
186.4700277119665
 30
0.0
 10
205.860606329503
 20
186.3026671794427
 30
0.0
 10
205.860606329503
 20
186.1015264270973
 30
0.0
 10
205.860606329503
 20
185.8683746521249
 30
0.0
 10
205.860606329503
 20
185.6056052070497
 30
0.0
 10
205.860606329503
 20
185.3156125886481
 30
0.0
 10
205.860606329503
 20
185.0013101852465
 30
0.0
 10
205.860606329503
 20
184.6656173827247
 30
0.0
 10
205.860606329503
 20
184.3118526365251
 30
0.0
 10
205.860606329503
 20
183.9433685942061
 30
0.0
 10
205.860606329503
 20
183.6270548415906
 30
0.0
 10
205.860606329503
 20
183.3702705585911
 30
0.0
 10
205.860606329503
 20
183.1762362883188
 30
0.0
 10
205.860606329503
 20
182.9811417850336
 30
0.0
 10
205.860606329503
 20
182.8508353633353
 30
0.0
 10
205.860606329503
 20
182.785667684867
 30
0.0
  0
LINE
  5
386
330
1F
100
AcDbEntity
  8
0
  6
Continuous
 62
     7
370
    35
100
AcDbLine
 10
205.8606063295
 20
186.7671410038
 30
0.0
 11
204.8428411726
 21
187.7849061606
 31
0.0
  0
SPLINE
  5
387
330
1F
100
AcDbEntity
  8
0
  6
Continuous
 62
     7
370
    35
100
AcDbSpline
210
0.0
220
0.0
230
1.0
 70
    24
 71
     3
 72
    26
 73
    22
 74
     0
 42
0.00000001
 43
0.00000001
 40
0.0
 40
0.0
 40
0.0
 40
0.0
 40
0.0312233548226512
 40
0.0625203588570068
 40
0.1250202690638409
 40
0.1875183002397209
 40
0.2500147814960189
 40
0.3125099425631272
 40
0.3750040680090758
 40
0.4374974789728459
 40
0.4999905262740365
 40
0.5624835735752268
 40
0.624976984538995
 40
0.6874711099849397
 40
0.7499662710520475
 40
0.8124627523083477
 40
0.8749607834842309
 40
0.906166254714789
 40
0.9374795352938328
 40
0.9687328261460096
 40
1.0
 40
1.0
 40
1.0
 40
1.0
 10
205.860606329503
 20
133.0278953614919
 30
0.0
 10
205.860606329503
 20
132.9628184263049
 30
0.0
 10
205.860606329503
 20
132.8325110533686
 30
0.0
 10
205.860606329503
 20
132.5725890096224
 30
0.0
 10
205.860606329503
 20
132.2498243249534
 30
0.0
 10
205.860606329503
 20
131.8702096921701
 30
0.0
 10
205.860606329503
 20
131.5017063265973
 30
0.0
 10
205.860606329503
 20
131.1479467570423
 30
0.0
 10
205.860606329503
 20
130.8122525706117
 30
0.0
 10
205.860606329503
 20
130.4979505263259
 30
0.0
 10
205.860606329503
 20
130.2079578553457
 30
0.0
 10
205.860606329503
 20
129.9451882614724
 30
0.0
 10
205.860606329503
 20
129.7120371342774
 30
0.0
 10
205.860606329503
 20
129.5108939395788
 30
0.0
 10
205.860606329503
 20
129.3435425289103
 30
0.0
 10
205.860606329503
 20
129.2117462436516
 30
0.0
 10
205.860606329503
 20
129.1325197160571
 30
0.0
 10
205.860606329503
 20
129.0879168117229
 30
0.0
 10
205.860606329503
 20
129.0641430141287
 30
0.0
 10
205.860606329503
 20
129.049174111759
 30
0.0
 10
205.860606329503
 20
129.0473395347823
 30
0.0
 10
205.860606329503
 20
129.0464220426052
 30
0.0
  0
LINE
  5
388
330
1F
100
AcDbEntity
  8
0
  6
Continuous
 62
     7
370
    35
100
AcDbLine
 10
205.8606063295
 20
129.0464220426
 30
0.0
 11
204.8428411726
 21
128.0286568857
 31
0.0
  0
ELLIPSE
  5
389
330
1F
100
AcDbEntity
  8
0
  6
Continuous
 62
     7
370
    35
100
AcDbEllipse
 10
204.892932099
 20
147.0677955507
 30
0.0
 11
0.04999824481964766
 21
0.04804448457969102
 31
0.0
210
0.0
220
0.0
230
1.0
 40
0.0087199405
 41
3.933612424753321
 42
4.721463273895298
  0
ELLIPSE
  5
38A
330
1F
100
AcDbEntity
  8
0
  6
Continuous
 62
     7
370
    35
100
AcDbEllipse
 10
204.892932099
 20
168.7457674956
 30
0.0
 11
0.04999824481967608
 21
-0.04804448457969102
 31
0.0
210
0.0
220
0.0
230
1.0
 40
0.0087199405
 41
1.561722033284901
 42
2.34957288237696
  0
LINE
  5
38B
330
1F
100
AcDbEntity
  8
0
  6
Continuous
 62
     7
370
    35
100
AcDbLine
 10
204.8581824732
 20
147.0338081834
 30
0.0
 11
204.8579743805
 21
147.0336082429
 31
0.0
  0
LINE
  5
38C
330
1F
100
AcDbEntity
  8
0
  6
Continuous
 62
     7
370
    35
100
AcDbLine
 10
204.8579743805
 20
147.0336082429
 30
0.0
 11
204.8579743805
 21
147.0033418271
 31
0.0
  0
LINE
  5
38D
330
1F
100
AcDbEntity
  8
0
  6
Continuous
 62
     7
370
    35
100
AcDbLine
 10
204.8579743805
 20
168.8102212193
 30
0.0
 11
204.8579743805
 21
168.7799548035
 31
0.0
  0
LINE
  5
38E
330
1F
100
AcDbEntity
  8
0
  6
Continuous
 62
     7
370
    35
100
AcDbLine
 10
204.8579743805
 20
168.7799548035
 30
0.0
 11
204.8581824732
 21
168.7797548629
 31
0.0
  0
LINE
  5
38F
330
1F
100
AcDbEntity
  8
0
  6
Continuous
 62
     7
370
    35
100
AcDbLine
 10
204.8428411726
 20
146.9984467221
 30
0.0
 11
204.8428411726
 21
168.8104440636
 31
0.0
  0
LINE
  5
390
330
1F
100
AcDbEntity
  8
0
  6
Continuous
 62
     7
370
    35
100
AcDbLine
 10
204.8579743805
 20
168.7799548035
 30
0.0
 11
204.8733787783
 21
168.7957127323
 31
0.0
  0
LINE
  5
391
330
1F
100
AcDbEntity
  8
0
  6
Continuous
 62
     7
370
    35
100
AcDbLine
 10
241.8606063295
 20
170.2704346889
 30
0.0
 11
204.8733787783
 21
168.7957127323
 31
0.0
  0
LINE
  5
392
330
1F
100
AcDbEntity
  8
0
  6
Continuous
 62
     7
370
    35
100
AcDbLine
 10
241.8606063295
 20
145.5431283575
 30
0.0
 11
204.8733787783
 21
147.0178503141
 31
0.0
  0
LINE
  5
393
330
1F
100
AcDbEntity
  8
0
  6
Continuous
 62
     7
370
    35
100
AcDbLine
 10
204.8733787783
 20
147.0178503141
 30
0.0
 11
204.8579743805
 21
147.0336082429
 31
0.0
  0
LINE
  5
394
330
1F
100
AcDbEntity
  8
0
  6
Continuous
 62
     7
370
    35
100
AcDbLine
 10
204.8733787783
 20
168.7957127323
 30
0.0
 11
204.8581976983
 21
168.8100108895
 31
0.0
  0
LINE
  5
395
330
1F
100
AcDbEntity
  8
0
  6
Continuous
 62
     7
370
    35
100
AcDbLine
 10
204.8581976983
 20
147.0035521569
 30
0.0
 11
204.8733787783
 21
147.0178503141
 31
0.0
  0
LINE
  5
396
330
1F
100
AcDbEntity
  8
0
  6
Continuous
 62
     7
370
    35
100
AcDbLine
 10
192.8606063295
 20
157.9067815232
 30
0.0
 11
192.8606063295
 21
182.9067815232
 31
0.0
  0
LINE
  5
397
330
1F
100
AcDbEntity
  8
0
  6
Continuous
 62
     7
370
    35
100
AcDbLine
 10
192.8606063295
 20
132.9067815232
 30
0.0
 11
192.8606063295
 21
157.9067815232
 31
0.0
  0
LINE
  5
398
330
1F
100
AcDbEntity
  8
0
  6
Continuous
 62
     7
370
    35
100
AcDbLine
 10
192.3606063295
 20
157.9067815232
 30
0.0
 11
192.3606063295
 21
182.4067815232
 31
0.0
  0
LINE
  5
399
330
1F
100
AcDbEntity
  8
0
  6
Continuous
 62
     7
370
    35
100
AcDbLine
 10
192.3606063295
 20
133.4067815232
 30
0.0
 11
192.3606063295
 21
157.9067815232
 31
0.0
  0
LINE
  5
39A
330
1F
100
AcDbEntity
  8
0
  6
Continuous
 62
     7
370
    35
100
AcDbLine
 10
187.8606063295
 20
157.9067815232
 30
0.0
 11
187.8606063295
 21
182.4067815232
 31
0.0
  0
LINE
  5
39B
330
1F
100
AcDbEntity
  8
0
  6
Continuous
 62
     7
370
    35
100
AcDbLine
 10
187.8606063295
 20
133.4067815232
 30
0.0
 11
187.8606063295
 21
157.9067815232
 31
0.0
  0
LINE
  5
39C
330
1F
100
AcDbEntity
  8
0
  6
Continuous
 62
     7
370
    35
100
AcDbLine
 10
186.8606063295
 20
157.9067815232
 30
0.0
 11
186.8606063295
 21
181.4067815232
 31
0.0
  0
LINE
  5
39D
330
1F
100
AcDbEntity
  8
0
  6
Continuous
 62
     7
370
    35
100
AcDbLine
 10
186.8606063295
 20
134.4067815232
 30
0.0
 11
186.8606063295
 21
157.9067815232
 31
0.0
  0
LWPOLYLINE
  5
39E
330
1F
100
AcDbEntity
  8
0
  6
Continuous
 62
     7
370
    35
100
AcDbPolyline
 90
        7
 70
   128
 43
0.0
 10
241.8606063295
 20
187.1383228878
 10
241.7607009979
 20
187.1400715441
 10
241.3610796732
 20
187.1470656828
 10
239.7625943923
 20
187.1750348344
 10
233.3686529929
 20
187.286815398
 10
207.7928625915
 20
187.733112713
 10
204.8432844525
 20
187.7844628807
  0
LWPOLYLINE
  5
39F
330
1F
100
AcDbEntity
  8
0
  6
Continuous
 62
     7
370
    35
100
AcDbPolyline
 90
        8
 70
   128
 43
0.0
 10
204.8432844525
 20
128.0291001656
 10
204.9431899621
 20
128.0308385794
 10
205.3428120022
 20
128.0377928977
 10
206.9413001729
 20
128.0656200789
 10
213.3352522703
 20
128.1770490614
 10
238.911033512
 20
128.6236327153
 10
239.5004669301
 20
128.6339427622
 10
241.8606063295
 20
128.6752401586
  0
LINE
  5
3A0
330
1F
100
AcDbEntity
  8
0
  6
Continuous
 62
     7
370
    35
100
AcDbLine
 10
241.8606063295
 20
128.67480438
 30
0.0
 11
204.8938047194
 21
128.0295464577
 31
0.0
  0
LINE
  5
3A1
330
1F
100
AcDbEntity
  8
0
  6
Continuous
 62
     7
370
    35
100
AcDbLine
 10
204.8938047194
 20
187.7840165886
 30
0.0
 11
241.8606063295
 21
187.1387586663
 31
0.0
  0
LINE
  5
3A2
330
1F
100
AcDbEntity
  8
0
  6
HIDDEN
 62
     7
370
    18
100
AcDbLine
 10
264.3606063295
 20
157.4067815232
 30
0.0
 11
264.3606063295
 21
150.9193661088
 31
0.0
  0
LINE
  5
3A3
330
1F
100
AcDbEntity
  8
0
  6
HIDDEN
 62
     7
370
    18
100
AcDbLine
 10
264.3606063295
 20
158.4067815232
 30
0.0
 11
264.3606063295
 21
164.8941969375
 31
0.0
  0
LINE
  5
3A4
330
1F
100
AcDbEntity
  8
0
  6
HIDDEN
 62
     7
370
    18
100
AcDbLine
 10
241.8606063295
 20
164.9067815232
 30
0.0
 11
241.8606063295
 21
150.9190754008
 31
0.0
  0
SPLINE
  5
3A5
330
1F
100
AcDbEntity
  8
0
  6
HIDDEN
 62
     7
370
    18
100
AcDbSpline
210
0.0
220
0.0
230
1.0
 70
     8
 71
     3
 72
     9
 73
     5
 74
     0
 42
0.00000001
 43
0.00000001
 40
0.0
 40
0.0
 40
0.0
 40
0.0
 40
0.4981717475760876
 40
1.0
 40
1.0
 40
1.0
 40
1.0
 10
260.4557119748768
 20
157.4067815231794
 30
0.0
 10
260.4615647253674
 20
157.5728371040287
 30
0.0
 10
260.4733131846468
 20
157.9061670884312
 30
0.0
 10
260.4615933293694
 20
158.2395037625417
 30
0.0
 10
260.4557119748769
 20
158.4067815231794
 30
0.0
  0
LINE
  5
3A6
330
1F
100
AcDbEntity
  8
0
  6
HIDDEN
 62
     7
370
    18
100
AcDbLine
 10
260.4557119749
 20
157.4067815232
 30
0.0
 11
264.3606063295
 21
157.4067815232
 31
0.0
  0
LINE
  5
3A7
330
1F
100
AcDbEntity
  8
0
  6
HIDDEN
 62
     7
370
    18
100
AcDbLine
 10
260.4557119749
 20
158.4067815232
 30
0.0
 11
264.3606063295
 21
158.4067815232
 31
0.0
  0
LINE
  5
3A8
330
1F
100
AcDbEntity
  8
0
  6
HIDDEN
 62
     7
370
    18
100
AcDbLine
 10
264.3606063295
 20
158.4067815232
 30
0.0
 11
254.8606063295
 21
158.4067815232
 31
0.0
  0
LINE
  5
3A9
330
1F
100
AcDbEntity
  8
0
  6
HIDDEN
 62
     7
370
    18
100
AcDbLine
 10
254.8606063295
 20
158.4067815232
 30
0.0
 11
254.8606063295
 21
164.9049598726
 31
0.0
  0
LINE
  5
3AA
330
1F
100
AcDbEntity
  8
0
  6
HIDDEN
 62
     7
370
    18
100
AcDbLine
 10
264.3606063295
 20
157.4067815232
 30
0.0
 11
254.8606063295
 21
157.4067815232
 31
0.0
  0
LINE
  5
3AB
330
1F
100
AcDbEntity
  8
0
  6
HIDDEN
 62
     7
370
    18
100
AcDbLine
 10
254.8606063295
 20
157.4067815232
 30
0.0
 11
254.8606063295
 21
150.9086031737
 31
0.0
  0
LINE
  5
3AC
330
1F
100
AcDbEntity
  8
0
  6
HIDDEN
 62
     7
370
    18
100
AcDbLine
 10
253.8606063295
 20
164.9054757763
 30
0.0
 11
253.8606063295
 21
150.90808727
 31
0.0
  0
LINE
  5
3AD
330
1F
100
AcDbEntity
  8
0
  6
HIDDEN
 62
     7
370
    18
100
AcDbLine
 10
198.3606063295
 20
130.4111589989
 30
0.0
 11
198.3606063295
 21
135.9049293644
 31
0.0
  0
LINE
  5
3AE
330
1F
100
AcDbEntity
  8
0
  6
HIDDEN
 62
     7
370
    18
100
AcDbLine
 10
197.8606063295
 20
129.9080441817
 30
0.0
 11
197.8606063295
 21
136.4080441817
 31
0.0
  0
LINE
  5
3AF
330
1F
100
AcDbEntity
  8
0
  6
HIDDEN
 62
     7
370
    18
100
AcDbLine
 10
205.3606063295
 20
130.4080441817
 30
0.0
 11
205.3606063295
 21
135.9080441817
 31
0.0
  0
LINE
  5
3B0
330
1F
100
AcDbEntity
  8
0
  6
HIDDEN
 62
     7
370
    18
100
AcDbLine
 10
205.8606063295
 20
129.9080441817
 30
0.0
 11
205.8606063295
 21
136.4080441817
 31
0.0
  0
LINE
  5
3B1
330
1F
100
AcDbEntity
  8
0
  6
HIDDEN
 62
     7
370
    18
100
AcDbLine
 10
198.3606063295
 20
179.908633682
 30
0.0
 11
198.3606063295
 21
185.4024040475
 31
0.0
  0
LINE
  5
3B2
330
1F
100
AcDbEntity
  8
0
  6
HIDDEN
 62
     7
370
    18
100
AcDbLine
 10
197.8606063295
 20
179.4055188647
 30
0.0
 11
197.8606063295
 21
185.9055188647
 31
0.0
  0
LINE
  5
3B3
330
1F
100
AcDbEntity
  8
0
  6
HIDDEN
 62
     7
370
    18
100
AcDbLine
 10
205.3606063295
 20
179.9055188647
 30
0.0
 11
205.3606063295
 21
185.4055188647
 31
0.0
  0
LINE
  5
3B4
330
1F
100
AcDbEntity
  8
0
  6
HIDDEN
 62
     7
370
    18
100
AcDbLine
 10
205.8606063295
 20
179.4055188647
 30
0.0
 11
205.8606063295
 21
185.9055188647
 31
0.0
  0
LINE
  5
3B5
330
1F
100
AcDbEntity
  8
0
  6
HIDDEN
 62
     7
370
    18
100
AcDbLine
 10
198.3606063295
 20
130.4111589989
 30
0.0
 11
198.3606063295
 21
135.9049293644
 31
0.0
  0
LINE
  5
3B6
330
1F
100
AcDbEntity
  8
0
  6
HIDDEN
 62
     7
370
    18
100
AcDbLine
 10
197.8606063295
 20
129.9080441817
 30
0.0
 11
197.8606063295
 21
136.4080441817
 31
0.0
  0
LINE
  5
3B7
330
1F
100
AcDbEntity
  8
0
  6
HIDDEN
 62
     7
370
    18
100
AcDbLine
 10
205.3606063295
 20
130.4111589989
 30
0.0
 11
205.3606063295
 21
135.9049293644
 31
0.0
  0
LINE
  5
3B8
330
1F
100
AcDbEntity
  8
0
  6
HIDDEN
 62
     7
370
    18
100
AcDbLine
 10
205.8606063295
 20
129.9080441817
 30
0.0
 11
205.8606063295
 21
136.4080441817
 31
0.0
  0
LINE
  5
3B9
330
1F
100
AcDbEntity
  8
0
  6
HIDDEN
 62
     7
370
    18
100
AcDbLine
 10
198.3606063295
 20
179.908633682
 30
0.0
 11
198.3606063295
 21
185.4024040475
 31
0.0
  0
LINE
  5
3BA
330
1F
100
AcDbEntity
  8
0
  6
HIDDEN
 62
     7
370
    18
100
AcDbLine
 10
197.8606063295
 20
179.4055188647
 30
0.0
 11
197.8606063295
 21
185.9055188647
 31
0.0
  0
LINE
  5
3BB
330
1F
100
AcDbEntity
  8
0
  6
HIDDEN
 62
     7
370
    18
100
AcDbLine
 10
205.3606063295
 20
179.908633682
 30
0.0
 11
205.3606063295
 21
185.4024040475
 31
0.0
  0
LINE
  5
3BC
330
1F
100
AcDbEntity
  8
0
  6
HIDDEN
 62
     7
370
    18
100
AcDbLine
 10
205.8606063295
 20
179.4055188647
 30
0.0
 11
205.8606063295
 21
185.9055188647
 31
0.0
  0
LINE
  5
3BD
330
1F
100
AcDbEntity
  8
0
  6
HIDDEN
 62
     7
370
    18
100
AcDbLine
 10
253.8606063295
 20
164.9067815232
 30
0.0
 11
241.8606063295
 21
164.9067815232
 31
0.0
  0
LINE
  5
3BE
330
1F
100
AcDbEntity
  8
0
  6
HIDDEN
 62
     7
370
    18
100
AcDbLine
 10
264.3606063295
 20
164.9067815232
 30
0.0
 11
254.8606063295
 21
164.9067815232
 31
0.0
  0
LINE
  5
3BF
330
1F
100
AcDbEntity
  8
0
  6
HIDDEN
 62
     7
370
    18
100
AcDbLine
 10
254.8606063295
 20
150.9067815232
 30
0.0
 11
264.3606063295
 21
150.9067815232
 31
0.0
  0
LINE
  5
3C0
330
1F
100
AcDbEntity
  8
0
  6
HIDDEN
 62
     7
370
    18
100
AcDbLine
 10
241.8606063295
 20
150.9067815232
 30
0.0
 11
253.8606063295
 21
150.9067815232
 31
0.0
  0
LINE
  5
3C1
330
1F
100
AcDbEntity
  8
0
  6
HIDDEN
 62
     7
370
    18
100
AcDbLine
 10
197.8606063295
 20
129.9080441817
 30
0.0
 11
198.3606063295
 21
130.4080441817
 31
0.0
  0
LINE
  5
3C2
330
1F
100
AcDbEntity
  8
0
  6
HIDDEN
 62
     7
370
    18
100
AcDbLine
 10
198.3606063295
 20
135.9080441817
 30
0.0
 11
197.8606063295
 21
136.4080441817
 31
0.0
  0
LINE
  5
3C3
330
1F
100
AcDbEntity
  8
0
  6
HIDDEN
 62
     7
370
    18
100
AcDbLine
 10
205.8606063295
 20
136.4080441817
 30
0.0
 11
205.3606063295
 21
135.9080441817
 31
0.0
  0
LINE
  5
3C4
330
1F
100
AcDbEntity
  8
0
  6
HIDDEN
 62
     7
370
    18
100
AcDbLine
 10
205.3606063295
 20
130.4080441817
 30
0.0
 11
205.8606063295
 21
129.9080441817
 31
0.0
  0
LINE
  5
3C5
330
1F
100
AcDbEntity
  8
0
  6
HIDDEN
 62
     7
370
    18
100
AcDbLine
 10
197.8606063295
 20
179.4055188647
 30
0.0
 11
198.3606063295
 21
179.9055188647
 31
0.0
  0
LINE
  5
3C6
330
1F
100
AcDbEntity
  8
0
  6
HIDDEN
 62
     7
370
    18
100
AcDbLine
 10
198.3606063295
 20
185.4055188647
 30
0.0
 11
197.8606063295
 21
185.9055188647
 31
0.0
  0
LINE
  5
3C7
330
1F
100
AcDbEntity
  8
0
  6
HIDDEN
 62
     7
370
    18
100
AcDbLine
 10
205.8606063295
 20
185.9055188647
 30
0.0
 11
205.3606063295
 21
185.4055188647
 31
0.0
  0
LINE
  5
3C8
330
1F
100
AcDbEntity
  8
0
  6
HIDDEN
 62
     7
370
    18
100
AcDbLine
 10
205.3606063295
 20
179.9055188647
 30
0.0
 11
205.8606063295
 21
179.4055188647
 31
0.0
  0
LINE
  5
3C9
330
1F
100
AcDbEntity
  8
0
  6
HIDDEN
 62
     7
370
    18
100
AcDbLine
 10
198.3606063295
 20
130.4080441817
 30
0.0
 11
205.3606063295
 21
130.4080441817
 31
0.0
  0
LINE
  5
3CA
330
1F
100
AcDbEntity
  8
0
  6
HIDDEN
 62
     7
370
    18
100
AcDbLine
 10
205.3606063295
 20
135.9080441817
 30
0.0
 11
198.3606063295
 21
135.9080441817
 31
0.0
  0
LINE
  5
3CB
330
1F
100
AcDbEntity
  8
0
  6
HIDDEN
 62
     7
370
    18
100
AcDbLine
 10
198.3606063295
 20
179.9055188647
 30
0.0
 11
205.3606063295
 21
179.9055188647
 31
0.0
  0
LINE
  5
3CC
330
1F
100
AcDbEntity
  8
0
  6
HIDDEN
 62
     7
370
    18
100
AcDbLine
 10
205.3606063295
 20
185.4055188647
 30
0.0
 11
198.3606063295
 21
185.4055188647
 31
0.0
  0
LINE
  5
3CD
330
1F
100
AcDbEntity
  8
0
  6
HIDDEN
 62
     7
370
    18
100
AcDbLine
 10
197.8606063295
 20
129.9080441817
 30
0.0
 11
198.3606063295
 21
130.4080441817
 31
0.0
  0
LINE
  5
3CE
330
1F
100
AcDbEntity
  8
0
  6
HIDDEN
 62
     7
370
    18
100
AcDbLine
 10
198.3606063295
 20
135.9080441817
 30
0.0
 11
197.8606063295
 21
136.4080441817
 31
0.0
  0
LINE
  5
3CF
330
1F
100
AcDbEntity
  8
0
  6
HIDDEN
 62
     7
370
    18
100
AcDbLine
 10
205.8606063295
 20
136.4080441817
 30
0.0
 11
205.3606063295
 21
135.9080441817
 31
0.0
  0
LINE
  5
3D0
330
1F
100
AcDbEntity
  8
0
  6
HIDDEN
 62
     7
370
    18
100
AcDbLine
 10
205.3606063295
 20
130.4080441817
 30
0.0
 11
205.8606063295
 21
129.9080441817
 31
0.0
  0
LINE
  5
3D1
330
1F
100
AcDbEntity
  8
0
  6
HIDDEN
 62
     7
370
    18
100
AcDbLine
 10
197.8606063295
 20
179.4055188647
 30
0.0
 11
198.3606063295
 21
179.9055188647
 31
0.0
  0
LINE
  5
3D2
330
1F
100
AcDbEntity
  8
0
  6
HIDDEN
 62
     7
370
    18
100
AcDbLine
 10
198.3606063295
 20
185.4055188647
 30
0.0
 11
197.8606063295
 21
185.9055188647
 31
0.0
  0
LINE
  5
3D3
330
1F
100
AcDbEntity
  8
0
  6
HIDDEN
 62
     7
370
    18
100
AcDbLine
 10
205.8606063295
 20
185.9055188647
 30
0.0
 11
205.3606063295
 21
185.4055188647
 31
0.0
  0
LINE
  5
3D4
330
1F
100
AcDbEntity
  8
0
  6
HIDDEN
 62
     7
370
    18
100
AcDbLine
 10
205.3606063295
 20
179.9055188647
 30
0.0
 11
205.8606063295
 21
179.4055188647
 31
0.0
  0
LINE
  5
3D5
330
1F
100
AcDbEntity
  8
0
  6
HIDDEN
 62
     7
370
    18
100
AcDbLine
 10
198.3606063295
 20
130.4080441817
 30
0.0
 11
205.3606063295
 21
130.4080441817
 31
0.0
  0
LINE
  5
3D6
330
1F
100
AcDbEntity
  8
0
  6
HIDDEN
 62
     7
370
    18
100
AcDbLine
 10
205.3606063295
 20
135.9080441817
 30
0.0
 11
198.3606063295
 21
135.9080441817
 31
0.0
  0
LINE
  5
3D7
330
1F
100
AcDbEntity
  8
0
  6
HIDDEN
 62
     7
370
    18
100
AcDbLine
 10
198.3606063295
 20
179.9055188647
 30
0.0
 11
205.3606063295
 21
179.9055188647
 31
0.0
  0
LINE
  5
3D8
330
1F
100
AcDbEntity
  8
0
  6
HIDDEN
 62
     7
370
    18
100
AcDbLine
 10
205.3606063295
 20
185.4055188647
 30
0.0
 11
198.3606063295
 21
185.4055188647
 31
0.0
  0
HATCH
  5
3D9
330
1F
100
AcDbEntity
  8
0
  6
Continuous
 62
     7
370
    18
100
AcDbHatch
 10
0.0
 20
0.0
 30
0.0
210
0.0
220
0.0
230
1.0
  2
ANSI31
 70
     0
 71
     0
 91
        1
 92
        0
 93
        7
 72
     1
 10
263.0231057435388
 20
127.9067815231794
 11
269.360606329503
 21
127.9067815231794
 72
     1
 10
269.360606329503
 20
127.9067815231794
 11
269.360606329503
 21
139.4067829332496
 72
     4
 94
        3
 73
     1
 74
     0
 95
        8
 96
        4
 40
0.0313986918959056
 40
0.0313986918959056
 40
0.0313986918959056
 40
0.0313986918959056
 40
0.0321057987047885
 40
0.0321057987047885
 40
0.0321057987047885
 40
0.0321057987047885
 10
269.360606329503
 20
139.4067829332496
 42
1.0
 10
269.1939396626599
 20
139.573449612796
 42
1.0
 10
269.0272729959884
 20
139.740116292514
 42
1.0
 10
268.860606329503
 20
139.9067829724182
 42
1.0
 72
     1
 10
268.860606329503
 20
139.9067829724182
 11
266.360606329503
 21
139.9067829724182
 72
     1
 10
266.360606329503
 20
139.9067829724182
 11
266.360606329503
 21
138.4067815231795
 72
     1
 10
266.360606329503
 20
138.4067815231795
 11
253.3098348310869
 21
138.4067828609383
 72
     3
 10
269.3266694280675
 20
155.095285255537
 11
0.2298795135126236
 21
28.6506854691051
 40
0.6846629592760403
 50
136.6362193446313
 51
167.4064906938727
 73
     1
 97
        0
 75
     0
 76
     1
 52
0.0
 41
0.6666666667
 77
     0
 78
     1
 53
45.0
 43
0.0
 44
0.0
 45
-1.496709353511525
 46
1.496709353511525
 79
     0
 98
        1
 10
0.0
 20
0.0
  0
HATCH
  5
3DA
330
1F
100
AcDbEntity
  8
0
  6
Continuous
 62
     7
370
    18
100
AcDbHatch
 10
0.0
 20
0.0
 30
0.0
210
0.0
220
0.0
230
1.0
  2
ANSI31
 70
     0
 71
     0
 91
        6
 92
        0
 93
       13
 72
     4
 94
        3
 73
     1
 74
     0
 95
       59
 96
       55
 40
0.0
 40
0.0
 40
0.0
 40
0.0
 40
0.0000042577202185
 40
0.0000042577202185
 40
0.0000042577202185
 40
0.0000140052543497
 40
0.0000140052543497
 40
0.0000140052543497
 40
0.0000428147835206
 40
0.0000428147835206
 40
0.0000428147835206
 40
0.0000712910035005
 40
0.0000712910035005
 40
0.0000712910035005
 40
0.0001145994792516
 40
0.0001145994792516
 40
0.0001145994792516
 40
0.0001806141816132
 40
0.0001806141816132
 40
0.0001806141816132
 40
0.0002811317055883
 40
0.0002811317055883
 40
0.0002811317055883
 40
0.00043370397293
 40
0.00043370397293
 40
0.00043370397293
 40
0.000664215900378
 40
0.000664215900378
 40
0.000664215900378
 40
0.001010454242558
 40
0.001010454242558
 40
0.001010454242558
 40
0.0015270059758634
 40
0.0015270059758634
 40
0.0015270059758634
 40
0.0059755537606664
 40
0.0059755537606664
 40
0.0059755537606664
 40
0.0070714409450232
 40
0.0070714409450232
 40
0.0070714409450232
 40
0.0073455915316232
 40
0.0073455915316232
 40
0.0073455915316232
 40
0.0074145411989309
 40
0.0074145411989309
 40
0.0074145411989309
 40
0.0074327760515357
 40
0.0074327760515357
 40
0.0074327760515357
 40
0.0074420821258237
 40
0.0074420821258237
 40
0.0074420821258237
 40
0.0074493756643544
 40
0.0074493756643544
 40
0.0074493756643544
 40
0.0074493756643544
 10
249.8606063295049
 20
151.3662921533785
 42
1.0
 10
249.8606063295048
 20
151.3662921533789
 42
1.0
 10
249.8605925578857
 20
151.3664530003601
 42
1.0
 10
249.8605685602947
 20
151.3667333311756
 42
1.0
 10
249.8605140686032
 20
151.3673698825824
 42
1.0
 10
249.8604074317123
 20
151.3686157595083
 42
1.0
 10
249.8602790887759
 20
151.370116467399
 42
1.0
 10
249.8599033891959
 20
151.3745095048361
 42
1.0
 10
249.859348716626
 20
151.3810058003289
 42
1.0
 10
249.8587774118271
 20
151.3877199181189
 42
1.0
 10
249.8582096320303
 20
151.3943926091977
 42
1.0
 10
249.8576011974856
 20
151.4015628879189
 42
1.0
 10
249.8569789556615
 20
151.4089205564806
 42
1.0
 10
249.8560325033599
 20
151.4201118362592
 42
1.0
 10
249.8550488857409
 20
151.431797932737
 42
1.0
 10
249.8540538614874
 20
151.4436832303888
 42
1.0
 10
249.8525371161019
 20
151.461800346938
 42
1.0
 10
249.8509890367302
 20
151.480437298997
 42
1.0
 10
249.8494356580217
 20
151.499298754097
 42
1.0
 10
249.8470704264801
 20
151.5280178991968
 42
1.0
 10
249.8446882349764
 20
151.5573131972419
 42
1.0
 10
249.842316816929
 20
151.5868763857065
 42
1.0
 10
249.8387174314609
 20
151.6317479810242
 42
1.0
 10
249.8351380603821
 20
151.6772949697749
 42
1.0
 10
249.8316100270558
 20
151.7231814284333
 42
1.0
 10
249.8262799979325
 20
151.7925050822646
 42
1.0
 10
249.8210618230669
 20
151.8626701923467
 42
1.0
 10
249.8159936188441
 20
151.9332919470238
 42
1.0
 10
249.8083814940913
 20
152.0393613915916
 42
1.0
 10
249.8011012591991
 20
152.1465466897689
 42
1.0
 10
249.7942040559858
 20
152.2543757627053
 42
1.0
 10
249.7839151782578
 20
152.415229388828
 42
1.0
 10
249.7744702679511
 20
152.57764269502
 42
1.0
 10
249.7659457796123
 20
152.7409770280503
 42
1.0
 10
249.6932578200289
 20
154.133722132034
 42
1.0
 10
249.6896424606223
 20
155.5979798483179
 42
1.0
 10
249.7634769707285
 20
157.0460393690229
 42
1.0
 10
249.7818210380669
 20
157.4058074682431
 42
1.0
 10
249.8050050295411
 20
157.7675463269682
 42
1.0
 10
249.8324100907307
 20
158.1233100529743
 42
1.0
 10
249.8392797173217
 20
158.2124893449089
 42
1.0
 10
249.8465050680742
 20
158.3023801456406
 42
1.0
 10
249.853639012135
 20
158.3878467044421
 42
1.0
 10
249.8554367108288
 20
158.4093836158352
 42
1.0
 10
249.8572750891895
 20
158.4311855877043
 42
1.0
 10
249.8588789092228
 20
158.4500567739773
 42
1.0
 10
249.8593064549267
 20
158.4550874472772
 42
1.0
 10
249.8597214419996
 20
158.459958489517
 42
1.0
 10
249.8600563814245
 20
158.4638839375593
 42
1.0
 10
249.8602277980207
 20
158.4658929185626
 42
1.0
 10
249.8603799460271
 20
158.4676742183329
 42
1.0
 10
249.8604806192777
 20
158.4688524220344
 42
1.0
 10
249.8605593423446
 20
158.4697737373606
 42
1.0
 10
249.860606329503
 20
158.4703233306247
 42
1.0
 10
249.860606329503
 20
158.4703233306247
 42
1.0
 72
     4
 94
        3
 73
     1
 74
     0
 95
       14
 96
       10
 40
0.0
 40
0.0
 40
0.0
 40
0.0
 40
0.006339317817579
 40
0.006339317817579
 40
0.006339317817579
 40
0.01366430929098
 40
0.01366430929098
 40
0.01366430929098
 40
0.0185322993809971
 40
0.0185322993809971
 40
0.0185322993809971
 40
0.0185322993809971
 10
249.860606329503
 20
158.4703233306247
 42
1.0
 10
250.0405084538869
 20
160.5748778396062
 42
1.0
 10
250.3904992968742
 20
162.6834331178151
 42
1.0
 10
250.8651635768235
 20
164.6167917793511
 42
1.0
 10
251.412390698323
 20
166.8457066985257
 42
1.0
 10
252.1422932580248
 20
168.9143313261321
 42
1.0
 10
252.9231219041718
 20
170.6600065085398
 42
1.0
 10
253.4447842148904
 20
171.8262712887991
 42
1.0
 10
253.9969274117305
 20
172.8723724146065
 42
1.0
 10
254.5273594505748
 20
173.7675024325673
 42
1.0
 72
     4
 94
        3
 73
     1
 74
     0
 95
       53
 96
       49
 40
0.0013985282877751
 40
0.0013985282877751
 40
0.0013985282877751
 40
0.0013985282877751
 40
0.0017629273019558
 40
0.0017629273019558
 40
0.0017629273019558
 40
0.0031886007230482
 40
0.0031886007230482
 40
0.0031886007230482
 40
0.0058063569687119
 40
0.0058063569687119
 40
0.0058063569687119
 40
0.009468248129455
 40
0.009468248129455
 40
0.009468248129455
 40
0.0122769370233035
 40
0.0122769370233035
 40
0.0122769370233035
 40
0.0141852434197149
 40
0.0141852434197149
 40
0.0141852434197149
 40
0.015976648624011
 40
0.015976648624011
 40
0.015976648624011
 40
0.0177539183079036
 40
0.0177539183079036
 40
0.0177539183079036
 40
0.0195364135463447
 40
0.0195364135463447
 40
0.0195364135463447
 40
0.0213148307622321
 40
0.0213148307622321
 40
0.0213148307622321
 40
0.0231062607660468
 40
0.0231062607660468
 40
0.0231062607660468
 40
0.0250475200788595
 40
0.0250475200788595
 40
0.0250475200788595
 40
0.0273053377312196
 40
0.0273053377312196
 40
0.0273053377312196
 40
0.0295381293093865
 40
0.0295381293093865
 40
0.0295381293093865
 40
0.0332080930654291
 40
0.0332080930654291
 40
0.0332080930654291
 40
0.0352550982800288
 40
0.0352550982800288
 40
0.0352550982800288
 40
0.0352550982800288
 10
254.5273594505745
 20
173.7675024325667
 42
1.0
 10
254.5547317049615
 20
173.8136944510852
 42
1.0
 10
254.5849945344246
 20
173.8644673840497
 42
1.0
 10
254.6177032076848
 20
173.9188963342891
 42
1.0
 10
254.7451022119632
 20
174.1308949686959
 42
1.0
 10
254.9105377404504
 20
174.399472517901
 42
1.0
 10
255.0971061757569
 20
174.6882822714684
 42
1.0
 10
255.4380336849395
 20
175.2160413736427
 42
1.0
 10
255.8576451259879
 20
175.8231727512045
 42
1.0
 10
256.3254521146359
 20
176.4320775849137
 42
1.0
 10
256.9768135970008
 20
177.2798997952022
 42
1.0
 10
257.7453667378425
 20
178.1628261412435
 42
1.0
 10
258.5979862239899
 20
178.9840111859662
 42
1.0
 10
259.2535797861935
 20
179.615434273809
 42
1.0
 10
259.977223183909
 20
180.2266261956667
 42
1.0
 10
260.7196376232775
 20
180.7627680829686
 42
1.0
 10
261.2266461521779
 20
181.1289092773587
 42
1.0
 10
261.7515147042175
 20
181.4665862849589
 42
1.0
 10
262.2558639579422
 20
181.7557938971217
 42
1.0
 10
262.7288875432702
 20
182.027038516994
 42
1.0
 10
263.193344979378
 20
182.2610512667177
 42
1.0
 10
263.6043721299116
 20
182.4478511597003
 42
1.0
 10
264.0117712764164
 20
182.6330022303036
 42
1.0
 10
264.3760103904005
 20
182.7767595193724
 42
1.0
 10
264.658129440243
 20
182.8802783653697
 42
1.0
 10
264.9410085295801
 20
182.9840760950915
 42
1.0
 10
265.1488459814203
 20
183.0511103655065
 42
1.0
 10
265.260346475082
 20
183.0866277047168
 42
1.0
 10
265.3716051922419
 20
183.1220680285011
 42
1.0
 10
265.390154823592
 20
183.127536662762
 42
1.0
 10
265.3141920699148
 20
183.1036644618788
 42
1.0
 10
265.23769261484
 20
183.0796235961834
 42
1.0
 10
265.0630658384961
 20
183.0248523172991
 42
1.0
 10
264.8081347484054
 20
182.9344078978969
 42
1.0
 10
264.5325384858549
 20
182.8366318912633
 42
1.0
 10
264.1540859106436
 20
182.6928362004572
 42
1.0
 10
263.720498249999
 20
182.5000545804694
 42
1.0
 10
263.2180725389558
 20
182.2766662064679
 42
1.0
 10
262.6248357047613
 20
181.9775378828181
 42
1.0
 10
262.0281461175965
 20
181.6228243599352
 42
1.0
 10
261.4353873789147
 20
181.270447605019
 42
1.0
 10
260.8221404696191
 20
180.8539872154913
 42
1.0
 10
260.2413334774247
 20
180.4054599268218
 42
1.0
 10
259.295249196775
 20
179.674847825116
 42
1.0
 10
258.4005694120521
 20
178.8329732503581
 42
1.0
 10
257.6269695163527
 20
177.9864955228403
 42
1.0
 10
257.1928300588305
 20
177.5114574786625
 42
1.0
 10
256.7881045872217
 20
177.02749230015
 42
1.0
 10
256.4180584268972
 20
176.5518594238486
 42
1.0
 72
     4
 94
        3
 73
     1
 74
     0
 95
       11
 96
        7
 40
0.0250738456554299
 40
0.0250738456554299
 40
0.0250738456554299
 40
0.0250738456554299
 40
0.0254850214786126
 40
0.0254850214786126
 40
0.0254850214786126
 40
0.0308945408244026
 40
0.0308945408244026
 40
0.0308945408244026
 40
0.0308945408244026
 10
256.4180584268861
 20
176.5518594238345
 42
1.0
 10
256.4489126437966
 20
176.5915173949436
 42
1.0
 10
256.478955505409
 20
176.629883531128
 42
1.0
 10
256.5081339293927
 20
176.6669328923412
 42
1.0
 10
256.8871831539003
 20
177.148231390308
 42
1.0
 10
257.1154216830562
 20
177.4074485178745
 42
1.0
 10
257.1148508252709
 20
177.4067801854206
 42
1.0
 72
     3
 10
269.3266694280675
 20
155.095285255537
 11
0.2298795135126236
 21
28.6506854691051
 40
0.6846629592760403
 50
330.8469506772115
 51
359.6081625102437
 73
     0
 72
     4
 94
        3
 73
     1
 74
     0
 95
       44
 96
       40
 40
0.0
 40
0.0
 40
0.0
 40
0.0
 40
0.0034430606489678
 40
0.0034430606489678
 40
0.0034430606489678
 40
0.0061691210492428
 40
0.0061691210492428
 40
0.0061691210492428
 40
0.0074598995793543
 40
0.0074598995793543
 40
0.0074598995793543
 40
0.0081573422219375
 40
0.0081573422219375
 40
0.0081573422219375
 40
0.0085984112002463
 40
0.0085984112002463
 40
0.0085984112002463
 40
0.0088984049179657
 40
0.0088984049179657
 40
0.0088984049179657
 40
0.0092246793238649
 40
0.0092246793238649
 40
0.0092246793238649
 40
0.0095488984591536
 40
0.0095488984591536
 40
0.0095488984591536
 40
0.0099661789237395
 40
0.0099661789237395
 40
0.0099661789237395
 40
0.0105240790539944
 40
0.0105240790539944
 40
0.0105240790539944
 40
0.0114915667192128
 40
0.0114915667192128
 40
0.0114915667192128
 40
0.0148606093089717
 40
0.0148606093089717
 40
0.0148606093089717
 40
0.0182024355473591
 40
0.0182024355473591
 40
0.0182024355473591
 40
0.0182024355473591
 10
269.360606329503
 20
183.746113563165
 42
1.0
 10
268.2129529172054
 20
183.7385791347105
 42
1.0
 10
267.0607605634338
 20
183.5808186761709
 42
1.0
 10
265.9531826541984
 20
183.2883772032407
 42
1.0
 10
265.0760188772734
 20
183.0567735708586
 42
1.0
 10
264.205882641714
 20
182.7339785759883
 42
1.0
 10
263.3934034887097
 20
182.3500723144369
 42
1.0
 10
263.0069943331153
 20
182.1674892982389
 42
1.0
 10
262.6268662640859
 20
181.9675384234764
 42
1.0
 10
262.286490903137
 20
181.7733132289456
 42
1.0
 10
262.101851768224
 20
181.6679543339994
 42
1.0
 10
261.9256471596232
 20
181.5624217523064
 42
1.0
 10
261.7786101104643
 20
181.4715684688505
 42
1.0
 10
261.6853437073731
 20
181.4139397351034
 42
1.0
 10
261.602269926036
 20
181.3613086326846
 42
1.0
 10
261.5414706010349
 20
181.3223647272342
 42
1.0
 10
261.4999353151296
 20
181.2957600528054
 42
1.0
 10
261.4682356227425
 20
181.2752117588393
 42
1.0
 10
261.4506434430311
 20
181.2637890762526
 42
1.0
 10
261.4315985120892
 20
181.2514231156607
 42
1.0
 10
261.429016050799
 20
181.2497336860936
 42
1.0
 10
261.4434116751755
 20
181.2590909218995
 42
1.0
 10
261.4577487452678
 20
181.2684100970953
 42
1.0
 10
261.4890052924317
 20
181.2887159097564
 42
1.0
 10
261.5321003278807
 20
181.3163585413575
 42
1.0
 10
261.5874907670133
 20
181.3518878659585
 42
1.0
 10
261.6634495198576
 20
181.400132573008
 42
1.0
 10
261.7493342089735
 20
181.4534384721443
 42
1.0
 10
261.8641791330086
 20
181.5247190694192
 42
1.0
 10
261.9992996375296
 20
181.6065804442641
 42
1.0
 10
262.141959984167
 20
181.6898817611313
 42
1.0
 10
262.3885561366515
 20
181.8338726087674
 42
1.0
 10
262.6634940158536
 20
181.9854942669156
 42
1.0
 10
262.9451584757046
 20
182.1295668504934
 42
1.0
 10
263.9086880311047
 20
182.6224163653861
 42
1.0
 10
264.9874570707465
 20
183.0421911163702
 42
1.0
 10
266.0640240976028
 20
183.3171655258352
 42
1.0
 10
267.1370252616967
 20
183.5912291503859
 42
1.0
 10
268.2509122224915
 20
183.7388283403216
 42
1.0
 10
269.360606329503
 20
183.746113563165
 42
1.0
 72
     4
 94
        3
 73
     1
 74
     0
 95
        8
 96
        4
 40
0.0
 40
0.0
 40
0.0
 40
0.0
 40
0.0001550850003326
 40
0.0001550850003326
 40
0.0001550850003326
 40
0.0001550850003326
 10
269.360606329503
 20
183.746113563165
 42
1.0
 10
269.3295071330245
 20
183.7459093946692
 42
1.0
 10
269.2984352005433
 20
183.7455974015661
 42
1.0
 10
269.2673904935778
 20
183.7451781496884
 42
1.0
 72
     3
 10
269.3266694280675
 20
155.095285255537
 11
0.2298795135126236
 21
28.6506854691051
 40
0.6846629592760403
 50
0.5782537099617046
 51
121.4911523682322
 73
     1
 72
     4
 94
        3
 73
     1
 74
     0
 95
        8
 96
        4
 40
0.0
 40
0.0
 40
0.0
 40
0.0
 40
0.0008379321066697
 40
0.0008379321066697
 40
0.0008379321066697
 40
0.0008379321066697
 10
251.1483329535151
 20
144.1590544383121
 42
1.0
 10
251.2168848696992
 20
143.9129020579654
 42
1.0
 10
251.2876658077982
 20
143.668624575825
 42
1.0
 10
251.3606063295
 20
143.4263496078042
 42
1.0
 72
     4
 94
        3
 73
     1
 74
     0
 95
       14
 96
       10
 40
0.0
 40
0.0
 40
0.0
 40
0.0
 40
0.0052496979079261
 40
0.0052496979079261
 40
0.0052496979079261
 40
0.0090336446787996
 40
0.0090336446787996
 40
0.0090336446787996
 40
0.014350888708594
 40
0.014350888708594
 40
0.014350888708594
 40
0.014350888708594
 10
251.360606329502
 20
143.4263496077864
 42
1.0
 10
251.8597256994167
 20
141.7685039197748
 42
1.0
 10
252.4800326285667
 20
140.1364332095098
 42
1.0
 10
253.2340456374491
 20
138.5637300868128
 42
1.0
 10
253.77777963736
 20
137.429622121164
 42
1.0
 10
254.3954856716838
 20
136.3189087243475
 42
1.0
 10
255.0845117674225
 20
135.2628348369703
 42
1.0
 10
256.0430278705547
 20
133.7937122109785
 42
1.0
 10
257.1693985141172
 20
132.4014238877592
 42
1.0
 10
258.360606329503
 20
131.239398401998
 42
1.0
 72
     4
 94
        3
 73
     1
 74
     0
 95
        8
 96
        4
 40
0.0
 40
0.0
 40
0.0
 40
0.0
 40
0.0066414266282383
 40
0.0066414266282383
 40
0.0066414266282383
 40
0.0066414266282383
 10
258.360606329503
 20
131.239398401998
 42
1.0
 10
259.7046654390285
 20
129.9282661885711
 42
1.0
 10
261.2397048471923
 20
128.7743577762774
 42
1.0
 10
263.0231057435388
 20
127.9067815231794
 42
1.0
 72
     3
 10
269.3266694280675
 20
155.095285255537
 11
0.2298795135126236
 21
28.6506854691051
 40
0.6846629592760403
 50
192.5935093061282
 51
223.3637806553695
 73
     0
 72
     4
 94
        3
 73
     1
 74
     0
 95
       17
 96
       13
 40
0.0
 40
0.0
 40
0.0
 40
0.0
 40
0.004132696774922
 40
0.004132696774922
 40
0.004132696774922
 40
0.0109921894079303
 40
0.0109921894079303
 40
0.0109921894079303
 40
0.017422300264209
 40
0.017422300264209
 40
0.017422300264209
 40
0.02432097262034
 40
0.02432097262034
 40
0.02432097262034
 40
0.02432097262034
 10
253.3098348310869
 20
138.4067828609383
 42
1.0
 10
253.310083010989
 20
138.4062725922938
 42
1.0
 10
253.2369105827842
 20
138.5540243723226
 42
1.0
 10
253.1022766754588
 20
138.842085677636
 42
1.0
 10
252.8809685552278
 20
139.3155942257917
 42
1.0
 10
252.4868761266822
 20
140.1845500710997
 42
1.0
 10
252.0520939909862
 20
141.3604660489841
 42
1.0
 10
251.64341392571
 20
142.4657861142427
 42
1.0
 10
251.1917286569042
 20
143.8711217528799
 42
1.0
 10
250.8052590636836
 20
145.4845411556385
 42
1.0
 10
250.3919312277076
 20
147.2100873873775
 42
1.0
 10
250.0436160530979
 20
149.2287116214359
 42
1.0
 10
249.860606329503
 20
151.3662921533891
 42
1.0
 97
        0
 92
        0
 93
        1
 72
     4
 94
        3
 73
     1
 74
     0
 95
       65
 96
       61
 40
0.0
 40
0.0
 40
0.0
 40
0.0
 40
0.0004498970426734
 40
0.0004498970426734
 40
0.0004498970426734
 40
0.0014725260546232
 40
0.0014725260546232
 40
0.0014725260546232
 40
0.0022198272123188
 40
0.0022198272123188
 40
0.0022198272123188
 40
0.0027380147674188
 40
0.0027380147674188
 40
0.0027380147674188
 40
0.0031148279975995
 40
0.0031148279975995
 40
0.0031148279975995
 40
0.003544252161626
 40
0.003544252161626
 40
0.003544252161626
 40
0.0039696292669973
 40
0.0039696292669973
 40
0.0039696292669973
 40
0.0045155153018774
 40
0.0045155153018774
 40
0.0045155153018774
 40
0.0053173925266655
 40
0.0053173925266655
 40
0.0053173925266655
 40
0.0063190619349195
 40
0.0063190619349195
 40
0.0063190619349195
 40
0.0073097003791536
 40
0.0073097003791536
 40
0.0073097003791536
 40
0.0080935431865443
 40
0.0080935431865443
 40
0.0080935431865443
 40
0.0086209912012358
 40
0.0086209912012358
 40
0.0086209912012358
 40
0.0090906522531068
 40
0.0090906522531068
 40
0.0090906522531068
 40
0.0095522101164019
 40
0.0095522101164019
 40
0.0095522101164019
 40
0.0100564075620929
 40
0.0100564075620929
 40
0.0100564075620929
 40
0.0105577701206932
 40
0.0105577701206932
 40
0.0105577701206932
 40
0.0111511846752178
 40
0.0111511846752178
 40
0.0111511846752178
 40
0.0118962217039628
 40
0.0118962217039628
 40
0.0118962217039628
 40
0.0127621824845032
 40
0.0127621824845032
 40
0.0127621824845032
 40
0.0127621824845032
 10
257.5564358191746
 20
132.0675923217168
 42
1.0
 10
257.6580079726717
 20
131.9572618949112
 42
1.0
 10
257.7609592807547
 20
131.8477058526735
 42
1.0
 10
257.8637486706334
 20
131.740548294109
 42
1.0
 10
258.0949068145154
 20
131.4995667845393
 42
1.0
 10
258.3304450146287
 20
131.2658254751429
 42
1.0
 10
258.5482730132741
 20
131.0586112144553
 42
1.0
 10
258.707967541581
 20
130.9066978524232
 42
1.0
 10
258.8621389027056
 20
130.7652255681387
 42
1.0
 10
258.9916728217655
 20
130.6491461741206
 42
1.0
 10
259.0817472757935
 20
130.5684276401954
 42
1.0
 10
259.1615848495792
 20
130.498429144427
 42
1.0
 10
259.2186112327788
 20
130.4488755706126
 42
1.0
 10
259.2602248587756
 20
130.4127150468019
 42
1.0
 10
259.2902412152143
 20
130.3869237109417
 42
1.0
 10
259.3039310182763
 20
130.3751653443386
 42
1.0
 10
259.319442614875
 20
130.3618422133497
 42
1.0
 10
259.3138388361809
 20
130.3666233034885
 42
1.0
 10
259.2884413794425
 20
130.3884836824086
 42
1.0
 10
259.2631917584281
 20
130.4102168145347
 42
1.0
 10
259.2182994064085
 20
130.4489542697205
 42
1.0
 10
259.1613945185282
 20
130.4987885167036
 42
1.0
 10
259.088436083817
 20
130.5626815984814
 42
1.0
 10
258.9943442937105
 20
130.6461095909442
 42
1.0
 10
258.8917298487166
 20
130.7393159566881
 42
1.0
 10
258.7414911864854
 20
130.875780171854
 42
1.0
 10
258.5689096572939
 20
131.0370029244965
 42
1.0
 10
258.3927256079687
 20
131.2081332582791
 42
1.0
 10
258.1730735869629
 20
131.4214847155459
 42
1.0
 10
257.9409764810614
 20
131.6568599606645
 42
1.0
 10
257.7150056952941
 20
131.8971637544783
 42
1.0
 10
257.4916909466701
 20
132.1346430424611
 42
1.0
 10
257.2679311337163
 20
132.383811510164
 42
1.0
 10
257.0615731293819
 20
132.6233677724204
 42
1.0
 10
256.8979334842822
 20
132.8133332737028
 42
1.0
 10
256.7411623853172
 20
133.0019537253158
 42
1.0
 10
256.6051572731533
 20
133.1699277090084
 42
1.0
 10
256.5131257754239
 20
133.2835917989301
 42
1.0
 10
256.4289506118823
 20
133.3897684354396
 42
1.0
 10
256.3588407967887
 20
133.479335891184
 42
1.0
 10
256.2964176058914
 20
133.5590834469386
 42
1.0
 10
256.2440324305508
 20
133.6270488116893
 42
1.0
 10
256.2064367805318
 20
133.676102185489
 42
1.0
 10
256.1695468279246
 20
133.7242347921544
 42
1.0
 10
256.1461946970407
 20
133.7550291145849
 42
1.0
 10
256.1390780063398
 20
133.7644021016925
 42
1.0
 10
256.1313285571359
 20
133.7746084589071
 42
1.0
 10
256.1427798699887
 20
133.7594509558955
 42
1.0
 10
256.1717934085726
 20
133.7214124966929
 42
1.0
 10
256.2007059303369
 20
133.6835064764947
 42
1.0
 10
256.247653693849
 20
133.6221601372911
 42
1.0
 10
256.3072769999629
 20
133.5454452292078
 42
1.0
 10
256.3777633796383
 20
133.4547532416217
 42
1.0
 10
256.4677657236804
 20
133.3403585234412
 42
1.0
 10
256.5681667508936
 20
133.2157287998216
 42
1.0
 10
256.6940064783549
 20
133.0595215289482
 42
1.0
 10
256.8396771622235
 20
132.8829970797266
 42
1.0
 10
256.9925716835514
 20
132.7038441359705
 42
1.0
 10
257.170280673189
 20
132.4956150356143
 42
1.0
 10
257.3624826233092
 20
132.2782695412437
 42
1.0
 10
257.5564358191746
 20
132.0675923217168
 42
1.0
 97
        0
 92
        0
 93
        2
 72
     4
 94
        3
 73
     1
 74
     0
 95
       35
 96
       31
 40
0.0
 40
0.0
 40
0.0
 40
0.0
 40
0.000257838374414
 40
0.000257838374414
 40
0.000257838374414
 40
0.0011830606275519
 40
0.0011830606275519
 40
0.0011830606275519
 40
0.0019056271891611
 40
0.0019056271891611
 40
0.0019056271891611
 40
0.0024335829494934
 40
0.0024335829494934
 40
0.0024335829494934
 40
0.0028260754018269
 40
0.0028260754018269
 40
0.0028260754018269
 40
0.0032638124292999
 40
0.0032638124292999
 40
0.0032638124292999
 40
0.0036982642023085
 40
0.0036982642023085
 40
0.0036982642023085
 40
0.0042259819563322
 40
0.0042259819563322
 40
0.0042259819563322
 40
0.0051904414378382
 40
0.0051904414378382
 40
0.0051904414378382
 40
0.0060340342570945
 40
0.0060340342570945
 40
0.0060340342570945
 40
0.0060340342570945
 10
256.860606329503
 20
132.8598618348416
 42
1.0
 10
256.915806092642
 20
132.7940163648728
 42
1.0
 10
256.9713684839968
 20
132.7284805439285
 42
1.0
 10
257.0269456115187
 20
132.6636601230603
 42
1.0
 10
257.2238992696015
 20
132.433950176222
 42
1.0
 10
257.4249750186792
 20
132.2091143323392
 42
1.0
 10
257.6117451421611
 20
132.007735649673
 42
1.0
 10
257.7579870316009
 20
131.8500551893459
 42
1.0
 10
257.8992285768101
 20
131.7026673485304
 42
1.0
 10
258.0188168333046
 20
131.5805535166665
 42
1.0
 10
258.1064194099849
 20
131.4911008677764
 42
1.0
 10
258.1841629134167
 20
131.4133562695552
 42
1.0
 10
258.2405015717142
 20
131.3575074624619
 42
1.0
 10
258.2825298574707
 20
131.3158446026315
 42
1.0
 10
258.3132746908369
 20
131.2857024911345
 42
1.0
 10
258.3281851334305
 20
131.2710940680086
 42
1.0
 10
258.3447323604115
 20
131.254882014491
 42
1.0
 10
258.3417511458946
 20
131.257783543092
 42
1.0
 10
258.3198822036347
 20
131.2792333384968
 42
1.0
 10
258.2981160198314
 20
131.300582344945
 42
1.0
 10
258.257496796283
 20
131.3404939580119
 42
1.0
 10
258.2047039455878
 20
131.3930789134692
 42
1.0
 10
258.1406040766695
 20
131.4569263607559
 42
1.0
 10
258.0573113255306
 20
131.5407707716719
 42
1.0
 10
257.9655451822345
 20
131.6351442611181
 42
1.0
 10
257.79976598728
 20
131.8056337308017
 42
1.0
 10
257.6006007199643
 20
132.0167930827492
 42
1.0
 10
257.399871093254
 20
132.2394527448931
 42
1.0
 10
257.2231029747466
 20
132.4355330654205
 42
1.0
 10
257.0391910569897
 20
132.6468356433807
 42
1.0
 10
256.860606329507
 20
132.8598618348288
 42
1.0
 72
     4
 94
        3
 73
     1
 74
     0
 95
       23
 96
       19
 40
0.0
 40
0.0
 40
0.0
 40
0.0
 40
0.00080844576514
 40
0.00080844576514
 40
0.00080844576514
 40
0.0014921333669079
 40
0.0014921333669079
 40
0.0014921333669079
 40
0.0019304883050829
 40
0.0019304883050829
 40
0.0019304883050829
 40
0.0023680316488159
 40
0.0023680316488159
 40
0.0023680316488159
 40
0.0029617019974329
 40
0.0029617019974329
 40
0.0029617019974329
 40
0.0038793363122799
 40
0.0038793363122799
 40
0.0038793363122799
 40
0.0038793363122799
 10
256.8606063295064
 20
132.8598618348375
 42
1.0
 10
256.7409793668408
 20
133.0025597945701
 42
1.0
 10
256.6265067720119
 20
133.1427583342736
 42
1.0
 10
256.5271234871946
 20
133.2668199883801
 42
1.0
 10
256.443491553288
 20
133.3712189934606
 42
1.0
 10
256.3692391699047
 20
133.4658739263883
 42
1.0
 10
256.3232242734387
 20
133.5249491096028
 42
1.0
 10
256.293667663975
 20
133.5628946936062
 42
1.0
 10
256.276129189907
 20
133.5856082603058
 42
1.0
 10
256.2754046718494
 20
133.5865445877463
 42
1.0
 10
256.2746816193358
 20
133.5874790211979
 42
1.0
 10
256.2907297130192
 20
133.5666887975619
 42
1.0
 10
256.31909719543
 20
133.530249076066
 42
1.0
 10
256.357612982107
 20
133.4807732530308
 42
1.0
 10
256.4182831884874
 20
133.4032904101593
 42
1.0
 10
256.4876613765854
 20
133.3162146329364
 42
1.0
 10
256.5951684040048
 20
133.181283781813
 42
1.0
 10
256.7248386055389
 20
133.0218134281493
 42
1.0
 10
256.860606329507
 20
132.859861834829
 42
1.0
 97
        0
 92
        0
 93
        1
 72
     4
 94
        3
 73
     1
 74
     0
 95
       62
 96
       58
 40
0.0
 40
0.0
 40
0.0
 40
0.0
 40
0.0003940335504735
 40
0.0003940335504735
 40
0.0003940335504735
 40
0.0009884942449008
 40
0.0009884942449008
 40
0.0009884942449008
 40
0.0015587166684753
 40
0.0015587166684753
 40
0.0015587166684753
 40
0.0021110538271513
 40
0.0021110538271513
 40
0.0021110538271513
 40
0.0026621272847423
 40
0.0026621272847423
 40
0.0026621272847423
 40
0.0032306042584157
 40
0.0032306042584157
 40
0.0032306042584157
 40
0.0038251692716509
 40
0.0038251692716509
 40
0.0038251692716509
 40
0.0044381102709095
 40
0.0044381102709095
 40
0.0044381102709095
 40
0.0050529577922379
 40
0.0050529577922379
 40
0.0050529577922379
 40
0.0056566953586949
 40
0.0056566953586949
 40
0.0056566953586949
 40
0.0062446266030258
 40
0.0062446266030258
 40
0.0062446266030258
 40
0.0068186208504032
 40
0.0068186208504032
 40
0.0068186208504032
 40
0.0073838614047235
 40
0.0073838614047235
 40
0.0073838614047235
 40
0.0079467137034061
 40
0.0079467137034061
 40
0.0079467137034061
 40
0.008513911346675
 40
0.008513911346675
 40
0.008513911346675
 40
0.009092080653085
 40
0.009092080653085
 40
0.009092080653085
 40
0.00968607769809
 40
0.00968607769809
 40
0.00968607769809
 40
0.0102919012988173
 40
0.0102919012988173
 40
0.0102919012988173
 40
0.0108969631503926
 40
0.0108969631503926
 40
0.0108969631503926
 40
0.0108969631503926
 10
250.9913291236815
 20
144.7410570307326
 42
1.0
 10
251.0245121954018
 20
144.6139733344885
 42
1.0
 10
251.0585718277978
 20
144.4863313984535
 42
1.0
 10
251.0922793671731
 20
144.3625719956198
 42
1.0
 10
251.1427520539426
 20
144.1772582738308
 42
1.0
 10
251.1935541762588
 20
143.9966744330317
 42
1.0
 10
251.2401752296034
 20
143.8350072027144
 42
1.0
 10
251.2849218585249
 20
143.6798398899919
 42
1.0
 10
251.3269284208883
 20
143.5381515477958
 42
1.0
 10
251.3621386299023
 20
143.4212613573783
 42
1.0
 10
251.3962480925829
 20
143.308025403959
 42
1.0
 10
251.4247934837639
 20
143.2152608596658
 42
1.0
 10
251.4447108717973
 20
143.1509625772077
 42
1.0
 10
251.4645720237393
 20
143.0868458388399
 42
1.0
 10
251.4763180910896
 20
143.0494542029719
 42
1.0
 10
251.4785438342572
 20
143.0423484626582
 42
1.0
 10
251.4808376163784
 20
143.0350255062957
 42
1.0
 10
251.4730548911554
 20
143.0597377174613
 42
1.0
 10
251.4561948748669
 20
143.1139597325852
 42
1.0
 10
251.4385745404998
 20
143.1706269397924
 42
1.0
 10
251.4105544992006
 20
143.2611748173153
 42
1.0
 10
251.3756731284516
 20
143.376434521307
 42
1.0
 10
251.3397141934736
 20
143.4952548575612
 42
1.0
 10
251.295455253516
 20
143.6438190785222
 42
1.0
 10
251.2478743179907
 20
143.8083470664711
 42
1.0
 10
251.2001205030101
 20
143.9734728465526
 42
1.0
 10
251.1476832738364
 20
144.1594137490457
 42
1.0
 10
251.0955532954535
 20
144.3505595005485
 42
1.0
 10
251.0443354046675
 20
144.5383608871665
 42
1.0
 10
250.9920239426229
 20
144.7363205701753
 42
1.0
 10
250.9428673691122
 20
144.9286355222306
 42
1.0
 10
250.8949786865755
 20
145.1159901124369
 42
1.0
 10
250.8488184023311
 20
145.3029048421839
 42
1.0
 10
250.8076890109321
 20
145.4744028324287
 42
1.0
 10
250.7675277309485
 20
145.6418640704532
 42
1.0
 10
250.7311036400018
 20
145.7989459799448
 42
1.0
 10
250.700772747361
 20
145.93265852078
 42
1.0
 10
250.670905043885
 20
146.0643291104975
 42
1.0
 10
250.6461414455818
 20
146.1767497662512
 42
1.0
 10
250.6279590397106
 20
146.2602751113293
 42
1.0
 10
250.6098566093879
 20
146.3434330690912
 42
1.0
 10
250.5977748302639
 20
146.4001386122999
 42
1.0
 10
250.592398289813
 20
146.425366670983
 42
1.0
 10
250.5869819096133
 20
146.4507816676305
 42
1.0
 10
250.5882174757115
 20
146.4449220818472
 42
1.0
 10
250.5960350249686
 20
146.4083210275113
 42
1.0
 10
250.6040004567223
 20
146.3710276007812
 42
1.0
 10
250.6190409297085
 20
146.3007497023218
 42
1.0
 10
250.6402527671036
 20
146.2040029058612
 42
1.0
 10
250.662035870551
 20
146.1046505755442
 42
1.0
 10
250.6909911081526
 20
145.9745144850625
 42
1.0
 10
250.7251962402378
 20
145.8256979605401
 42
1.0
 10
250.7600804631518
 20
145.6739269104592
 42
1.0
 10
250.801468227076
 20
145.4983578666753
 42
1.0
 10
250.8463472241377
 20
145.314732085144
 42
1.0
 10
250.8911935523569
 20
145.131239970631
 42
1.0
 10
250.9407961390082
 20
144.9345869886781
 42
1.0
 10
250.9913291236815
 20
144.7410570307326
 42
1.0
 97
        0
 92
        0
 93
        1
 72
     4
 94
        3
 73
     1
 74
     0
 95
       20
 96
       16
 40
0.0
 40
0.0
 40
0.0
 40
0.0
 40
0.0003652250813701
 40
0.0003652250813701
 40
0.0003652250813701
 40
0.0011242738851456
 40
0.0011242738851456
 40
0.0011242738851456
 40
0.0017937838224919
 40
0.0017937838224919
 40
0.0017937838224919
 40
0.0025609133254494
 40
0.0025609133254494
 40
0.0025609133254494
 40
0.0033154817616429
 40
0.0033154817616429
 40
0.0033154817616429
 40
0.0033154817616429
 10
260.860606329503
 20
129.1730759642586
 42
1.0
 10
260.9276270767925
 20
129.1268586297252
 42
1.0
 10
260.9911887661036
 20
129.083717315659
 42
1.0
 10
261.0496499543048
 20
129.0445149979346
 42
1.0
 10
261.1699668956269
 20
128.9638340691599
 42
1.0
 10
261.2705520790313
 20
128.8986280935825
 42
1.0
 10
261.3312001227065
 20
128.8596467271587
 42
1.0
 10
261.3846075676922
 20
128.8253192360051
 42
1.0
 10
261.4069847430291
 20
128.8112062915984
 42
1.0
 10
261.3924341474638
 20
128.8204717369981
 42
1.0
 10
261.3758108169185
 20
128.8310570467771
 42
1.0
 10
261.3108542363962
 20
128.8723017367186
 42
1.0
 10
261.2160103400794
 20
128.9343351394006
 42
1.0
 10
261.1220589436116
 20
128.9957847954771
 42
1.0
 10
260.9980689250335
 20
129.078282112796
 42
1.0
 10
260.8606063295031
 20
129.1730759642585
 42
1.0
 97
        0
 92
        0
 93
        1
 72
     4
 94
        3
 73
     1
 74
     0
 95
       62
 96
       58
 40
0.0
 40
0.0
 40
0.0
 40
0.0
 40
0.0003643041459746
 40
0.0003643041459746
 40
0.0003643041459746
 40
0.0009744253048646
 40
0.0009744253048646
 40
0.0009744253048646
 40
0.0015426567021006
 40
0.0015426567021006
 40
0.0015426567021006
 40
0.0020845816438458
 40
0.0020845816438458
 40
0.0020845816438458
 40
0.0026204202216497
 40
0.0026204202216497
 40
0.0026204202216497
 40
0.0031735966317524
 40
0.0031735966317524
 40
0.0031735966317524
 40
0.0037680642076158
 40
0.0037680642076158
 40
0.0037680642076158
 40
0.0044184765269492
 40
0.0044184765269492
 40
0.0044184765269492
 40
0.0051136030965406
 40
0.0051136030965406
 40
0.0051136030965406
 40
0.0058123800360997
 40
0.0058123800360997
 40
0.0058123800360997
 40
0.0064684904683033
 40
0.0064684904683033
 40
0.0064684904683033
 40
0.0070596448519959
 40
0.0070596448519959
 40
0.0070596448519959
 40
0.0075939032596884
 40
0.0075939032596884
 40
0.0075939032596884
 40
0.0081017097581311
 40
0.0081017097581311
 40
0.0081017097581311
 40
0.0086298531398632
 40
0.0086298531398632
 40
0.0086298531398632
 40
0.0092261266335439
 40
0.0092261266335439
 40
0.0092261266335439
 40
0.0098984456269749
 40
0.0098984456269749
 40
0.0098984456269749
 40
0.0105999449026329
 40
0.0105999449026329
 40
0.0105999449026329
 40
0.0112999393023705
 40
0.0112999393023705
 40
0.0112999393023705
 40
0.0112999393023705
 10
253.1111045877669
 20
171.0725060156259
 42
1.0
 10
253.0599716148223
 20
170.9623615234174
 42
1.0
 10
253.0092663969947
 20
170.8514747971946
 42
1.0
 10
252.9601678439019
 20
170.7425209820606
 42
1.0
 10
252.8785867826209
 20
170.5614857517054
 42
1.0
 10
252.7999639506803
 20
170.3823837534769
 42
1.0
 10
252.7296695950709
 20
170.2188271198858
 42
1.0
 10
252.6641694748216
 20
170.0664254216992
 42
1.0
 10
252.6043869760352
 20
169.9240554226104
 42
1.0
 10
252.5544742337698
 20
169.8034453157007
 42
1.0
 10
252.5068727479089
 20
169.6884201730584
 42
1.0
 10
252.4671272758995
 20
169.5905496256808
 42
1.0
 10
252.4381780205716
 20
169.5187474236101
 42
1.0
 10
252.4095700441111
 20
169.4477916880175
 42
1.0
 10
252.3907988439771
 20
169.4006103061992
 42
1.0
 10
252.3833745795281
 20
169.381962818809
 42
1.0
 10
252.3757190852072
 20
169.3627345525213
 42
1.0
 10
252.3799449300354
 20
169.3734168829047
 42
1.0
 10
252.3956806047582
 20
169.412827869742
 42
1.0
 10
252.4125630802355
 20
169.4551110911828
 42
1.0
 10
252.4432460786089
 20
169.5317910807891
 42
1.0
 10
252.4848305187727
 20
169.6338482780847
 42
1.0
 10
252.5302629510363
 20
169.7453492790573
 42
1.0
 10
252.5902293736759
 20
169.8907172142298
 42
1.0
 10
252.6589493372027
 20
170.0530375422832
 42
1.0
 10
252.7323774497941
 20
170.2264787770059
 42
1.0
 10
252.8182377942365
 20
170.4248834113508
 42
1.0
 10
252.9087168117561
 20
170.6277545627478
 42
1.0
 10
252.9997826894208
 20
170.8319415661137
 42
1.0
 10
253.0982971768476
 20
171.0468411306558
 42
1.0
 10
253.1961279482303
 20
171.2541604397503
 42
1.0
 10
253.2881527535848
 20
171.4491759629443
 42
1.0
 10
253.3819851883666
 20
171.6426438923865
 42
1.0
 10
253.4702173376882
 20
171.8203432348163
 42
1.0
 10
253.5498348953878
 20
171.9806928098621
 42
1.0
 10
253.6266966356648
 20
172.1318865195318
 42
1.0
 10
253.6943593093708
 20
172.2628382724873
 42
1.0
 10
253.7555545328519
 20
172.3812731694314
 42
1.0
 10
253.8104925575733
 20
172.4856531817999
 42
1.0
 10
253.8538527337828
 20
172.5672963632621
 42
1.0
 10
253.8950483767454
 20
172.6448639298142
 42
1.0
 10
253.9266195676746
 20
172.7035194671151
 42
1.0
 10
253.9448490475292
 20
172.7373198830336
 42
1.0
 10
253.9637684669877
 20
172.7723995590163
 42
1.0
 10
253.9686549427189
 20
172.7813869130564
 42
1.0
 10
253.9587952625106
 20
172.7631481910488
 42
1.0
 10
253.947700281942
 20
172.7426243746576
 42
1.0
 10
253.9175252269988
 20
172.6868505588778
 42
1.0
 10
253.8732968470707
 20
172.6038473676387
 42
1.0
 10
253.8235012364914
 20
172.5103961809913
 42
1.0
 10
253.7543765739884
 20
172.3794155632874
 42
1.0
 10
253.6763040135784
 20
172.227839606915
 42
1.0
 10
253.5947379869286
 20
172.069481171736
 42
1.0
 10
253.5008095052463
 20
171.8834861637761
 42
1.0
 10
253.4048253109233
 20
171.6878579180155
 42
1.0
 10
253.308947799791
 20
171.4924471064438
 42
1.0
 10
253.208166832698
 20
171.2815858141376
 42
1.0
 10
253.1111045877669
 20
171.0725060156259
 42
1.0
 97
        0
 75
     0
 76
     1
 52
0.0
 41
0.6666666667
 77
     0
 78
     1
 53
45.0
 43
0.0
 44
0.0
 45
-1.496709353511525
 46
1.496709353511525
 79
     0
 98
        1
 10
0.0
 20
0.0
  0
HATCH
  5
3DB
330
1F
100
AcDbEntity
  8
0
  6
Continuous
 62
     7
370
    18
100
AcDbHatch
 10
0.0
 20
0.0
 30
0.0
210
0.0
220
0.0
230
1.0
  2
ANSI31
 70
     0
 71
     0
 91
        1
 92
        0
 93
        6
 72
     3
 10
269.3266694280675
 20
155.095285255537
 11
0.2298795135126236
 21
28.6506854691051
 40
0.6846629592760403
 50
0.3918374897571113
 51
29.15304932278928
 73
     1
 72
     1
 10
257.1148508252709
 20
177.4067801854206
 11
266.360606329503
 21
177.4067815231794
 72
     1
 10
266.360606329503
 20
177.4067815231794
 11
266.360606329503
 21
175.9067800739407
 72
     1
 10
266.360606329503
 20
175.9067800739407
 11
268.860606329503
 21
175.9067800739407
 72
     4
 94
        3
 73
     1
 74
     0
 95
        8
 96
        4
 40
0.082846331894266
 40
0.082846331894266
 40
0.082846331894266
 40
0.082846331894266
 40
0.083548925045698
 40
0.083548925045698
 40
0.083548925045698
 40
0.083548925045698
 10
268.860606329503
 20
175.9067800739407
 42
1.0
 10
269.0272729959884
 20
176.0734467538449
 42
1.0
 10
269.1939396626599
 20
176.2401134335629
 42
1.0
 10
269.360606329503
 20
176.4067801131093
 42
1.0
 72
     1
 10
269.360606329503
 20
176.4067801131093
 11
269.360606329503
 21
183.746113563165
 97
        0
 75
     0
 76
     1
 52
0.0
 41
0.6666666667
 77
     0
 78
     1
 53
45.0
 43
0.0
 44
0.0
 45
-1.496709353511525
 46
1.496709353511525
 79
     0
 98
        1
 10
0.0
 20
0.0
  0
HATCH
  5
3DC
330
1F
100
AcDbEntity
  8
0
  6
Continuous
 62
     7
370
    18
100
AcDbHatch
 10
0.0
 20
0.0
 30
0.0
210
0.0
220
0.0
230
1.0
  2
ANSI31
 70
     0
 71
     0
 91
        1
 92
        0
 93
        2
 72
     4
 94
        3
 73
     1
 74
     0
 95
       65
 96
       61
 40
0.0
 40
0.0
 40
0.0
 40
0.0
 40
0.0000084811641532
 40
0.0000084811641532
 40
0.0000084811641532
 40
0.0000170305286426
 40
0.0000170305286426
 40
0.0000170305286426
 40
0.000026782491759
 40
0.000026782491759
 40
0.000026782491759
 40
0.0000429750502427
 40
0.0000429750502427
 40
0.0000429750502427
 40
0.0000920522532435
 40
0.0000920522532435
 40
0.0000920522532435
 40
0.0003153294947109
 40
0.0003153294947109
 40
0.0003153294947109
 40
0.0011992323151071
 40
0.0011992323151071
 40
0.0011992323151071
 40
0.0047524322824334
 40
0.0047524322824334
 40
0.0047524322824334
 40
0.005447042683146
 40
0.005447042683146
 40
0.005447042683146
 40
0.0068682151877664
 40
0.0068682151877664
 40
0.0068682151877664
 40
0.0070498096876056
 40
0.0070498096876056
 40
0.0070498096876056
 40
0.0071720544222594
 40
0.0071720544222594
 40
0.0071720544222594
 40
0.0072547713890052
 40
0.0072547713890052
 40
0.0072547713890052
 40
0.0073111315795787
 40
0.0073111315795787
 40
0.0073111315795787
 40
0.0073499114654435
 40
0.0073499114654435
 40
0.0073499114654435
 40
0.0073863929868617
 40
0.0073863929868617
 40
0.0073863929868617
 40
0.0074060221947298
 40
0.0074060221947298
 40
0.0074060221947298
 40
0.0074194814348706
 40
0.0074194814348706
 40
0.0074194814348706
 40
0.0074290881122125
 40
0.0074290881122125
 40
0.0074290881122125
 40
0.0074332830074694
 40
0.0074332830074694
 40
0.0074332830074694
 40
0.0074332830074694
 10
249.860606329503
 20
151.3662921533893
 42
1.0
 10
249.860606329503
 20
151.3662921533893
 42
1.0
 10
249.8605722345183
 20
151.3666902975612
 42
1.0
 10
249.8604962147457
 20
151.3675785469196
 42
1.0
 10
249.8604197962098
 20
151.3684714556066
 42
1.0
 10
249.8602980507551
 20
151.3698942937284
 42
1.0
 10
249.8601450427466
 20
151.3716842135662
 42
1.0
 10
249.8599703096469
 20
151.373728278088
 42
1.0
 10
249.8597519065623
 20
151.3762851653951
 42
1.0
 10
249.8595185155341
 20
151.3790211794696
 42
1.0
 10
249.8591319494546
 20
151.3835528456712
 42
1.0
 10
249.8586952904168
 20
151.3886813180487
 42
1.0
 10
249.8582564228008
 20
151.3938481210274
 42
1.0
 10
249.8569371844891
 20
151.409379557366
 42
1.0
 10
249.8555449310385
 20
151.4258812656597
 42
1.0
 10
249.8541967535908
 20
151.4419768484827
 42
1.0
 10
249.8480888620109
 20
151.5148975719174
 42
1.0
 10
249.8422653757707
 20
151.5867536867897
 42
1.0
 10
249.8367060248174
 20
151.6575846782433
 42
1.0
 10
249.8146737780854
 20
151.9382947634845
 42
1.0
 10
249.7959801379875
 20
152.2125117730496
 42
1.0
 10
249.7798875246382
 20
152.4885885163368
 42
1.0
 10
249.7153964273287
 20
153.5949651954785
 42
1.0
 10
249.6938894111449
 20
154.7290364738238
 42
1.0
 10
249.720306881676
 20
155.8784180906488
 42
1.0
 10
249.7254943982723
 20
156.1041185870617
 42
1.0
 10
249.7325242947607
 20
156.330380745791
 42
1.0
 10
249.7414119206016
 20
156.5568953381041
 42
1.0
 10
249.7595944266381
 20
157.020304016165
 42
1.0
 10
249.785628188155
 20
157.4856218647477
 42
1.0
 10
249.8192860032618
 20
157.9480976547535
 42
1.0
 10
249.8235874164154
 20
158.0072012965092
 42
1.0
 10
249.8280116492584
 20
158.0662435208674
 42
1.0
 10
249.8325475698752
 20
158.1250942610089
 42
1.0
 10
249.8356009567594
 20
158.1647100508898
 42
1.0
 10
249.8387062143242
 20
158.2042547363536
 42
1.0
 10
249.8418509571787
 20
158.2435852956496
 42
1.0
 10
249.8439787934389
 20
158.2701976433277
 42
1.0
 10
249.8461261837026
 20
158.2967299539432
 42
1.0
 10
249.8482796279085
 20
158.323026431573
 42
1.0
 10
249.8497468519492
 20
158.3409432292598
 42
1.0
 10
249.8512185511791
 20
158.3587705489201
 42
1.0
 10
249.8526799901264
 20
158.3763380233632
 42
1.0
 10
249.8536855021194
 20
158.3884249506159
 42
1.0
 10
249.8546880286326
 20
158.4004111293639
 42
1.0
 10
249.8556712009506
 20
158.4121069138197
 42
1.0
 10
249.8565945669935
 20
158.4230912448608
 42
1.0
 10
249.8575096702432
 20
158.4339227297779
 42
1.0
 10
249.8583573600305
 20
158.4439146032464
 42
1.0
 10
249.8588137587473
 20
158.4492942578066
 42
1.0
 10
249.8592548226231
 20
158.4544800171586
 42
1.0
 10
249.8596380911244
 20
158.4589781864906
 42
1.0
 10
249.8599005793365
 20
158.4620588373179
 42
1.0
 10
249.8601394483789
 20
158.4648579392932
 42
1.0
 10
249.8603148309826
 20
158.4669116231528
 42
1.0
 10
249.860440119671
 20
158.4683787205273
 42
1.0
 10
249.8605338045053
 20
158.4694748434547
 42
1.0
 10
249.8605773133294
 20
158.4699838733877
 42
1.0
 10
249.8605965243141
 20
158.4702086316169
 42
1.0
 10
249.860606329503
 20
158.4703233306244
 42
1.0
 10
249.860606329503
 20
158.4703233306244
 42
1.0
 72
     4
 94
        3
 73
     1
 74
     0
 95
       11
 96
        7
 40
0.0
 40
0.0
 40
0.0
 40
0.0
 40
0.0021357672953003
 40
0.0021357672953003
 40
0.0021357672953003
 40
0.0073383708076878
 40
0.0073383708076878
 40
0.0073383708076878
 40
0.0073383708076878
 10
249.860606329503
 20
158.4703233306245
 42
1.0
 10
249.8000068605991
 20
157.7614107151656
 42
1.0
 10
249.7575376559369
 20
157.0475673616854
 42
1.0
 10
249.7334442124977
 20
156.3393650055699
 42
1.0
 10
249.6754477401786
 20
154.6346174693201
 42
1.0
 10
249.7266858762556
 20
152.9305027760213
 42
1.0
 10
249.860606329503
 20
151.3662921533893
 42
1.0
 97
        0
 75
     0
 76
     1
 52
0.0
 41
1.0
 77
     0
 78
     1
 53
45.0
 43
0.0
 44
0.0
 45
-2.245064030267288
 46
2.245064030267288
 79
     0
 98
        1
 10
0.0
 20
0.0
  0
HATCH
  5
3DD
330
1F
100
AcDbEntity
  8
0
  6
Continuous
 62
     7
370
    18
100
AcDbHatch
 10
0.0
 20
0.0
 30
0.0
210
0.0
220
0.0
230
1.0
  2
ANSI31
 70
     0
 71
     0
 91
        1
 92
        0
 93
        2
 72
     4
 94
        3
 73
     1
 74
     0
 95
       62
 96
       58
 40
0.0
 40
0.0
 40
0.0
 40
0.0
 40
0.0000109101621354
 40
0.0000109101621354
 40
0.0000109101621354
 40
0.0000248272285875
 40
0.0000248272285875
 40
0.0000248272285875
 40
0.0000520191157874
 40
0.0000520191157874
 40
0.0000520191157874
 40
0.000153755136648
 40
0.000153755136648
 40
0.000153755136648
 40
0.0005586559266826
 40
0.0005586559266826
 40
0.0005586559266826
 40
0.0021805947178489
 40
0.0021805947178489
 40
0.0021805947178489
 40
0.0038759829805366
 40
0.0038759829805366
 40
0.0038759829805366
 40
0.0050490309998831
 40
0.0050490309998831
 40
0.0050490309998831
 40
0.0058516902960787
 40
0.0058516902960787
 40
0.0058516902960787
 40
0.0063957939792584
 40
0.0063957939792584
 40
0.0063957939792584
 40
0.0067614637625023
 40
0.0067614637625023
 40
0.0067614637625023
 40
0.0070053374457522
 40
0.0070053374457522
 40
0.0070053374457522
 40
0.007166947246826
 40
0.007166947246826
 40
0.007166947246826
 40
0.0072735328117602
 40
0.0072735328117602
 40
0.0072735328117602
 40
0.0073436427843476
 40
0.0073436427843476
 40
0.0073436427843476
 40
0.007389784556011
 40
0.007389784556011
 40
0.007389784556011
 40
0.007436405112649
 40
0.007436405112649
 40
0.007436405112649
 40
0.0074519810390225
 40
0.0074519810390225
 40
0.0074519810390225
 40
0.0074605014238712
 40
0.0074605014238712
 40
0.0074605014238712
 40
0.0074605014238712
 10
249.860606329503
 20
158.4703233306244
 42
1.0
 10
249.860606329503
 20
158.4703233306244
 42
1.0
 10
249.8605360488795
 20
158.4695013394949
 42
1.0
 10
249.8604182770091
 20
158.4681227391706
 42
1.0
 10
249.8602677109402
 20
158.4663602603132
 42
1.0
 10
249.8600401442556
 20
158.4636949280629
 42
1.0
 10
249.8597837771858
 20
158.4606875892034
 42
1.0
 10
249.8592842854531
 20
158.4548282528264
 42
1.0
 10
249.8586657933358
 20
158.4475563711635
 42
1.0
 10
249.8580291150743
 20
158.440043365656
 42
1.0
 10
249.8556660835147
 20
158.4121588434483
 42
1.0
 10
249.8529673570592
 20
158.3799389939304
 42
1.0
 10
249.8503401829778
 20
158.3480951279793
 42
1.0
 10
249.8399094579636
 20
158.2216647511412
 42
1.0
 10
249.8295313478123
 20
158.0884955608868
 42
1.0
 10
249.8198933599359
 20
157.9564314748515
 42
1.0
 10
249.7814099266223
 20
157.4291139980903
 42
1.0
 10
249.7525221212741
 20
156.8921928953332
 42
1.0
 10
249.7341570057444
 20
156.3601644615632
 42
1.0
 10
249.7149393328783
 20
155.8034378578504
 42
1.0
 10
249.7069357482274
 20
155.2471530284273
 42
1.0
 10
249.7098413249626
 20
154.6962604207151
 42
1.0
 10
249.7118533359965
 20
154.3147864118667
 42
1.0
 10
249.7190905349941
 20
153.9351190111607
 42
1.0
 10
249.7313014437261
 20
153.5593465881477
 42
1.0
 10
249.7396596039785
 20
153.302136727777
 42
1.0
 10
249.7503561381014
 20
153.0464756916479
 42
1.0
 10
249.7632339266383
 20
152.7935775852703
 42
1.0
 10
249.7719651610188
 20
152.6221108280037
 42
1.0
 10
249.7817059540279
 20
152.4517807151295
 42
1.0
 10
249.7923574016452
 20
152.2834056333211
 42
1.0
 10
249.7995166833332
 20
152.1702337262508
 42
1.0
 10
249.8070924744162
 20
152.0578677390175
 42
1.0
 10
249.815016881953
 20
151.9469336254232
 42
1.0
 10
249.8203022894189
 20
151.8729429845471
 42
1.0
 10
249.8257467535885
 20
151.799536338917
 42
1.0
 10
249.8312981401086
 20
151.7272405204751
 42
1.0
 10
249.8349771268844
 20
151.6793290016082
 42
1.0
 10
249.8387064514702
 20
151.6318631107219
 42
1.0
 10
249.8424419493643
 20
151.585316797814
 42
1.0
 10
249.8449056755214
 20
151.5546174447759
 42
1.0
 10
249.8473752293577
 20
151.5242801042079
 42
1.0
 10
249.8498102571677
 20
151.4947533613108
 42
1.0
 10
249.851411963675
 20
151.4753313341596
 42
1.0
 10
249.8530018876843
 20
151.4562225150333
 42
1.0
 10
249.8545408130032
 20
151.4378716656339
 42
1.0
 10
249.855553549697
 20
151.4257953300776
 42
1.0
 10
249.8565475717998
 20
151.4140075363547
 42
1.0
 10
249.8574825536938
 20
151.4029709139866
 42
1.0
 10
249.8584226860291
 20
151.3918734952802
 42
1.0
 10
249.8593402134825
 20
151.3811036671576
 42
1.0
 10
249.859991455026
 20
151.3734813781492
 42
1.0
 10
249.8602109177363
 20
151.3709127333496
 42
1.0
 10
249.8603993755153
 20
151.3687100069549
 42
1.0
 10
249.8605093849302
 20
151.3674246639268
 42
1.0
 10
249.8605698271396
 20
151.3667184609847
 42
1.0
 10
249.860606329503
 20
151.3662921533894
 42
1.0
 10
249.860606329503
 20
151.3662921533894
 42
1.0
 72
     4
 94
        3
 73
     1
 74
     0
 95
       11
 96
        7
 40
0.0
 40
0.0
 40
0.0
 40
0.0
 40
0.0011599196374569
 40
0.0011599196374569
 40
0.0011599196374569
 40
0.0072934347763842
 40
0.0072934347763842
 40
0.0072934347763842
 40
0.0072934347763842
 10
249.860606329503
 20
151.3662921533893
 42
1.0
 10
249.8294758396242
 20
151.729900861211
 42
1.0
 10
249.8028495466186
 20
152.0977827805825
 42
1.0
 10
249.7810418577228
 20
152.4688661006543
 42
1.0
 10
249.6673070151714
 20
154.4041974043651
 42
1.0
 10
249.6889302235205
 20
156.4619995036137
 42
1.0
 10
249.860606329503
 20
158.4703233306245
 42
1.0
 97
        0
 75
     0
 76
     1
 52
0.0
 41
1.0
 77
     0
 78
     1
 53
45.0
 43
0.0
 44
0.0
 45
-2.245064030267288
 46
2.245064030267288
 79
     0
 98
        1
 10
0.0
 20
0.0
  0
HATCH
  5
3DE
330
1F
100
AcDbEntity
  8
0
  6
Continuous
 62
     7
370
    18
100
AcDbHatch
 10
0.0
 20
0.0
 30
0.0
210
0.0
220
0.0
230
1.0
  2
ANSI31
 70
     0
 71
     0
 91
        1
 92
        0
 93
        2
 72
     4
 94
        3
 73
     1
 74
     0
 95
       11
 96
        7
 40
0.0
 40
0.0
 40
0.0
 40
0.0
 40
0.0051411069212428
 40
0.0051411069212428
 40
0.0051411069212428
 40
0.0072516287009417
 40
0.0072516287009417
 40
0.0072516287009417
 40
0.0072516287009417
 10
249.860606329503
 20
151.3662921533893
 42
1.0
 10
249.7266858762556
 20
152.9305027760213
 42
1.0
 10
249.6754477401786
 20
154.6346174693202
 42
1.0
 10
249.7334442124977
 20
156.3393650055699
 42
1.0
 10
249.7575376559369
 20
157.0475673616854
 42
1.0
 10
249.8000068605991
 20
157.7614107151656
 42
1.0
 10
249.860606329503
 20
158.4703233306245
 42
1.0
 72
     4
 94
        3
 73
     1
 74
     0
 95
       11
 96
        7
 40
0.0
 40
0.0
 40
0.0
 40
0.0
 40
0.006049392852595
 40
0.006049392852595
 40
0.006049392852595
 40
0.0071934039792462
 40
0.0071934039792462
 40
0.0071934039792462
 40
0.0071934039792462
 10
249.860606329503
 20
158.4703233306245
 42
1.0
 10
249.6889302235205
 20
156.4619995036137
 42
1.0
 10
249.6673070151714
 20
154.4041974043651
 42
1.0
 10
249.7810418577228
 20
152.4688661006543
 42
1.0
 10
249.8028495466186
 20
152.0977827805825
 42
1.0
 10
249.8294758396242
 20
151.729900861211
 42
1.0
 10
249.860606329503
 20
151.3662921533893
 42
1.0
 97
        0
 75
     0
 76
     1
 52
0.0
 41
1.0
 77
     0
 78
     1
 53
45.0
 43
0.0
 44
0.0
 45
-2.245064030267288
 46
2.245064030267288
 79
     0
 98
        1
 10
0.0
 20
0.0
  0
HATCH
  5
3DF
330
1F
100
AcDbEntity
  8
0
  6
Continuous
 62
     7
370
    18
100
AcDbHatch
 10
0.0
 20
0.0
 30
0.0
210
0.0
220
0.0
230
1.0
  2
ANSI31
 70
     0
 71
     0
 91
        1
 92
        0
 93
        1
 72
     4
 94
        3
 73
     1
 74
     0
 95
       62
 96
       58
 40
0.0
 40
0.0
 40
0.0
 40
0.0
 40
0.0004578665794607
 40
0.0004578665794607
 40
0.0004578665794607
 40
0.0009169244518199
 40
0.0009169244518199
 40
0.0009169244518199
 40
0.0013628115756311
 40
0.0013628115756311
 40
0.0013628115756311
 40
0.001823438122413
 40
0.001823438122413
 40
0.001823438122413
 40
0.0023279460225521
 40
0.0023279460225521
 40
0.0023279460225521
 40
0.0028884974913259
 40
0.0028884974913259
 40
0.0028884974913259
 40
0.0034930847829694
 40
0.0034930847829694
 40
0.0034930847829694
 40
0.0041057768828005
 40
0.0041057768828005
 40
0.0041057768828005
 40
0.0046868469332365
 40
0.0046868469332365
 40
0.0046868469332365
 40
0.0052183296092556
 40
0.0052183296092556
 40
0.0052183296092556
 40
0.0057082986195677
 40
0.0057082986195677
 40
0.0057082986195677
 40
0.0061774677393161
 40
0.0061774677393161
 40
0.0061774677393161
 40
0.0066478041716761
 40
0.0066478041716761
 40
0.0066478041716761
 40
0.0071384797648422
 40
0.0071384797648422
 40
0.0071384797648422
 40
0.0076644243122967
 40
0.0076644243122967
 40
0.0076644243122967
 40
0.008233185142728
 40
0.008233185142728
 40
0.008233185142728
 40
0.0088381210963816
 40
0.0088381210963816
 40
0.0088381210963816
 40
0.0094504482290955
 40
0.0094504482290955
 40
0.0094504482290955
 40
0.0098790932234181
 40
0.0098790932234181
 40
0.0098790932234181
 40
0.0098790932234181
 10
253.7703890619947
 20
172.4090158019088
 42
1.0
 10
253.8056824595473
 20
172.4764267566201
 42
1.0
 10
253.8317260360514
 20
172.525584785271
 42
1.0
 10
253.8452823163086
 20
172.5511472838442
 42
1.0
 10
253.858861149899
 20
172.5767523102743
 42
1.0
 10
253.8601784046731
 20
172.579220459666
 42
1.0
 10
253.8490490953947
 20
172.5582478594979
 42
1.0
 10
253.8382227992909
 20
172.5378462717795
 42
1.0
 10
253.8154325323129
 20
172.4948844058343
 42
1.0
 10
253.7834384439726
 20
172.4339123400018
 42
1.0
 10
253.7503624385209
 20
172.3708784332242
 42
1.0
 10
253.7067582186251
 20
172.2872301960752
 42
1.0
 10
253.6569630263775
 20
172.1902258944816
 42
1.0
 10
253.6024502568258
 20
172.0840314427763
 42
1.0
 10
253.5392851873395
 20
171.9593806953694
 42
1.0
 10
253.4728501148977
 20
171.8256443783105
 42
1.0
 10
253.399132096774
 20
171.6772472157517
 42
1.0
 10
253.3195768000007
 20
171.5139700757271
 42
1.0
 10
253.2404425921941
 20
171.347676070747
 42
1.0
 10
253.1552425934094
 20
171.1686353067728
 42
1.0
 10
253.06821600609
 20
170.9811887853392
 42
1.0
 10
252.9863909050397
 20
170.8005599796836
 42
1.0
 10
252.9035912960617
 20
170.6177799490271
 42
1.0
 10
252.8236565645164
 20
170.4365456076881
 42
1.0
 10
252.7537558001043
 20
170.2747274409033
 42
1.0
 10
252.6874774055396
 20
170.1212949513433
 42
1.0
 10
252.6281671776308
 20
169.9806522574647
 42
1.0
 10
252.5816482774294
 20
169.8689130809005
 42
1.0
 10
252.5390476275965
 20
169.7665856072753
 42
1.0
 10
252.5058671757372
 20
169.6854702454242
 42
1.0
 10
252.4854007308519
 20
169.6352476119274
 42
1.0
 10
252.4665001607764
 20
169.5888674804926
 42
1.0
 10
252.4578724428036
 20
169.5674874886976
 42
1.0
 10
252.460324201943
 20
169.5735380130236
 42
1.0
 10
252.46267509903
 20
169.5793396269685
 42
1.0
 10
252.4752485781628
 20
169.6104367061011
 42
1.0
 10
252.4969727224763
 20
169.6636072498933
 42
1.0
 10
252.5187666630367
 20
169.7169486222504
 42
1.0
 10
252.5503091156458
 20
169.7937743522884
 42
1.0
 10
252.5891557342507
 20
169.8869312972454
 42
1.0
 10
252.6296867984656
 20
169.9841276621728
 42
1.0
 10
252.6791648383647
 20
170.1014289326295
 42
1.0
 10
252.7340469817531
 20
170.2290074531473
 42
1.0
 10
252.7928492584393
 20
170.3656986791006
 42
1.0
 10
252.8593047368534
 20
170.5175039573459
 42
1.0
 10
252.9288320021293
 20
170.6727650529303
 42
1.0
 10
253.0039495504014
 20
170.8405097901364
 42
1.0
 10
253.0845698468063
 20
171.0165328158355
 42
1.0
 10
253.1648748918335
 20
171.1877320880569
 42
1.0
 10
253.2501642175592
 20
171.3695571587927
 42
1.0
 10
253.3374477140138
 20
171.5509320527766
 42
1.0
 10
253.4191754703609
 20
171.7170670241172
 42
1.0
 10
253.5017601362298
 20
171.884943908429
 42
1.0
 10
253.5811656030836
 20
172.0423505357498
 42
1.0
 10
253.6480798470505
 20
172.1729073770405
 42
1.0
 10
253.695265299029
 20
172.2649712366909
 42
1.0
 10
253.7372158042742
 20
172.3456543482409
 42
1.0
 10
253.7703890619947
 20
172.4090158019088
 42
1.0
 97
        0
 75
     0
 76
     1
 52
0.0
 41
1.0
 77
     0
 78
     1
 53
45.0
 43
0.0
 44
0.0
 45
-2.245064030267288
 46
2.245064030267288
 79
     0
 98
        1
 10
0.0
 20
0.0
  0
HATCH
  5
3E0
330
1F
100
AcDbEntity
  8
0
  6
Continuous
 62
     7
370
    18
100
AcDbHatch
 10
0.0
 20
0.0
 30
0.0
210
0.0
220
0.0
230
1.0
  2
ANSI31
 70
     0
 71
     0
 91
        1
 92
        0
 93
        1
 72
     4
 94
        3
 73
     1
 74
     0
 95
       65
 96
       61
 40
0.0
 40
0.0
 40
0.0
 40
0.0
 40
0.000759839053566
 40
0.000759839053566
 40
0.000759839053566
 40
0.0015785381685771
 40
0.0015785381685771
 40
0.0015785381685771
 40
0.002519387837818
 40
0.002519387837818
 40
0.002519387837818
 40
0.003032217184704
 40
0.003032217184704
 40
0.003032217184704
 40
0.0034370650930247
 40
0.0034370650930247
 40
0.0034370650930247
 40
0.0037789215977266
 40
0.0037789215977266
 40
0.0037789215977266
 40
0.0041211614934403
 40
0.0041211614934403
 40
0.0041211614934403
 40
0.0044621047325567
 40
0.0044621047325567
 40
0.0044621047325567
 40
0.0050001355444264
 40
0.0050001355444264
 40
0.0050001355444264
 40
0.0057703804948091
 40
0.0057703804948091
 40
0.0057703804948091
 40
0.0065635399901433
 40
0.0065635399901433
 40
0.0065635399901433
 40
0.0075041817592658
 40
0.0075041817592658
 40
0.0075041817592658
 40
0.0081321099652451
 40
0.0081321099652451
 40
0.0081321099652451
 40
0.0086365324019137
 40
0.0086365324019137
 40
0.0086365324019137
 40
0.0090646625502301
 40
0.0090646625502301
 40
0.0090646625502301
 40
0.0094949349452141
 40
0.0094949349452141
 40
0.0094949349452141
 40
0.0098930387354801
 40
0.0098930387354801
 40
0.0098930387354801
 40
0.0103045216872358
 40
0.0103045216872358
 40
0.0103045216872358
 40
0.0107730693566848
 40
0.0107730693566848
 40
0.0107730693566848
 40
0.0111434289103579
 40
0.0111434289103579
 40
0.0111434289103579
 40
0.0111434289103579
 10
256.9544925550517
 20
132.7485780713261
 42
1.0
 10
257.1073003247188
 20
132.5686027282995
 42
1.0
 10
257.2747622758441
 20
132.3772520233008
 42
1.0
 10
257.4446026474744
 20
132.1899826869887
 42
1.0
 10
257.6276492629061
 20
131.9881518863552
 42
1.0
 10
257.8181174294602
 20
131.7858882625003
 42
1.0
 10
258.0037773997481
 20
131.5959260072844
 42
1.0
 10
258.2159380461432
 20
131.3788489777299
 42
1.0
 10
258.4295125371262
 20
131.1702874385273
 42
1.0
 10
258.6153243714446
 20
130.9951130890229
 42
1.0
 10
258.7176567551626
 20
130.8986391006098
 42
1.0
 10
258.8135090116522
 20
130.8103651132911
 42
1.0
 10
258.8917401883236
 20
130.7393065650618
 42
1.0
 10
258.9535206854616
 20
130.68319041518
 42
1.0
 10
259.0053461703932
 20
130.6368362798652
 42
1.0
 10
259.0389324770375
 20
130.606930472793
 42
1.0
 10
259.0673185741001
 20
130.5816550189816
 42
1.0
 10
259.0830330121371
 20
130.5677797060698
 42
1.0
 10
259.0832425093911
 20
130.5675942830241
 42
1.0
 10
259.0834522290355
 20
130.5674086631439
 42
1.0
 10
259.0681237455522
 20
130.5809418864334
 42
1.0
 10
259.0400342865934
 20
130.6059494764072
 42
1.0
 10
259.0119670185791
 20
130.6309373101428
 42
1.0
 10
258.9708772968215
 20
130.6676611049276
 42
1.0
 10
258.9218098174606
 20
130.7120492379617
 42
1.0
 10
258.8448159009438
 20
130.781700588585
 42
1.0
 10
258.7465716823765
 20
130.8717613116532
 42
1.0
 10
258.6408081059189
 20
130.9711293348073
 42
1.0
 10
258.4898634437293
 20
131.1129463306938
 42
1.0
 10
258.3189312729177
 20
131.2781799088026
 42
1.0
 10
258.1462411985683
 20
131.4515396116175
 42
1.0
 10
257.9681225965718
 20
131.6303488919092
 42
1.0
 10
257.7832752255627
 20
131.8225744436755
 42
1.0
 10
257.6032867284138
 20
132.016860815898
 42
1.0
 10
257.3911062845343
 20
132.2458963895645
 42
1.0
 10
257.1788988233396
 20
132.4853862948528
 42
1.0
 10
256.9882010277955
 20
132.7089669297621
 42
1.0
 10
256.8600154153126
 20
132.8592561375811
 42
1.0
 10
256.7384517966239
 20
133.0058833925156
 42
1.0
 10
256.6342652547861
 20
133.1340490897996
 42
1.0
 10
256.5504478603412
 20
133.2371575586484
 42
1.0
 10
256.4760425749993
 20
133.3305252361073
 42
1.0
 10
256.418901993851
 20
133.4029225605188
 42
1.0
 10
256.3703475076393
 20
133.4644412713764
 42
1.0
 10
256.3332271516709
 20
133.5120758096786
 42
1.0
 10
256.3119439908701
 20
133.5394423363454
 42
1.0
 10
256.2905941569295
 20
133.5668945933355
 42
1.0
 10
256.2847636094199
 20
133.5744475496339
 42
1.0
 10
256.2952945044813
 20
133.5608754021246
 42
1.0
 10
256.3050682271603
 20
133.5482790933453
 42
1.0
 10
256.3290434942402
 20
133.5173705485226
 42
1.0
 10
256.3644674972074
 20
133.4721503960703
 42
1.0
 10
256.4011312017176
 20
133.4253477151605
 42
1.0
 10
256.4507640734131
 20
133.3623504624763
 42
1.0
 10
256.5089081764875
 20
133.2895868439367
 42
1.0
 10
256.5751119641296
 20
133.206737046706
 42
1.0
 10
256.6536617559049
 20
133.1096185905378
 42
1.0
 10
256.7388330423908
 20
133.0063271452833
 42
1.0
 10
256.8064634235689
 20
132.9243084262617
 42
1.0
 10
256.8790614881792
 20
132.8374199683368
 42
1.0
 10
256.9544925550517
 20
132.7485780713261
 42
1.0
 97
        0
 75
     0
 76
     1
 52
0.0
 41
1.0
 77
     0
 78
     1
 53
45.0
 43
0.0
 44
0.0
 45
-2.245064030267288
 46
2.245064030267288
 79
     0
 98
        1
 10
0.0
 20
0.0
  0
HATCH
  5
3E1
330
1F
100
AcDbEntity
  8
0
  6
Continuous
 62
     7
370
    18
100
AcDbHatch
 10
0.0
 20
0.0
 30
0.0
210
0.0
220
0.0
230
1.0
  2
ANSI31
 70
     0
 71
     0
 91
        1
 92
        0
 93
        1
 72
     4
 94
        3
 73
     1
 74
     0
 95
       62
 96
       58
 40
0.0
 40
0.0
 40
0.0
 40
0.0
 40
0.0005068751106116
 40
0.0005068751106116
 40
0.0005068751106116
 40
0.0010131217469903
 40
0.0010131217469903
 40
0.0010131217469903
 40
0.0015289603520005
 40
0.0015289603520005
 40
0.0015289603520005
 40
0.0020586102590495
 40
0.0020586102590495
 40
0.0020586102590495
 40
0.0025969749366319
 40
0.0025969749366319
 40
0.0025969749366319
 40
0.0031322509977165
 40
0.0031322509977165
 40
0.0031322509977165
 40
0.0036508480157029
 40
0.0036508480157029
 40
0.0036508480157029
 40
0.004147460586319
 40
0.004147460586319
 40
0.004147460586319
 40
0.0046302196601373
 40
0.0046302196601373
 40
0.0046302196601373
 40
0.0051148161492528
 40
0.0051148161492528
 40
0.0051148161492528
 40
0.0056148750674489
 40
0.0056148750674489
 40
0.0056148750674489
 40
0.0061354700588648
 40
0.0061354700588648
 40
0.0061354700588648
 40
0.0066711010529475
 40
0.0066711010529475
 40
0.0066711010529475
 40
0.0072092154461656
 40
0.0072092154461656
 40
0.0072092154461656
 40
0.0077379792350909
 40
0.0077379792350909
 40
0.0077379792350909
 40
0.0082522026713286
 40
0.0082522026713286
 40
0.0082522026713286
 40
0.0087534667569911
 40
0.0087534667569911
 40
0.0087534667569911
 40
0.0092470176782037
 40
0.0092470176782037
 40
0.0092470176782037
 40
0.0095369669530276
 40
0.0095369669530276
 40
0.0095369669530276
 40
0.0095369669530276
 10
250.6681966978107
 20
146.077566817015
 42
1.0
 10
250.6851981270263
 20
146.0012506463522
 42
1.0
 10
250.7083888399516
 20
145.8982544880548
 42
1.0
 10
250.7362332331137
 20
145.777819980952
 42
1.0
 10
250.7640573283921
 20
145.6574732676679
 42
1.0
 10
250.7972959176576
 20
145.5165030956713
 42
1.0
 10
250.8336942242745
 20
145.3666614350821
 42
1.0
 10
250.8707808899989
 20
145.213985992338
 42
1.0
 10
250.9121494863291
 20
145.0480530440933
 42
1.0
 10
250.9547858034029
 20
144.8821309008304
 42
1.0
 10
250.9985447876654
 20
144.7118398214375
 42
1.0
 10
251.0448284338796
 20
144.5369580989328
 42
1.0
 10
251.089849161232
 20
144.3714990389014
 42
1.0
 10
251.1355840260286
 20
144.2034153986558
 42
1.0
 10
251.1812828361242
 20
144.0403650858472
 42
1.0
 10
251.2225999639148
 20
143.8961517685643
 42
1.0
 10
251.2636608463901
 20
143.7528328500198
 42
1.0
 10
251.301541851806
 20
143.6240220861091
 42
1.0
 10
251.332031255197
 20
143.5217361440371
 42
1.0
 10
251.3615731244207
 20
143.4226289924358
 42
1.0
 10
251.3849811462929
 20
143.3456112037386
 42
1.0
 10
251.3993675951688
 20
143.2984564563452
 42
1.0
 10
251.4131547419041
 20
143.2532660534048
 42
1.0
 10
251.4190225580132
 20
143.2342423524103
 42
1.0
 10
251.4162400289469
 20
143.2433108698267
 42
1.0
 10
251.4135326225685
 20
143.2521345555141
 42
1.0
 10
251.4025864668841
 20
143.2877319128264
 42
1.0
 10
251.3846728055388
 20
143.3467424134389
 42
1.0
 10
251.3666822351897
 20
143.4060062647609
 42
1.0
 10
251.3412366325802
 20
143.4903595716573
 42
1.0
 10
251.3109983931712
 20
143.5925595968568
 42
1.0
 10
251.279799043477
 20
143.6980080087769
 42
1.0
 10
251.2427229153072
 20
143.8251569286338
 42
1.0
 10
251.2032774178
 20
143.963839961196
 42
1.0
 10
251.1622355434338
 20
144.1081355578762
 42
1.0
 10
251.1175618594158
 20
144.2687465812346
 42
1.0
 10
251.0731645086562
 20
144.433026341594
 42
1.0
 10
251.0275174321833
 20
144.6019303562658
 42
1.0
 10
250.980918659337
 20
144.7793622733086
 42
1.0
 10
250.9372222246217
 20
144.9507489491613
 42
1.0
 10
250.8933443614113
 20
145.122847226015
 42
1.0
 10
250.8511494037609
 20
145.293706433439
 42
1.0
 10
250.8139482510759
 20
145.448344058931
 42
1.0
 10
250.7773947891955
 20
145.6002893654798
 42
1.0
 10
250.7445996358992
 20
145.7408908026113
 42
1.0
 10
250.7179674545865
 20
145.8572091993597
 42
1.0
 10
250.6920590310166
 20
145.9703665204427
 42
1.0
 10
250.6712204521028
 20
146.0637421414232
 42
1.0
 10
250.6568625693181
 20
146.1286068471713
 42
1.0
 10
250.6428601001974
 20
146.1918658981664
 42
1.0
 10
250.6346085368993
 20
146.2297830765624
 42
1.0
 10
250.6326298018842
 20
146.2388481014088
 42
1.0
 10
250.6306807262265
 20
146.2477772501472
 42
1.0
 10
250.6347577464714
 20
146.2289776402258
 42
1.0
 10
250.6446113330973
 20
146.1841485798997
 42
1.0
 10
250.650454708347
 20
146.1575640445909
 42
1.0
 10
250.6583743494843
 20
146.1216574638473
 42
1.0
 10
250.6681966978107
 20
146.077566817015
 42
1.0
 97
        0
 75
     0
 76
     1
 52
0.0
 41
1.0
 77
     0
 78
     1
 53
45.0
 43
0.0
 44
0.0
 45
-2.245064030267288
 46
2.245064030267288
 79
     0
 98
        1
 10
0.0
 20
0.0
  0
LINE
  5
3E2
330
1F
100
AcDbEntity
  8
0
  6
Continuous
 62
     7
370
    18
100
AcDbLine
 10
260.9165703667
 20
180.9030062381
 30
0.0
 11
260.9303694746
 21
180.9030062381
 31
0.0
  0
LINE
  5
3E3
330
1F
100
AcDbEntity
  8
0
  6
Continuous
 62
     7
370
    18
100
AcDbLine
 10
258.2396063295
 20
158.4067815232
 30
0.0
 11
258.2396063295
 21
157.4067815232
 31
0.0
  0
LINE
  5
3E4
330
1F
100
AcDbEntity
  8
0
  6
Continuous
 62
     7
370
    18
100
AcDbLine
 10
261.4816063295
 20
157.4067815232
 30
0.0
 11
261.4816063295
 21
158.4067815232
 31
0.0
  0
LINE
  5
3E5
330
1F
100
AcDbEntity
  8
0
  6
Continuous
 62
     7
370
    18
100
AcDbLine
 10
252.5708754719
 20
169.8430060156
 30
0.0
 11
252.5767296429
 21
169.8430060156
 31
0.0
  0
LINE
  5
3E6
330
1F
100
AcDbEntity
  8
0
  6
Continuous
 62
     7
370
    18
100
AcDbLine
 10
250.6959062951
 20
145.9705570307
 30
0.0
 11
250.6921961469
 21
145.9705570307
 31
0.0
  0
LINE
  5
3E7
330
1F
100
AcDbEntity
  8
0
  6
Continuous
 62
     7
370
    18
100
AcDbLine
 10
164.7936190314
 20
160.4067815232
 30
0.0
 11
175.8606063295
 21
160.4067815232
 31
0.0
  0
LINE
  5
3E8
330
1F
100
AcDbEntity
  8
0
  6
Continuous
 62
     7
370
    18
100
AcDbLine
 10
175.8606063295
 20
155.4067815232
 30
0.0
 11
164.7936190314
 21
155.4067815232
 31
0.0
  0
LINE
  5
3E9
330
1F
100
AcDbEntity
  8
0
  6
Continuous
 62
     7
370
    25
100
AcDbLine
 10
175.8606063295
 20
155.8067815232
 30
0.0
 11
175.8606063295
 21
155.4067815232
 31
0.0
  0
LINE
  5
3EA
330
1F
100
AcDbEntity
  8
0
  6
Continuous
 62
     7
370
    25
100
AcDbLine
 10
175.8606063295
 20
160.4067815232
 30
0.0
 11
175.8606063295
 21
160.0067815232
 31
0.0
  0
LWPOLYLINE
  5
3EB
330
1F
100
AcDbEntity
  8
0
  6
Continuous
 62
     7
370
     0
100
AcDbPolyline
 90
       13
 70
   128
 43
0.0
 10
175.8605241776
 20
155.8067815232
 10
175.8606063295
 20
155.878337288
 10
175.8606063295
 20
156.0881281752
 10
175.8606063295
 20
156.4218572827
 10
175.8606063295
 20
156.8567815232
 10
175.8606063295
 20
157.3632615285
 10
175.8606063295
 20
157.9067815232
 10
175.8606063295
 20
158.4503015179
 10
175.8606063295
 20
158.9567815232
 10
175.8606063295
 20
159.3917057637
 10
175.8606063295
 20
159.7254348711
 10
175.8606063295
 20
159.9352257584
 10
175.8606063295
 20
160.0067815232
  0
LINE
  5
3EC
330
1F
100
AcDbEntity
  8
0
  6
Continuous
 62
     7
370
    18
100
AcDbLine
 10
260.9165703667
 20
180.9030062381
 30
0.0
 11
260.9303694746
 21
180.9030062381
 31
0.0
  0
LINE
  5
3ED
330
1F
100
AcDbEntity
  8
0
  6
Continuous
 62
     7
370
    18
100
AcDbLine
 10
258.2396063295
 20
158.4067815232
 30
0.0
 11
258.2396063295
 21
157.4067815232
 31
0.0
  0
LINE
  5
3EE
330
1F
100
AcDbEntity
  8
0
  6
Continuous
 62
     7
370
    18
100
AcDbLine
 10
261.4816063295
 20
157.4067815232
 30
0.0
 11
261.4816063295
 21
158.4067815232
 31
0.0
  0
LINE
  5
3EF
330
1F
100
AcDbEntity
  8
0
  6
Continuous
 62
     7
370
    18
100
AcDbLine
 10
252.5708754719
 20
169.8430060156
 30
0.0
 11
252.5767296429
 21
169.8430060156
 31
0.0
  0
LINE
  5
3F0
330
1F
100
AcDbEntity
  8
0
  6
Continuous
 62
     7
370
    18
100
AcDbLine
 10
250.6959062951
 20
145.9705570307
 30
0.0
 11
250.6921961469
 21
145.9705570307
 31
0.0
  0
LINE
  5
3F1
330
1F
100
AcDbEntity
  8
0
  6
CENTERX2
 62
     7
370
    18
100
AcDbLine
 10
259.8606063295
 20
184.0092944613
 30
0.0
 11
259.8606063295
 21
191.6179481819
 31
0.0
  0
LINE
  5
3F2
330
1F
100
AcDbEntity
  8
0
  6
CENTERX2
 62
     7
370
    18
100
AcDbLine
 10
274.788762953
 20
157.9067815232
 30
0.0
 11
156.0069051201
 21
157.9067815232
 31
0.0
  0
LINE
  5
3F3
330
1F
100
AcDbEntity
  8
0
  6
CENTERX2
 62
     7
370
    18
100
AcDbLine
 10
208.5031160486
 20
133.1580441817
 30
0.0
 11
195.6607276918
 21
133.1580441817
 31
0.0
  0
LINE
  5
3F4
330
1F
100
AcDbEntity
  8
0
  6
CENTERX2
 62
     7
370
    18
100
AcDbLine
 10
207.6971342596
 20
182.6555188647
 30
0.0
 11
195.9813858504
 21
182.6555188647
 31
0.0
  0
LINE
  5
3F5
330
1F
100
AcDbEntity
  8
0
  6
CENTERX2
 62
     7
370
    18
100
AcDbLine
 10
259.8606063295
 20
143.1963598672
 30
0.0
 11
259.8606063295
 21
173.7067815232
 31
0.0
  0
ENDSEC
  0
SECTION
  2
OBJECTS
  0
DICTIONARY
  5
C
330
0
100
AcDbDictionary
281
     1
  3
ACAD_GROUP
350
D
  3
ACAD_LAYOUT
350
1A
  3
ACAD_MLINESTYLE
350
17
  3
ACAD_PLOTSETTINGS
350
19
  3
ACAD_PLOTSTYLENAME
350
E
  3
ACAD_SCALELIST
350
47
  3
DWGPROPS
350
3F6
  0
DICTIONARY
  5
D
102
{ACAD_REACTORS
330
C
102
}
330
C
100
AcDbDictionary
281
     1
  0
DICTIONARY
  5
1A
102
{ACAD_REACTORS
330
C
102
}
330
C
100
AcDbDictionary
281
     1
  3
Layout1
350
1E
  3
Layout2
350
26
  3
Model
350
22
  0
DICTIONARY
  5
17
102
{ACAD_REACTORS
330
C
102
}
330
C
100
AcDbDictionary
281
     1
  3
Standard
350
18
  0
DICTIONARY
  5
19
102
{ACAD_REACTORS
330
C
102
}
330
C
100
AcDbDictionary
281
     1
  0
ACDBDICTIONARYWDFLT
  5
E
102
{ACAD_REACTORS
330
C
102
}
330
C
100
AcDbDictionary
281
     1
  3
Normal
350
F
100
AcDbDictionaryWithDefault
340
F
  0
DICTIONARY
  5
47
102
{ACAD_REACTORS
330
C
102
}
330
C
100
AcDbDictionary
281
     1
  3
A0
350
48
  3
A1
350
49
  3
A2
350
4A
  3
A3
350
4B
  3
A4
350
4C
  3
A5
350
4D
  3
A6
350
4E
  3
A7
350
4F
  3
A8
350
50
  3
A9
350
51
  3
B0
350
52
  3
B1
350
53
  3
B2
350
54
  3
B3
350
55
  3
B4
350
56
  3
B5
350
57
  3
B6
350
58
  3
B7
350
59
  3
B8
350
5A
  3
B9
350
5B
  3
C0
350
5C
  3
C1
350
5D
  3
C2
350
5E
  3
C3
350
5F
  3
C4
350
60
  3
C5
350
61
  3
C6
350
62
  3
C7
350
63
  3
C8
350
64
  3
C9
350
65
  3
D0
350
66
  3
D1
350
67
  3
D2
350
68
  0
XRECORD
  5
3F6
102
{ACAD_REACTORS
330
C
102
}
330
C
100
AcDbXrecord
280
     1
  1
DWGPROPS COOKIE
  2

  3

  4

  6

  7

  8
HD1809
  9

300
=
301
=
302
=
303
=
304
=
305
=
306
=
307
=
308
=
309
=
 40
0.0
 41
2460041.011631979
 42
2460041.011634583
  1

 90
        0
  0
LAYOUT
  5
1E
102
{ACAD_REACTORS
330
1A
102
}
330
1A
100
AcDbPlotSettings
  1

  2
none_device
  4

  6

 40
0.0
 41
0.0
 42
0.0
 43
0.0
 44
0.0
 45
0.0
 46
0.0
 47
0.0
 48
0.0
 49
0.0
140
0.0
141
0.0
142
1.0
143
1.0
 70
   688
 72
     1
 73
     0
 74
     5
  7

 75
    16
147
1.0
148
0.0
149
0.0
100
AcDbLayout
  1
Layout1
 70
     1
 71
     1
 10
0.0
 20
0.0
 11
420.0
 21
297.0
 12
0.0
 22
0.0
 32
0.0
 14
1.0000000000E+20
 24
1.0000000000E+20
 34
1.0000000000E+20
 15
-1.0000000000E+20
 25
-1.0000000000E+20
 35
-1.0000000000E+20
146
0.0
 13
0.0
 23
0.0
 33
0.0
 16
1.0
 26
0.0
 36
0.0
 17
0.0
 27
1.0
 37
0.0
 76
     0
330
1B
  0
LAYOUT
  5
26
102
{ACAD_REACTORS
330
1A
102
}
330
1A
100
AcDbPlotSettings
  1

  2
none_device
  4

  6

 40
0.0
 41
0.0
 42
0.0
 43
0.0
 44
0.0
 45
0.0
 46
0.0
 47
0.0
 48
0.0
 49
0.0
140
0.0
141
0.0
142
1.0
143
1.0
 70
   688
 72
     1
 73
     0
 74
     5
  7

 75
    16
147
1.0
148
0.0
149
0.0
100
AcDbLayout
  1
Layout2
 70
     1
 71
     2
 10
0.0
 20
0.0
 11
0.0
 21
0.0
 12
0.0
 22
0.0
 32
0.0
 14
0.0
 24
0.0
 34
0.0
 15
0.0
 25
0.0
 35
0.0
146
0.0
 13
0.0
 23
0.0
 33
0.0
 16
1.0
 26
0.0
 36
0.0
 17
0.0
 27
1.0
 37
0.0
 76
     0
330
23
  0
LAYOUT
  5
22
102
{ACAD_REACTORS
330
1A
102
}
330
1A
100
AcDbPlotSettings
  1

  2
none_device
  4
Letter_(8.50_x_11.00_Inches)
  6

 40
6.35
 41
6.35
 42
6.35000508
 43
6.35000508
 44
215.9
 45
279.4
 46
0.0
 47
0.0
 48
0.0
 49
0.0
140
0.0
141
0.0
142
1.0
143
1.0
 70
  1712
 72
     1
 73
     0
 74
     0
  7

 75
     0
147
1.0
148
0.0
149
0.0
100
AcDbLayout
  1
Model
 70
     1
 71
     0
 10
0.0
 20
0.0
 11
420.0
 21
297.0
 12
0.0
 22
0.0
 32
0.0
 14
0.0
 24
0.0
 34
0.0
 15
420.0
 25
297.0
 35
0.0
146
0.0
 13
0.0
 23
0.0
 33
0.0
 16
1.0
 26
0.0
 36
0.0
 17
0.0
 27
1.0
 37
0.0
 76
     0
330
1F
331
29
  0
MLINESTYLE
  5
18
102
{ACAD_REACTORS
330
17
102
}
330
17
100
AcDbMlineStyle
  2
Standard
 70
     0
  3

 62
   256
 51
90.0
 52
90.0
 71
     2
 49
0.5
 62
   256
  6
BYLAYER
 49
-0.5
 62
   256
  6
BYLAYER
  0
ACDBPLACEHOLDER
  5
F
102
{ACAD_REACTORS
330
E
102
}
330
E
  0
SCALE
  5
48
102
{ACAD_REACTORS
330
47
102
}
330
47
100
AcDbScale
 70
     0
300
1:1
140
1.0
141
1.0
290
     1
  0
SCALE
  5
49
102
{ACAD_REACTORS
330
47
102
}
330
47
100
AcDbScale
 70
     0
300
1:2
140
1.0
141
2.0
290
     0
  0
SCALE
  5
4A
102
{ACAD_REACTORS
330
47
102
}
330
47
100
AcDbScale
 70
     0
300
1:4
140
1.0
141
4.0
290
     0
  0
SCALE
  5
4B
102
{ACAD_REACTORS
330
47
102
}
330
47
100
AcDbScale
 70
     0
300
1:5
140
1.0
141
5.0
290
     0
  0
SCALE
  5
4C
102
{ACAD_REACTORS
330
47
102
}
330
47
100
AcDbScale
 70
     0
300
1:8
140
1.0
141
8.0
290
     0
  0
SCALE
  5
4D
102
{ACAD_REACTORS
330
47
102
}
330
47
100
AcDbScale
 70
     0
300
1:10
140
1.0
141
10.0
290
     0
  0
SCALE
  5
4E
102
{ACAD_REACTORS
330
47
102
}
330
47
100
AcDbScale
 70
     0
300
1:16
140
1.0
141
16.0
290
     0
  0
SCALE
  5
4F
102
{ACAD_REACTORS
330
47
102
}
330
47
100
AcDbScale
 70
     0
300
1:20
140
1.0
141
20.0
290
     0
  0
SCALE
  5
50
102
{ACAD_REACTORS
330
47
102
}
330
47
100
AcDbScale
 70
     0
300
1:30
140
1.0
141
30.0
290
     0
  0
SCALE
  5
51
102
{ACAD_REACTORS
330
47
102
}
330
47
100
AcDbScale
 70
     0
300
1:40
140
1.0
141
40.0
290
     0
  0
SCALE
  5
52
102
{ACAD_REACTORS
330
47
102
}
330
47
100
AcDbScale
 70
     0
300
1:50
140
1.0
141
50.0
290
     0
  0
SCALE
  5
53
102
{ACAD_REACTORS
330
47
102
}
330
47
100
AcDbScale
 70
     0
300
1:100
140
1.0
141
100.0
290
     0
  0
SCALE
  5
54
102
{ACAD_REACTORS
330
47
102
}
330
47
100
AcDbScale
 70
     0
300
2:1
140
2.0
141
1.0
290
     0
  0
SCALE
  5
55
102
{ACAD_REACTORS
330
47
102
}
330
47
100
AcDbScale
 70
     0
300
4:1
140
4.0
141
1.0
290
     0
  0
SCALE
  5
56
102
{ACAD_REACTORS
330
47
102
}
330
47
100
AcDbScale
 70
     0
300
8:1
140
8.0
141
1.0
290
     0
  0
SCALE
  5
57
102
{ACAD_REACTORS
330
47
102
}
330
47
100
AcDbScale
 70
     0
300
10:1
140
10.0
141
1.0
290
     0
  0
SCALE
  5
58
102
{ACAD_REACTORS
330
47
102
}
330
47
100
AcDbScale
 70
     0
300
100:1
140
100.0
141
1.0
290
     0
  0
SCALE
  5
59
102
{ACAD_REACTORS
330
47
102
}
330
47
100
AcDbScale
 70
     0
300
1/128" = 1'-0"
140
0.0078125
141
12.0
290
     0
  0
SCALE
  5
5A
102
{ACAD_REACTORS
330
47
102
}
330
47
100
AcDbScale
 70
     0
300
1/64" = 1'-0"
140
0.015625
141
12.0
290
     0
  0
SCALE
  5
5B
102
{ACAD_REACTORS
330
47
102
}
330
47
100
AcDbScale
 70
     0
300
1/32" = 1'-0"
140
0.03125
141
12.0
290
     0
  0
SCALE
  5
5C
102
{ACAD_REACTORS
330
47
102
}
330
47
100
AcDbScale
 70
     0
300
1/16" = 1'-0"
140
0.0625
141
12.0
290
     0
  0
SCALE
  5
5D
102
{ACAD_REACTORS
330
47
102
}
330
47
100
AcDbScale
 70
     0
300
3/32" = 1'-0"
140
0.09375
141
12.0
290
     0
  0
SCALE
  5
5E
102
{ACAD_REACTORS
330
47
102
}
330
47
100
AcDbScale
 70
     0
300
1/8" = 1'-0"
140
0.125
141
12.0
290
     0
  0
SCALE
  5
5F
102
{ACAD_REACTORS
330
47
102
}
330
47
100
AcDbScale
 70
     0
300
3/16" = 1'-0"
140
0.1875
141
12.0
290
     0
  0
SCALE
  5
60
102
{ACAD_REACTORS
330
47
102
}
330
47
100
AcDbScale
 70
     0
300
1/4" = 1'-0"
140
0.25
141
12.0
290
     0
  0
SCALE
  5
61
102
{ACAD_REACTORS
330
47
102
}
330
47
100
AcDbScale
 70
     0
300
3/8" = 1'-0"
140
0.375
141
12.0
290
     0
  0
SCALE
  5
62
102
{ACAD_REACTORS
330
47
102
}
330
47
100
AcDbScale
 70
     0
300
1/2" = 1'-0"
140
0.5
141
12.0
290
     0
  0
SCALE
  5
63
102
{ACAD_REACTORS
330
47
102
}
330
47
100
AcDbScale
 70
     0
300
3/4" = 1'-0"
140
0.75
141
12.0
290
     0
  0
SCALE
  5
64
102
{ACAD_REACTORS
330
47
102
}
330
47
100
AcDbScale
 70
     0
300
1" = 1'-0"
140
1.0
141
12.0
290
     0
  0
SCALE
  5
65
102
{ACAD_REACTORS
330
47
102
}
330
47
100
AcDbScale
 70
     0
300
1-1/2" = 1'-0"
140
1.5
141
12.0
290
     0
  0
SCALE
  5
66
102
{ACAD_REACTORS
330
47
102
}
330
47
100
AcDbScale
 70
     0
300
3" = 1'-0"
140
3.0
141
12.0
290
     0
  0
SCALE
  5
67
102
{ACAD_REACTORS
330
47
102
}
330
47
100
AcDbScale
 70
     0
300
6" = 1'-0"
140
6.0
141
12.0
290
     0
  0
SCALE
  5
68
102
{ACAD_REACTORS
330
47
102
}
330
47
100
AcDbScale
 70
     0
300
1'-0" = 1'-0"
140
12.0
141
12.0
290
     0
  0
ENDSEC
  0
EOF
