  0
SECTION
  2
HEADER
  9
$ACADVER
  1
AC1014
  9
$ACADMAINTVER
 70
           0
  9
$DWGCODEPAGE
  3
DOS932
  9
$INSBASE
 10
0.0
 20
0.0
 30
0.0
  9
$EXTMIN
 10
1.000000000000E+20
 20
1.000000000000E+20
 30
1.000000000000E+20
  9
$EXTMAX
 10
-1.000000000000E+20
 20
-1.000000000000E+20
 30
-1.000000000000E+20
  9
$LIMMIN
 10
0.0
 20
0.0
  9
$LIMMAX
 10
0.0
 20
0.0
  9
$ORTHOMODE
 70
           0
  9
$REGENMODE
 70
           1
  9
$FILLMODE
 70
           1
  9
$QTEXTMODE
 70
           0
  9
$MIRRTEXT
 70
           1
  9
$DRAGMODE
 70
           2
  9
$LTSCALE
 40
1.0
  9
$OSMODE
 70
           0
  9
$ATTMODE
 70
           1
  9
$TEXTSIZE
 40
0.2
  9
$TRACEWID
 40
0.05
  9
$TEXTSTYLE
  7
STANDARD
  9
$CLAYER
  8
0
  9
$CELTYPE
  6
CONTINUOUS
  9
$CECOLOR
 62
         256
  9
$CELTSCALE
 40
1.0
  9
$DELOBJ
 70
           1
  9
$DISPSILH
 70
           0
  9
$DIMSCALE
 40
1.0
  9
$DIMASZ
 40
0.18
  9
$DIMEXO
 40
0.0625
  9
$DIMDLI
 40
0.38
  9
$DIMRND
 40
0.0
  9
$DIMDLE
 40
0.0
  9
$DIMEXE
 40
0.18
  9
$DIMTP
 40
0.0
  9
$DIMTM
 40
0.0
  9
$DIMTXT
 40
0.18
  9
$DIMCEN
 40
0.09
  9
$DIMTSZ
 40
0.0
  9
$DIMTOL
 70
           0
  9
$DIMLIM
 70
           0
  9
$DIMTIH
 70
           1
  9
$DIMTOH
 70
           1
  9
$DIMSE1
 70
           0
  9
$DIMSE2
 70
           0
  9
$DIMTAD
 70
           0
  9
$DIMZIN
 70
           0
  9
$DIMBLK
  1

  9
$DIMASO
 70
           1
  9
$DIMSHO
 70
           1
  9
$DIMPOST
  1

  9
$DIMAPOST
  1

  9
$DIMALT
 70
           0
  9
$DIMALTD
 70
           2
  9
$DIMALTF
 40
25.4
  9
$DIMLFAC
 40
1.0
  9
$DIMTOFL
 70
           0
  9
$DIMTVP
 40
0.0
  9
$DIMTIX
 70
           0
  9
$DIMSOXD
 70
           0
  9
$DIMSAH
 70
           0
  9
$DIMBLK1
  1

  9
$DIMBLK2
  1

  9
$DIMSTYLE
  2
STANDARD
  9
$DIMCLRD
 70
           0
  9
$DIMCLRE
 70
           0
  9
$DIMCLRT
 70
           0
  9
$DIMTFAC
 40
1.0
  9
$DIMGAP
 40
0.09
  9
$DIMJUST
 70
           0
  9
$DIMSD1
 70
           0
  9
$DIMSD2
 70
           0
  9
$DIMTOLJ
 70
           1
  9
$DIMTZIN
 70
           0
  9
$DIMALTZ
 70
           0
  9
$DIMALTTZ
 70
           0
  9
$DIMFIT
 70
           3
  9
$DIMUPT
 70
           0
  9
$DIMUNIT
 70
           2
  9
$DIMDEC
 70
           4
  9
$DIMTDEC
 70
           4
  9
$DIMALTU
 70
           2
  9
$DIMALTTD
 70
           2
  9
$DIMTXSTY
  7
STANDARD
  9
$DIMAUNIT
 70
           0
  9
$LUNITS
 70
           2
  9
$LUPREC
 70
           4
  9
$SKETCHINC
 40
0.1
  9
$FILLETRAD
 40
0.0
  9
$AUNITS
 70
           0
  9
$AUPREC
 70
           0
  9
$MENU
  1
acad
  9
$ELEVATION
 40
0.0
  9
$PELEVATION
 40
0.0
  9
$THICKNESS
 40
0.0
  9
$LIMCHECK
 70
           0
  9
$BLIPMODE
 70
           1
  9
$CHAMFERA
 40
0.0
  9
$CHAMFERB
 40
0.0
  9
$CHAMFERC
 40
0.0
  9
$CHAMFERD
 40
0.0
  9
$SKPOLY
 70
           0
  9
$TDCREATE
 40
0.000000000
  9
$TDUPDATE
 40
0.000000000
  9
$TDINDWG
 40
0.0000000000
  9
$TDUSRTIMER
 40
0.0000000000
  9
$USRTIMER
 70
           1
  9
$ANGBASE
 50
0.0
  9
$ANGDIR
 70
           0
  9
$PDMODE
 70
           0
  9
$PDSIZE
 40
0.0
  9
$PLINEWID
 40
0.0
  9
$COORDS
 70
           0
  9
$SPLFRAME
 70
           0
  9
$SPLINETYPE
 70
           6
  9
$SPLINESEGS
 70
           8
  9
$ATTDIA
 70
           0
  9
$ATTREQ
 70
           1
  9
$HANDLING
 70
           1
  9
$HANDSEED
  5
3AB
  9
$SURFTAB1
 70
           6
  9
$SURFTAB2
 70
           6
  9
$SURFTYPE
 70
           6
  9
$SURFU
 70
           6
  9
$SURFV
 70
           6
  9
$UCSNAME
  2

  9
$UCSORG
 10
0.0
 20
0.0
 30
0.0
  9
$UCSXDIR
 10
1.0
 20
0.0
 30
0.0
  9
$UCSYDIR
 10
0.0
 20
1.0
 30
0.0
  9
$PUCSNAME
  2

  9
$PUCSORG
 10
0.0
 20
0.0
 30
0.0
  9
$PUCSXDIR
 10
1.0
 20
0.0
 30
0.0
  9
$PUCSYDIR
 10
0.0
 20
1.0
 30
0.0
  9
$USERI1
 70
           0
  9
$USERI2
 70
           0
  9
$USERI3
 70
           0
  9
$USERI4
 70
           0
  9
$USERI5
 70
           0
  9
$USERR1
 40
0.0
  9
$USERR2
 40
0.0
  9
$USERR3
 40
0.0
  9
$USERR4
 40
0.0
  9
$USERR5
 40
0.0
  9
$WORLDVIEW
 70
           1
  9
$SHADEDGE
 70
           3
  9
$SHADEDIF
 70
          70
  9
$TILEMODE
 70
           1
  9
$MAXACTVP
 70
          16
  9
$PINSBASE
 10
0.0
 20
0.0
 30
0.0
  9
$PLIMCHECK
 70
           0
  9
$PEXTMIN
 10
1.000000000000E+20
 20
1.000000000000E+20
 30
1.000000000000E+20
  9
$PEXTMAX
 10
-1.000000000000E+20
 20
-1.000000000000E+20
 30
-1.000000000000E+20
  9
$PLIMMIN
 10
0.0
 20
0.0
  9
$PLIMMAX
 10
12.0
 20
9.0
  9
$UNITMODE
 70
           0
  9
$VISRETAIN
 70
           0
  9
$PLINEGEN
 70
           1
  9
$PSLTSCALE
 70
           0
  9
$TREEDEPTH
 70
        3020
  9
$PICKSTYLE
 70
           1
  9
$CMLSTYLE
  2
STANDARD
  9
$CMLJUST
 70
           0
  9
$CMLSCALE
 40
1.0
  9
$PROXYGRAPHICS
 70
           0
  9
$MEASUREMENT
 70
           0
  0
ENDSEC
  0
SECTION
  2
CLASSES
  0
CLASS
  1
LWPOLYLINE
  2
AcDbPolyline
  3
"AutoCAD"
 90
        0
280
           0
281
           1
  0
CLASS
  1
IMAGE
  2
AcDbRasterImage
  3
ISM
 90
      127
280
           0
281
           1
  0
CLASS
  1
OLE2FRAME
  2
AcDbOle2Frame
  3
""
 90
        0
280
           0
281
           1
  0
CLASS
  1
HATCH
  2
AcDbHatch
  3
"ACAD_SEDONA"
 90
        0
280
           0
281
           1
  0
CLASS
  1
DICTIONARYVAR
  2
AcDbDictionaryVar
  3
"AutoCAD"
 90
        0
280
           0
281
           0
  0
CLASS
  1
RASTERVARIABLES
  2
AcDbRasterVariables
  3
ISM
 90
        0
280
           0
281
           0
  0
CLASS
  1
IMAGEDEF
  2
AcDbRasterImageDef
  3
ISM
 90
        0
280
           0
281
           0
  0
CLASS
  1
IMAGEDEF_REACTOR
  2
AcDbRasterImageDefReactor
  3
ISM
 90
        1
280
           0
281
           0
  0
CLASS
  1
IDBUFFER
  2
AcDbIdBuffer
  3
"Acad"
 90
        0
280
           0
281
           0
  0
CLASS
  1
SPATIAL_FILTER
  2
AcDbSpatialFilter
  3
"Acad"
 90
        0
280
           0
281
           0
  0
CLASS
  1
XRECORD
  2
AcDbXrecord
  3
"<Built In>"
 90
        0
280
           0
281
           0
  0
CLASS
  1
SORTENTSTABLE
  2
AcDbSortentsTable
  3
"AutoCAD"
 90
        0
280
           0
281
           0
  0
CLASS
  1
LAYER_INDEX
  2
AcDbLayerIndex
  3
"Acad"
 90
        0
280
           0
281
           0
  0
CLASS
  1
SPATIAL_INDEX
  2
AcDbSpatialIndex
  3
"Acad"
 90
        0
280
           0
281
           0
  0
CLASS
  1
OBJECT_PTR
  2
CAseDLPNTableRecord
  3
"ASE-LPNTableRecord"
 90
        1
280
           0
281
           0
  0
CLASS
  1
LAYOUT
  2
AcDbLayout
  3
"AutoCAD 2000"
 90
        1
280
           0
281
           0
  0
CLASS
  1
PLOTSETTINGS
  2
AcDbPlotSettings
  3
"AutoCAD 2000"
 90
        1
280
           0
281
           0
  0
CLASS
  1
ACDBDICTIONARYWDFLT
  2
AcDbDictionaryWithDefault
  3
"AutoCAD 2000"
 90
        1
280
           0
281
           0
  0
CLASS
  1
ACDBPLACEHOLDER
  2
AcDbPlaceHolder
  3
"AutoCAD 2000"
 90
        1
280
           0
281
           0
  0
CLASS
  1
VBA_PROJECT
  2
AcDbVbaProject
  3
"acadvba"
 90
        1
280
           0
281
           0
  0
CLASS
  1
WIPEOUT
  2
AcDbWipeout
  3
WipeOut|AutoCAD Express Tool|expresstools@autodesk.com
 90
      127
280
           0
281
           1
  0
CLASS
  1
WIPEOUTVARIABLES
  2
AcDbWipeoutVariables
  3
WipeOut|AutoCAD Express Tool|expresstools@autodesk.com
 90
        0
280
           0
281
           0
  0
CLASS
  1
RTEXT
  2
RText
  3
RText|AutoCAD Express Tool|expresstools@autodesk.com
 90
        0
280
           0
281
           1
  0
CLASS
  1
ARCALIGNEDTEXT
  2
AcDbArcAlignedText
  3
ATEXT|AutoCAD Express Tool|expresstools@autodesk.com
 90
        0
280
           0
281
           1
  0
ENDSEC
  0
SECTION
  2
TABLES
  0
TABLE
  2
VPORT
  5
7
100
AcDbSymbolTable
 70
           1
  0
VPORT
  5
15
100
AcDbSymbolTableRecord
100
AcDbViewportTableRecord
  2
*ACTIVE
 70
           0
 10
0.0
 20
0.0
 11
1.0
 21
1.0
 12
6.591288
 22
4.579184
 13
0.0
 23
0.0
 14
1.0
 24
1.0
 15
0.0
 25
0.0
 16
0.0
 26
0.0
 36
1.0
 17
0.0
 27
0.0
 37
0.0
 40
9.158369
 41
0.688564
 42
50.0
 43
0.0
 44
0.0
 50
0.0
 51
0.0
 71
           0
 72
         100
 73
           1
 74
           1
 75
           0
 76
           0
 77
           0
 78
           0
  0
ENDTAB
  0
TABLE
  2
LTYPE
  5
4
100
AcDbSymbolTable
 70
          10
  0
LTYPE
  5
11
100
AcDbSymbolTableRecord
100
AcDbLinetypeTableRecord
  2
BYBLOCK
 70
          64
  3

 72
          65
 73
           0
 40
0.0
  0
LTYPE
  5
12
100
AcDbSymbolTableRecord
100
AcDbLinetypeTableRecord
  2
BYLAYER
 70
          64
  3

 72
          65
 73
           0
 40
0.0
  0
LTYPE
  5
13
100
AcDbSymbolTableRecord
100
AcDbLinetypeTableRecord
  2
CONTINUOUS
 70
          64
  3
Solid line
 72
          65
 73
           0
 40
0.0
  0
LTYPE
  5
1D
100
AcDbSymbolTableRecord
100
AcDbLinetypeTableRecord
  2
DASHED
 70
          64
  3
Dashed
 72
          65
 73
           2
 40
15.0
 49
12.0
 74
           0
 49
-3.0
 74
           0
  0
LTYPE
  5
1E
100
AcDbSymbolTableRecord
100
AcDbLinetypeTableRecord
  2
DOTTED
 70
          64
  3
Dotted
 72
          65
 73
           2
 40
3.5
 49
0.5
 74
           0
 49
-3.0
 74
           0
  0
LTYPE
  5
1F
100
AcDbSymbolTableRecord
100
AcDbLinetypeTableRecord
  2
DOT_CENTER
 70
          64
  3
Dot_Center
 72
          65
 73
           4
 40
2.0
 49
1.25
 74
           0
 49
-0.25
 74
           0
 49
0.25
 74
           0
 49
-0.25
 74
           0
  0
LTYPE
  5
20
100
AcDbSymbolTableRecord
100
AcDbLinetypeTableRecord
  2
LONG_DASHED
 70
          64
  3
Long_Dashed
 72
          65
 73
           2
 40
2.0
 49
1.5
 74
           0
 49
-0.5
 74
           0
  0
LTYPE
  5
21
100
AcDbSymbolTableRecord
100
AcDbLinetypeTableRecord
  2
DASH_CENTER
 70
          64
  3
Dash_Center
 72
          65
 73
           4
 40
36.0
 49
24.0
 74
           0
 49
-3.0
 74
           0
 49
6.0
 74
           0
 49
-3.0
 74
           0
  0
LTYPE
  5
22
100
AcDbSymbolTableRecord
100
AcDbLinetypeTableRecord
  2
PHANTOM
 70
          64
  3
Phantom
 72
          65
 73
           6
 40
2.5
 49
1.25
 74
           0
 49
-0.25
 74
           0
 49
0.25
 74
           0
 49
-0.25
 74
           0
 49
0.25
 74
           0
 49
-0.25
 74
           0
  0
LTYPE
  5
23
100
AcDbSymbolTableRecord
100
AcDbLinetypeTableRecord
  2
CENTER_DASH_DASH
 70
          64
  3
Center_Dash_Dash
 72
          65
 73
           6
 40
22.0
 49
12.0
 74
           0
 49
-3.0
 74
           0
 49
0.5
 74
           0
 49
-3.0
 74
           0
 49
0.5
 74
           0
 49
-3.0
 74
           0
  0
ENDTAB
  0
TABLE
  2
LAYER
  5
2
100
AcDbSymbolTable
 70
           2
  0
LAYER
  5
14
100
AcDbSymbolTableRecord
100
AcDbLayerTableRecord
  2
0
 70
           0
 62
           7
  6
CONTINUOUS
  0
LAYER
  5
24
100
AcDbSymbolTableRecord
100
AcDbLayerTableRecord
  2
1
 70
           0
 62
           7
  6
CONTINUOUS
  0
ENDTAB
  0
TABLE
  2
STYLE
  5
3
100
AcDbSymbolTable
 70
           3
  0
STYLE
  5
17
100
AcDbSymbolTableRecord
100
AcDbTextStyleTableRecord
  2
STANDARD
 70
           0
 40
0.0
 41
1.0
 50
0.0
 71
           0
 42
0.0
  3
txt
  4

  0
STYLE
  5
6E
100
AcDbSymbolTableRecord
100
AcDbTextStyleTableRecord
  2
CONVERTER_1
 70
           0
 40
0.0
 41
0.81
 50
0.0
 71
           0
 42
0.0
  3
txt.shx
  4

  0
STYLE
  5
3A5
100
AcDbSymbolTableRecord
100
AcDbTextStyleTableRecord
  2
CONVERTER_2
 70
           0
 40
0.0
 41
0.9
 50
0.0
 71
           0
 42
0.0
  3
txt.shx
  4

  0
ENDTAB
  0
TABLE
  2
VIEW
  5
5
100
AcDbSymbolTable
 70
           0
  0
ENDTAB
  0
TABLE
  2
UCS
  5
6
100
AcDbSymbolTable
 70
           0
  0
ENDTAB
  0
TABLE
  2
APPID
  5
8
100
AcDbSymbolTable
 70
           1
  0
APPID
  5
16
100
AcDbSymbolTableRecord
100
AcDbRegAppTableRecord
  2
ACAD
 70
           0
  0
ENDTAB
  0
TABLE
  2
DIMSTYLE
  5
9
100
AcDbSymbolTable
 70
           1
  0
DIMSTYLE
105
18
100
AcDbSymbolTableRecord
100
AcDbDimStyleTableRecord
  2
STANDARD
 70
           0
  3

  4

  5

  6

  7

 40
1.0
 41
0.18
 42
0.0625
 43
0.38
 44
0.18
 45
0.0
 46
0.0
 47
0.0
 48
0.0
 71
           0
 72
           0
 73
           1
 74
           1
 75
           0
 76
           0
 77
           0
 78
           0
140
0.18
141
0.09
142
0.0
143
25.4
144
1.0
145
0.0
146
1.0
147
0.09
170
           0
171
           2
172
           0
173
           0
174
           0
175
           0
176
           0
177
           0
178
           0
270
           2
271
           4
272
           4
273
           2
274
           2
275
           0
280
           0
281
           0
282
           0
283
           1
284
           0
285
           0
286
           0
287
           0
288
           0
340
17
  0
ENDTAB
  0
TABLE
  2
BLOCK_RECORD
  5
1
100
AcDbSymbolTable
 70
          21
  0
BLOCK_RECORD
  5
A
100
AcDbSymbolTableRecord
100
AcDbBlockTableRecord
  2
*MODEL_SPACE
  0
BLOCK_RECORD
  5
B
100
AcDbSymbolTableRecord
100
AcDbBlockTableRecord
  2
*PAPER_SPACE
  0
BLOCK_RECORD
  5
25
100
AcDbSymbolTableRecord
100
AcDbBlockTableRecord
  2
TOP
  0
BLOCK_RECORD
  5
27
100
AcDbSymbolTableRecord
100
AcDbBlockTableRecord
  2
HEX_BOLT_SIDE__1
  0
BLOCK_RECORD
  5
29
100
AcDbSymbolTableRecord
100
AcDbBlockTableRecord
  2
HEX_BOLT_TOP__2
  0
BLOCK_RECORD
  5
2B
100
AcDbSymbolTableRecord
100
AcDbBlockTableRecord
  2
HEX_BOLT_TOP__3
  0
BLOCK_RECORD
  5
2D
100
AcDbSymbolTableRecord
100
AcDbBlockTableRecord
  2
HEX_BOLT_TOP__4
  0
BLOCK_RECORD
  5
2F
100
AcDbSymbolTableRecord
100
AcDbBlockTableRecord
  2
HEX_BOLT_TOP__5
  0
BLOCK_RECORD
  5
31
100
AcDbSymbolTableRecord
100
AcDbBlockTableRecord
  2
HEX_BOLT_SIDE__6
  0
BLOCK_RECORD
  5
33
100
AcDbSymbolTableRecord
100
AcDbBlockTableRecord
  2
HEX_BOLT_SIDE__7
  0
BLOCK_RECORD
  5
35
100
AcDbSymbolTableRecord
100
AcDbBlockTableRecord
  2
HEX_BOLT_SIDE__8
  0
BLOCK_RECORD
  5
37
100
AcDbSymbolTableRecord
100
AcDbBlockTableRecord
  2
HEX_BOLT_SIDE__9
  0
BLOCK_RECORD
  5
39
100
AcDbSymbolTableRecord
100
AcDbBlockTableRecord
  2
HEX_BOLT_TOP__10
  0
BLOCK_RECORD
  5
3B
100
AcDbSymbolTableRecord
100
AcDbBlockTableRecord
  2
HEX_BOLT_TOP__11
  0
BLOCK_RECORD
  5
3D
100
AcDbSymbolTableRecord
100
AcDbBlockTableRecord
  2
HEX_BOLT_TOP__12
  0
BLOCK_RECORD
  5
3F
100
AcDbSymbolTableRecord
100
AcDbBlockTableRecord
  2
HEX_BOLT_TOP__13
  0
BLOCK_RECORD
  5
41
100
AcDbSymbolTableRecord
100
AcDbBlockTableRecord
  2
HEX_BOLT_TOP__14
  0
BLOCK_RECORD
  5
43
100
AcDbSymbolTableRecord
100
AcDbBlockTableRecord
  2
HEX_BOLT_TOP__15
  0
BLOCK_RECORD
  5
45
100
AcDbSymbolTableRecord
100
AcDbBlockTableRecord
  2
HEX_BOLT_TOP__16
  0
BLOCK_RECORD
  5
47
100
AcDbSymbolTableRecord
100
AcDbBlockTableRecord
  2
HEX_BOLT_TOP__17
  0
BLOCK_RECORD
  5
49
100
AcDbSymbolTableRecord
100
AcDbBlockTableRecord
  2
HEX_BOLT_SIDE__18
  0
BLOCK_RECORD
  5
4B
100
AcDbSymbolTableRecord
100
AcDbBlockTableRecord
  2
100144641__19
  0
BLOCK_RECORD
  5
4D
100
AcDbSymbolTableRecord
100
AcDbBlockTableRecord
  2
100144641__20
  0
ENDTAB
  0
ENDSEC
  0
SECTION
  2
BLOCKS
  0
BLOCK
  5
D
100
AcDbEntity
  8
0
100
AcDbBlockBegin
  2
*MODEL_SPACE
 70
           0
 10
0.0
 20
0.0
 30
0.0
  3
*MODEL_SPACE
  1

  0
ENDBLK
  5
E
100
AcDbEntity
  8
0
100
AcDbBlockEnd
  0
BLOCK
  5
F
100
AcDbEntity
 67
           1
  8
0
100
AcDbBlockBegin
  2
*PAPER_SPACE
 70
           0
 10
0.0
 20
0.0
 30
0.0
  3
*PAPER_SPACE
  1

  0
ENDBLK
  5
10
100
AcDbEntity
 67
           1
  8
0
100
AcDbBlockEnd
  0
BLOCK
  5
26
100
AcDbEntity
  8
0
100
AcDbBlockBegin
  2
TOP
 70
           0
 10
0.0
 20
0.0
 30
0.0
  3
TOP
  1

  0
TEXT
  5
77
100
AcDbEntity
  8
1
 62
           3
100
AcDbText
 10
-349.186069717004
 20
-18.539348736539
 40
5.6
  1
http://www.hds.co.jp
 41
0.81
  7
CONVERTER_1
100
AcDbText
  0
TEXT
  5
76
100
AcDbEntity
  8
1
 62
           3
100
AcDbText
 10
-349.186069717004
 20
-9.579348736539
 40
5.6
  1
Tel.03-5471-7800 Fax.03-5471-7811
 41
0.81
  7
CONVERTER_1
100
AcDbText
  0
TEXT
  5
75
100
AcDbEntity
  8
1
 62
           3
100
AcDbText
 10
-349.186069717004
 20
-0.619348736539
 40
5.6
  1
JAPAN
 41
0.81
  7
CONVERTER_1
100
AcDbText
  0
TEXT
  5
74
100
AcDbEntity
  8
1
 62
           3
100
AcDbText
 10
-349.186069717004
 20
8.340651263461
 40
5.6
  1
Ichigo Omori Bldg.,4F 6-25-3 Minami-Oi, Shinagawa-ku, Tokyo 140-0013
 41
0.81
  7
CONVERTER_1
100
AcDbText
  0
TEXT
  5
73
100
AcDbEntity
  8
1
 62
           3
100
AcDbText
 10
-349.186069717004
 20
17.30065126346
 40
5.6
  1
Harmonic Drive Systems,Inc.
 41
0.81
  7
CONVERTER_1
100
AcDbText
  0
TEXT
  5
72
100
AcDbEntity
  8
1
 62
           3
100
AcDbText
 10
-349.186069717004
 20
35.220651263461
 40
5.6
  1
This drawing itself is also a property of Harmonic Drive Systems,Ins.
 41
0.81
  7
CONVERTER_1
100
AcDbText
  0
TEXT
  5
71
100
AcDbEntity
  8
1
 62
           3
100
AcDbText
 10
-349.186069717004
 20
44.18065126346
 40
5.6
  1
subject to change without notification.
 41
0.81
  7
CONVERTER_1
100
AcDbText
  0
TEXT
  5
70
100
AcDbEntity
  8
1
 62
           3
100
AcDbText
 10
-349.186069717004
 20
53.140651263461
 40
5.6
  1
All speciffcations and dimensions mentioned in the drawing are
 41
0.81
  7
CONVERTER_1
100
AcDbText
  0
TEXT
  5
6F
100
AcDbEntity
  8
1
 62
           7
100
AcDbText
 10
-347.67486890974
 20
64.159926937165
 40
10.0
  1
The reference drawing
 41
0.81
  7
CONVERTER_1
100
AcDbText
  0
ARC
  5
6D
100
AcDbEntity
  8
1
  6
PHANTOM
 62
           7
100
AcDbCircle
 10
-345.186069717004
 20
-17.527643321907
 40
12.0
100
AcDbArc
 50
180.0
 51
-90.0
  0
ARC
  5
6C
100
AcDbEntity
  8
1
  6
PHANTOM
 62
           7
100
AcDbCircle
 10
-345.186069717004
 20
70.472356678092
 40
12.0
100
AcDbArc
 50
90.0
 51
180.0
  0
ARC
  5
6B
100
AcDbEntity
  8
1
  6
PHANTOM
 62
           7
100
AcDbCircle
 10
-33.186069717004
 20
70.472356678092
 40
12.0
100
AcDbArc
 50
0.0
 51
90.0
  0
ARC
  5
6A
100
AcDbEntity
  8
1
  6
PHANTOM
 62
           7
100
AcDbCircle
 10
-33.186069717004
 20
-17.527643321907
 40
12.0
100
AcDbArc
 50
-90.0
 51
0.0
  0
LINE
  5
69
100
AcDbEntity
  8
1
  6
PHANTOM
 62
           7
100
AcDbLine
 10
-357.186069717004
 20
70.472356678092
 11
-357.186069717004
 21
-17.527643321907
  0
LINE
  5
68
100
AcDbEntity
  8
1
  6
PHANTOM
 62
           7
100
AcDbLine
 10
-345.186069717004
 20
-29.527643321907
 11
-33.186069717004
 21
-29.527643321907
  0
LINE
  5
67
100
AcDbEntity
  8
1
  6
PHANTOM
 62
           7
100
AcDbLine
 10
-21.186069717004
 20
-17.527643321907
 11
-21.186069717004
 21
70.472356678092
  0
LINE
  5
66
100
AcDbEntity
  8
1
  6
PHANTOM
 62
           7
100
AcDbLine
 10
-33.186069717004
 20
82.472356678092
 11
-345.186069717004
 21
82.472356678092
  0
ENDBLK
  5
78
100
AcDbEntity
  8
0
100
AcDbBlockEnd
  0
BLOCK
  5
28
100
AcDbEntity
  8
0
100
AcDbBlockBegin
  2
HEX_BOLT_SIDE__1
 70
           0
 10
0.0
 20
0.0
 30
0.0
  3
HEX_BOLT_SIDE__1
  1

  0
LINE
  5
7F
100
AcDbEntity
  8
1
  6
CONTINUOUS
 62
           7
100
AcDbLine
 10
-230.90567812739
 20
159.613763465862
 11
-230.90567812739
 21
154.113763465862
  0
LINE
  5
7E
100
AcDbEntity
  8
1
  6
CONTINUOUS
 62
           7
100
AcDbLine
 10
-233.70567812739
 20
159.613763465862
 11
-233.70567812739
 21
154.113763465862
  0
LINE
  5
7D
100
AcDbEntity
  8
1
  6
CONTINUOUS
 62
           7
100
AcDbLine
 10
-230.90567812739
 20
159.613763465862
 11
-233.70567812739
 21
159.613763465862
  0
LINE
  5
7C
100
AcDbEntity
  8
1
  6
CONTINUOUS
 62
           7
100
AcDbLine
 10
-233.70567812739
 20
159.613763465862
 11
-233.90567812739
 21
159.413763465862
  0
LINE
  5
7B
100
AcDbEntity
  8
1
  6
CONTINUOUS
 62
           7
100
AcDbLine
 10
-233.90567812739
 20
159.413763465862
 11
-233.90567812739
 21
154.313763465862
  0
LINE
  5
7A
100
AcDbEntity
  8
1
  6
CONTINUOUS
 62
           7
100
AcDbLine
 10
-233.90567812739
 20
154.313763465862
 11
-233.70567812739
 21
154.113763465862
  0
LINE
  5
79
100
AcDbEntity
  8
1
  6
CONTINUOUS
 62
           7
100
AcDbLine
 10
-233.70567812739
 20
154.113763465862
 11
-230.90567812739
 21
154.113763465862
  0
ENDBLK
  5
80
100
AcDbEntity
  8
0
100
AcDbBlockEnd
  0
BLOCK
  5
2A
100
AcDbEntity
  8
0
100
AcDbBlockBegin
  2
HEX_BOLT_TOP__2
 70
           0
 10
0.0
 20
0.0
 30
0.0
  3
HEX_BOLT_TOP__2
  1

  0
CIRCLE
  5
88
100
AcDbEntity
  8
1
  6
CONTINUOUS
 62
           7
100
AcDbCircle
 10
-63.063893331088
 20
180.363763465862
 40
3.5
  0
CIRCLE
  5
87
100
AcDbEntity
  8
1
  6
CONTINUOUS
 62
           7
100
AcDbCircle
 10
-63.063893331088
 20
180.363763465862
 40
2.980384757729
  0
LINE
  5
86
100
AcDbEntity
  8
1
  6
CONTINUOUS
 62
           7
100
AcDbLine
 10
-61.563893331088
 20
181.229788869646
 11
-63.063893331088
 21
182.095814273431
  0
LINE
  5
85
100
AcDbEntity
  8
1
  6
CONTINUOUS
 62
           7
100
AcDbLine
 10
-63.063893331088
 20
182.095814273431
 11
-64.563893331088
 21
181.229788869646
  0
LINE
  5
84
100
AcDbEntity
  8
1
  6
CONTINUOUS
 62
           7
100
AcDbLine
 10
-64.563893331088
 20
181.229788869646
 11
-64.563893331088
 21
179.497738062077
  0
LINE
  5
83
100
AcDbEntity
  8
1
  6
CONTINUOUS
 62
           7
100
AcDbLine
 10
-64.563893331088
 20
179.497738062077
 11
-63.063893331088
 21
178.631712658293
  0
LINE
  5
82
100
AcDbEntity
  8
1
  6
CONTINUOUS
 62
           7
100
AcDbLine
 10
-63.063893331088
 20
178.631712658293
 11
-61.563893331088
 21
179.497738062077
  0
LINE
  5
81
100
AcDbEntity
  8
1
  6
CONTINUOUS
 62
           7
100
AcDbLine
 10
-61.563893331088
 20
179.497738062077
 11
-61.563893331088
 21
181.229788869646
  0
ENDBLK
  5
89
100
AcDbEntity
  8
0
100
AcDbBlockEnd
  0
BLOCK
  5
2C
100
AcDbEntity
  8
0
100
AcDbBlockBegin
  2
HEX_BOLT_TOP__3
 70
           0
 10
0.0
 20
0.0
 30
0.0
  3
HEX_BOLT_TOP__3
  1

  0
CIRCLE
  5
91
100
AcDbEntity
  8
1
  6
CONTINUOUS
 62
           7
100
AcDbCircle
 10
-111.813893331088
 20
152.217937842868
 40
3.5
  0
CIRCLE
  5
90
100
AcDbEntity
  8
1
  6
CONTINUOUS
 62
           7
100
AcDbCircle
 10
-111.813893331088
 20
152.217937842868
 40
2.980384757729
  0
LINE
  5
8F
100
AcDbEntity
  8
1
  6
CONTINUOUS
 62
           7
100
AcDbLine
 10
-110.313893331088
 20
153.083963246652
 11
-111.813893331088
 21
153.949988650436
  0
LINE
  5
8E
100
AcDbEntity
  8
1
  6
CONTINUOUS
 62
           7
100
AcDbLine
 10
-111.813893331088
 20
153.949988650436
 11
-113.313893331088
 21
153.083963246652
  0
LINE
  5
8D
100
AcDbEntity
  8
1
  6
CONTINUOUS
 62
           7
100
AcDbLine
 10
-113.313893331088
 20
153.083963246652
 11
-113.313893331088
 21
151.351912439083
  0
LINE
  5
8C
100
AcDbEntity
  8
1
  6
CONTINUOUS
 62
           7
100
AcDbLine
 10
-113.313893331088
 20
151.351912439083
 11
-111.813893331088
 21
150.485887035299
  0
LINE
  5
8B
100
AcDbEntity
  8
1
  6
CONTINUOUS
 62
           7
100
AcDbLine
 10
-111.813893331088
 20
150.485887035299
 11
-110.313893331088
 21
151.351912439083
  0
LINE
  5
8A
100
AcDbEntity
  8
1
  6
CONTINUOUS
 62
           7
100
AcDbLine
 10
-110.313893331088
 20
151.351912439083
 11
-110.313893331088
 21
153.083963246652
  0
ENDBLK
  5
92
100
AcDbEntity
  8
0
100
AcDbBlockEnd
  0
BLOCK
  5
2E
100
AcDbEntity
  8
0
100
AcDbBlockBegin
  2
HEX_BOLT_TOP__4
 70
           0
 10
0.0
 20
0.0
 30
0.0
  3
HEX_BOLT_TOP__4
  1

  0
CIRCLE
  5
9A
100
AcDbEntity
  8
1
  6
CONTINUOUS
 62
           7
100
AcDbCircle
 10
-128.063893331089
 20
180.363763465862
 40
3.5
  0
CIRCLE
  5
99
100
AcDbEntity
  8
1
  6
CONTINUOUS
 62
           7
100
AcDbCircle
 10
-128.063893331089
 20
180.363763465862
 40
2.980384757729
  0
LINE
  5
98
100
AcDbEntity
  8
1
  6
CONTINUOUS
 62
           7
100
AcDbLine
 10
-126.563893331088
 20
181.229788869646
 11
-128.063893331089
 21
182.095814273431
  0
LINE
  5
97
100
AcDbEntity
  8
1
  6
CONTINUOUS
 62
           7
100
AcDbLine
 10
-128.063893331089
 20
182.095814273431
 11
-129.563893331089
 21
181.229788869646
  0
LINE
  5
96
100
AcDbEntity
  8
1
  6
CONTINUOUS
 62
           7
100
AcDbLine
 10
-129.563893331089
 20
181.229788869646
 11
-129.563893331089
 21
179.497738062077
  0
LINE
  5
95
100
AcDbEntity
  8
1
  6
CONTINUOUS
 62
           7
100
AcDbLine
 10
-129.563893331089
 20
179.497738062077
 11
-128.063893331089
 21
178.631712658293
  0
LINE
  5
94
100
AcDbEntity
  8
1
  6
CONTINUOUS
 62
           7
100
AcDbLine
 10
-128.063893331089
 20
178.631712658293
 11
-126.563893331088
 21
179.497738062077
  0
LINE
  5
93
100
AcDbEntity
  8
1
  6
CONTINUOUS
 62
           7
100
AcDbLine
 10
-126.563893331088
 20
179.497738062077
 11
-126.563893331088
 21
181.229788869646
  0
ENDBLK
  5
9B
100
AcDbEntity
  8
0
100
AcDbBlockEnd
  0
BLOCK
  5
30
100
AcDbEntity
  8
0
100
AcDbBlockBegin
  2
HEX_BOLT_TOP__5
 70
           0
 10
0.0
 20
0.0
 30
0.0
  3
HEX_BOLT_TOP__5
  1

  0
CIRCLE
  5
A3
100
AcDbEntity
  8
1
  6
CONTINUOUS
 62
           7
100
AcDbCircle
 10
-79.313893331088
 20
208.509589088856
 40
3.5
  0
CIRCLE
  5
A2
100
AcDbEntity
  8
1
  6
CONTINUOUS
 62
           7
100
AcDbCircle
 10
-79.313893331088
 20
208.509589088856
 40
2.980384757729
  0
LINE
  5
A1
100
AcDbEntity
  8
1
  6
CONTINUOUS
 62
           7
100
AcDbLine
 10
-77.813893331088
 20
209.37561449264
 11
-79.313893331088
 21
210.241639896425
  0
LINE
  5
A0
100
AcDbEntity
  8
1
  6
CONTINUOUS
 62
           7
100
AcDbLine
 10
-79.313893331088
 20
210.241639896425
 11
-80.813893331088
 21
209.37561449264
  0
LINE
  5
9F
100
AcDbEntity
  8
1
  6
CONTINUOUS
 62
           7
100
AcDbLine
 10
-80.813893331088
 20
209.37561449264
 11
-80.813893331088
 21
207.643563685072
  0
LINE
  5
9E
100
AcDbEntity
  8
1
  6
CONTINUOUS
 62
           7
100
AcDbLine
 10
-80.813893331088
 20
207.643563685072
 11
-79.313893331088
 21
206.777538281287
  0
LINE
  5
9D
100
AcDbEntity
  8
1
  6
CONTINUOUS
 62
           7
100
AcDbLine
 10
-79.313893331088
 20
206.777538281287
 11
-77.813893331088
 21
207.643563685072
  0
LINE
  5
9C
100
AcDbEntity
  8
1
  6
CONTINUOUS
 62
           7
100
AcDbLine
 10
-77.813893331088
 20
207.643563685072
 11
-77.813893331088
 21
209.37561449264
  0
ENDBLK
  5
A4
100
AcDbEntity
  8
0
100
AcDbBlockEnd
  0
BLOCK
  5
32
100
AcDbEntity
  8
0
100
AcDbBlockBegin
  2
HEX_BOLT_SIDE__6
 70
           0
 10
0.0
 20
0.0
 30
0.0
  3
HEX_BOLT_SIDE__6
  1

  0
ARC
  5
BC
100
AcDbEntity
  8
1
  6
CONTINUOUS
 62
           7
100
AcDbCircle
 10
-194.105678125616
 20
170.963763465862
 40
0.1
100
AcDbArc
 50
180.0
 51
-90.0
  0
ARC
  5
BB
100
AcDbEntity
  8
1
  6
CONTINUOUS
 62
           7
100
AcDbCircle
 10
-194.105678125616
 20
168.263763465862
 40
0.1
100
AcDbArc
 50
90.0
 51
180.0
  0
LINE
  5
BA
100
AcDbEntity
  8
1
  6
CONTINUOUS
 62
           3
100
AcDbLine
 10
-193.405678125616
 20
170.503763465862
 11
-186.205678125616
 21
170.503763465862
  0
LINE
  5
B9
100
AcDbEntity
  8
1
  6
CONTINUOUS
 62
           3
100
AcDbLine
 10
-193.405678125616
 20
168.723763465862
 11
-186.205678125616
 21
168.723763465862
  0
LINE
  5
B8
100
AcDbEntity
  8
1
  6
CONTINUOUS
 62
           3
100
AcDbLine
 10
-193.405678125616
 20
170.503763465862
 11
-194.029216416341
 21
170.863763465862
  0
LINE
  5
B7
100
AcDbEntity
  8
1
  6
CONTINUOUS
 62
           3
100
AcDbLine
 10
-193.405678125616
 20
168.723763465862
 11
-194.029216416341
 21
168.363763465862
  0
LINE
  5
B6
100
AcDbEntity
  8
1
  6
CONTINUOUS
 62
           7
100
AcDbLine
 10
-194.205678125616
 20
168.263763465862
 11
-194.205678125616
 21
170.963763465862
  0
LINE
  5
B5
100
AcDbEntity
  8
1
  6
CONTINUOUS
 62
           7
100
AcDbLine
 10
-194.205678125616
 20
171.863763465862
 11
-196.505678125616
 21
171.863763465862
  0
LINE
  5
B4
100
AcDbEntity
  8
1
  6
CONTINUOUS
 62
           7
100
AcDbLine
 10
-196.505678125616
 20
171.863763465862
 11
-196.705678125616
 21
171.663763465862
  0
LINE
  5
B3
100
AcDbEntity
  8
1
  6
CONTINUOUS
 62
           7
100
AcDbLine
 10
-196.705678125616
 20
171.663763465862
 11
-196.705678125616
 21
167.563763465862
  0
LINE
  5
B2
100
AcDbEntity
  8
1
  6
CONTINUOUS
 62
           7
100
AcDbLine
 10
-196.705678125616
 20
167.563763465862
 11
-196.505678125616
 21
167.363763465862
  0
LINE
  5
B1
100
AcDbEntity
  8
1
  6
CONTINUOUS
 62
           7
100
AcDbLine
 10
-196.505678125616
 20
167.363763465862
 11
-194.205678125616
 21
167.363763465862
  0
LINE
  5
B0
100
AcDbEntity
  8
1
  6
CONTINUOUS
 62
           7
100
AcDbLine
 10
-194.205678125616
 20
167.363763465862
 11
-194.205678125616
 21
168.263763465862
  0
LINE
  5
AF
100
AcDbEntity
  8
1
  6
CONTINUOUS
 62
           7
100
AcDbLine
 10
-194.105678125616
 20
168.363763465862
 11
-193.405678125616
 21
168.363763465862
  0
LINE
  5
AE
100
AcDbEntity
  8
1
  6
CONTINUOUS
 62
           7
100
AcDbLine
 10
-186.565678125616
 20
168.363763465862
 11
-186.205678125616
 21
168.723763465862
  0
LINE
  5
AD
100
AcDbEntity
  8
1
  6
CONTINUOUS
 62
           7
100
AcDbLine
 10
-186.205678125616
 20
168.723763465862
 11
-186.205678125616
 21
170.503763465862
  0
LINE
  5
AC
100
AcDbEntity
  8
1
  6
CONTINUOUS
 62
           7
100
AcDbLine
 10
-186.205678125616
 20
170.503763465862
 11
-186.565678125616
 21
170.863763465862
  0
LINE
  5
AB
100
AcDbEntity
  8
1
  6
CONTINUOUS
 62
           7
100
AcDbLine
 10
-186.565678125616
 20
170.863763465862
 11
-193.405678125616
 21
170.863763465862
  0
LINE
  5
AA
100
AcDbEntity
  8
1
  6
CONTINUOUS
 62
           7
100
AcDbLine
 10
-194.205678125616
 20
170.963763465862
 11
-194.205678125616
 21
171.863763465862
  0
LINE
  5
A9
100
AcDbEntity
  8
1
  6
CONTINUOUS
 62
           7
100
AcDbLine
 10
-193.405678125616
 20
170.863763465862
 11
-193.405678125616
 21
168.363763465862
  0
LINE
  5
A8
100
AcDbEntity
  8
1
  6
CONTINUOUS
 62
           7
100
AcDbLine
 10
-193.405678125616
 20
168.363763465862
 11
-186.565678125616
 21
168.363763465862
  0
LINE
  5
A7
100
AcDbEntity
  8
1
  6
CONTINUOUS
 62
           7
100
AcDbLine
 10
-193.405678125616
 20
170.863763465862
 11
-194.105678125616
 21
170.863763465862
  0
LINE
  5
A6
100
AcDbEntity
  8
1
  6
CONTINUOUS
 62
           7
100
AcDbLine
 10
-186.565678125616
 20
168.363763465862
 11
-186.565678125616
 21
170.863763465862
  0
LINE
  5
A5
100
AcDbEntity
  8
1
  6
CONTINUOUS
 62
           7
100
AcDbLine
 10
-196.505678125616
 20
171.863763465862
 11
-196.505678125616
 21
167.363763465862
  0
ENDBLK
  5
BD
100
AcDbEntity
  8
0
100
AcDbBlockEnd
  0
BLOCK
  5
34
100
AcDbEntity
  8
0
100
AcDbBlockBegin
  2
HEX_BOLT_SIDE__7
 70
           0
 10
0.0
 20
0.0
 30
0.0
  3
HEX_BOLT_SIDE__7
  1

  0
ARC
  5
D5
100
AcDbEntity
  8
1
  6
CONTINUOUS
 62
           7
100
AcDbCircle
 10
-181.005678125338
 20
145.663763465862
 40
0.2
100
AcDbArc
 50
0.0
 51
90.0
  0
ARC
  5
D4
100
AcDbEntity
  8
1
  6
CONTINUOUS
 62
           7
100
AcDbCircle
 10
-181.005678125338
 20
150.063763465862
 40
0.2
100
AcDbArc
 50
-90.0
 51
0.0
  0
LINE
  5
D3
100
AcDbEntity
  8
1
  6
CONTINUOUS
 62
           3
100
AcDbLine
 10
-182.205678125338
 20
146.463763465862
 11
-205.805678125338
 21
146.463763465862
  0
LINE
  5
D2
100
AcDbEntity
  8
1
  6
CONTINUOUS
 62
           3
100
AcDbLine
 10
-182.205678125338
 20
149.263763465862
 11
-205.805678125338
 21
149.263763465862
  0
LINE
  5
D1
100
AcDbEntity
  8
1
  6
CONTINUOUS
 62
           3
100
AcDbLine
 10
-182.205678125338
 20
146.463763465862
 11
-181.166447640797
 21
145.863763465862
  0
LINE
  5
D0
100
AcDbEntity
  8
1
  6
CONTINUOUS
 62
           3
100
AcDbLine
 10
-182.205678125338
 20
149.263763465862
 11
-181.166447640797
 21
149.863763465862
  0
LINE
  5
CF
100
AcDbEntity
  8
1
  6
CONTINUOUS
 62
           7
100
AcDbLine
 10
-180.805678125338
 20
150.063763465862
 11
-180.805678125338
 21
145.663763465862
  0
LINE
  5
CE
100
AcDbEntity
  8
1
  6
CONTINUOUS
 62
           7
100
AcDbLine
 10
-180.805678125338
 20
144.363763465862
 11
-177.105678125338
 21
144.363763465862
  0
LINE
  5
CD
100
AcDbEntity
  8
1
  6
CONTINUOUS
 62
           7
100
AcDbLine
 10
-177.105678125338
 20
144.363763465862
 11
-176.805678125338
 21
144.663763465862
  0
LINE
  5
CC
100
AcDbEntity
  8
1
  6
CONTINUOUS
 62
           7
100
AcDbLine
 10
-176.805678125338
 20
144.663763465862
 11
-176.805678125338
 21
151.063763465862
  0
LINE
  5
CB
100
AcDbEntity
  8
1
  6
CONTINUOUS
 62
           7
100
AcDbLine
 10
-176.805678125338
 20
151.063763465862
 11
-177.105678125338
 21
151.363763465862
  0
LINE
  5
CA
100
AcDbEntity
  8
1
  6
CONTINUOUS
 62
           7
100
AcDbLine
 10
-177.105678125338
 20
151.363763465862
 11
-180.805678125338
 21
151.363763465862
  0
LINE
  5
C9
100
AcDbEntity
  8
1
  6
CONTINUOUS
 62
           7
100
AcDbLine
 10
-180.805678125338
 20
151.363763465862
 11
-180.805678125338
 21
150.063763465862
  0
LINE
  5
C8
100
AcDbEntity
  8
1
  6
CONTINUOUS
 62
           7
100
AcDbLine
 10
-181.005678125338
 20
149.863763465862
 11
-182.205678125338
 21
149.863763465862
  0
LINE
  5
C7
100
AcDbEntity
  8
1
  6
CONTINUOUS
 62
           7
100
AcDbLine
 10
-205.205678125338
 20
149.863763465862
 11
-205.805678125338
 21
149.263763465862
  0
LINE
  5
C6
100
AcDbEntity
  8
1
  6
CONTINUOUS
 62
           7
100
AcDbLine
 10
-205.805678125338
 20
149.263763465862
 11
-205.805678125338
 21
146.463763465862
  0
LINE
  5
C5
100
AcDbEntity
  8
1
  6
CONTINUOUS
 62
           7
100
AcDbLine
 10
-205.805678125338
 20
146.463763465862
 11
-205.205678125338
 21
145.863763465862
  0
LINE
  5
C4
100
AcDbEntity
  8
1
  6
CONTINUOUS
 62
           7
100
AcDbLine
 10
-205.205678125338
 20
145.863763465862
 11
-182.205678125338
 21
145.863763465862
  0
LINE
  5
C3
100
AcDbEntity
  8
1
  6
CONTINUOUS
 62
           7
100
AcDbLine
 10
-180.805678125338
 20
145.663763465862
 11
-180.805678125338
 21
144.363763465862
  0
LINE
  5
C2
100
AcDbEntity
  8
1
  6
CONTINUOUS
 62
           7
100
AcDbLine
 10
-182.205678125338
 20
145.863763465862
 11
-182.205678125338
 21
149.863763465862
  0
LINE
  5
C1
100
AcDbEntity
  8
1
  6
CONTINUOUS
 62
           7
100
AcDbLine
 10
-182.205678125338
 20
149.863763465862
 11
-205.205678125338
 21
149.863763465862
  0
LINE
  5
C0
100
AcDbEntity
  8
1
  6
CONTINUOUS
 62
           7
100
AcDbLine
 10
-182.205678125338
 20
145.863763465862
 11
-181.005678125338
 21
145.863763465862
  0
LINE
  5
BF
100
AcDbEntity
  8
1
  6
CONTINUOUS
 62
           7
100
AcDbLine
 10
-205.205678125338
 20
149.863763465862
 11
-205.205678125338
 21
145.863763465862
  0
LINE
  5
BE
100
AcDbEntity
  8
1
  6
CONTINUOUS
 62
           7
100
AcDbLine
 10
-177.105678125338
 20
144.363763465862
 11
-177.105678125338
 21
151.363763465862
  0
ENDBLK
  5
D6
100
AcDbEntity
  8
0
100
AcDbBlockEnd
  0
BLOCK
  5
36
100
AcDbEntity
  8
0
100
AcDbBlockBegin
  2
HEX_BOLT_SIDE__8
 70
           0
 10
0.0
 20
0.0
 30
0.0
  3
HEX_BOLT_SIDE__8
  1

  0
ARC
  5
F1
100
AcDbEntity
  8
1
  6
CONTINUOUS
 62
           7
100
AcDbCircle
 10
-184.705678125479
 20
203.633763465862
 40
0.1
100
AcDbArc
 50
180.0
 51
-90.0
  0
ARC
  5
F0
100
AcDbEntity
  8
1
  6
CONTINUOUS
 62
           7
100
AcDbCircle
 10
-184.705678125479
 20
200.933763465862
 40
0.1
100
AcDbArc
 50
90.0
 51
180.0
  0
LINE
  5
EF
100
AcDbEntity
  8
1
  6
CONTINUOUS
 62
           3
100
AcDbLine
 10
-184.00567812548
 20
203.173763465862
 11
-176.805678125479
 21
203.173763465862
  0
LINE
  5
EE
100
AcDbEntity
  8
1
  6
CONTINUOUS
 62
           3
100
AcDbLine
 10
-184.00567812548
 20
201.393763465862
 11
-176.805678125479
 21
201.393763465862
  0
LINE
  5
ED
100
AcDbEntity
  8
1
  6
CONTINUOUS
 62
           3
100
AcDbLine
 10
-184.00567812548
 20
203.173763465862
 11
-184.629216416204
 21
203.533763465862
  0
LINE
  5
EC
100
AcDbEntity
  8
1
  6
CONTINUOUS
 62
           3
100
AcDbLine
 10
-184.00567812548
 20
201.393763465862
 11
-184.629216416204
 21
201.033763465862
  0
LINE
  5
EB
100
AcDbEntity
  8
1
  6
CONTINUOUS
 62
           7
100
AcDbLine
 10
-184.805678125479
 20
202.283763465862
 11
-184.805678125479
 21
203.533763465862
  0
LINE
  5
EA
100
AcDbEntity
  8
1
  6
CONTINUOUS
 62
           7
100
AcDbLine
 10
-184.805678125479
 20
204.533763465862
 11
-187.10567812548
 21
204.533763465862
  0
LINE
  5
E9
100
AcDbEntity
  8
1
  6
CONTINUOUS
 62
           7
100
AcDbLine
 10
-187.10567812548
 20
204.533763465862
 11
-187.305678125479
 21
204.333763465862
  0
LINE
  5
E8
100
AcDbEntity
  8
1
  6
CONTINUOUS
 62
           7
100
AcDbLine
 10
-187.305678125479
 20
204.333763465862
 11
-187.305678125479
 21
200.233763465862
  0
LINE
  5
E7
100
AcDbEntity
  8
1
  6
CONTINUOUS
 62
           7
100
AcDbLine
 10
-187.305678125479
 20
200.233763465862
 11
-187.10567812548
 21
200.033763465862
  0
LINE
  5
E6
100
AcDbEntity
  8
1
  6
CONTINUOUS
 62
           7
100
AcDbLine
 10
-187.10567812548
 20
200.033763465862
 11
-184.805678125479
 21
200.033763465862
  0
LINE
  5
E5
100
AcDbEntity
  8
1
  6
CONTINUOUS
 62
           7
100
AcDbLine
 10
-184.805678125479
 20
200.033763465862
 11
-184.805678125479
 21
200.933763465862
  0
LINE
  5
E4
100
AcDbEntity
  8
1
  6
CONTINUOUS
 62
           7
100
AcDbLine
 10
-184.705678125479
 20
201.033763465862
 11
-184.00567812548
 21
201.033763465862
  0
LINE
  5
E3
100
AcDbEntity
  8
1
  6
CONTINUOUS
 62
           7
100
AcDbLine
 10
-184.805678125479
 20
201.033763465862
 11
-184.805678125479
 21
202.283763465862
  0
LINE
  5
E2
100
AcDbEntity
  8
1
  6
CONTINUOUS
 62
           7
100
AcDbLine
 10
-177.16567812548
 20
201.033763465862
 11
-176.805678125479
 21
201.393763465862
  0
LINE
  5
E1
100
AcDbEntity
  8
1
  6
CONTINUOUS
 62
           7
100
AcDbLine
 10
-176.805678125479
 20
201.393763465862
 11
-176.805678125479
 21
203.173763465862
  0
LINE
  5
E0
100
AcDbEntity
  8
1
  6
CONTINUOUS
 62
           7
100
AcDbLine
 10
-176.805678125479
 20
203.173763465862
 11
-177.16567812548
 21
203.533763465862
  0
LINE
  5
DF
100
AcDbEntity
  8
1
  6
CONTINUOUS
 62
           7
100
AcDbLine
 10
-177.16567812548
 20
203.533763465862
 11
-184.00567812548
 21
203.533763465862
  0
LINE
  5
DE
100
AcDbEntity
  8
1
  6
CONTINUOUS
 62
           7
100
AcDbLine
 10
-184.805678125479
 20
203.633763465862
 11
-184.805678125479
 21
204.533763465862
  0
LINE
  5
DD
100
AcDbEntity
  8
1
  6
CONTINUOUS
 62
           7
100
AcDbLine
 10
-184.00567812548
 20
203.533763465862
 11
-184.00567812548
 21
201.033763465862
  0
LINE
  5
DC
100
AcDbEntity
  8
1
  6
CONTINUOUS
 62
           7
100
AcDbLine
 10
-184.00567812548
 20
201.033763465862
 11
-177.16567812548
 21
201.033763465862
  0
LINE
  5
DB
100
AcDbEntity
  8
1
  6
CONTINUOUS
 62
           7
100
AcDbLine
 10
-184.00567812548
 20
203.533763465862
 11
-184.705678125479
 21
203.533763465862
  0
LINE
  5
DA
100
AcDbEntity
  8
1
  6
CONTINUOUS
 62
           7
100
AcDbLine
 10
-177.16567812548
 20
201.033763465862
 11
-177.16567812548
 21
203.533763465862
  0
LINE
  5
D9
100
AcDbEntity
  8
1
  6
CONTINUOUS
 62
           7
100
AcDbLine
 10
-187.10567812548
 20
204.533763465862
 11
-187.10567812548
 21
200.033763465862
  0
LINE
  5
D8
100
AcDbEntity
  8
1
  6
CONTINUOUS
 62
           7
100
AcDbLine
 10
-184.805678125479
 20
203.533763465862
 11
-184.805678125479
 21
203.633763465862
  0
LINE
  5
D7
100
AcDbEntity
  8
1
  6
CONTINUOUS
 62
           7
100
AcDbLine
 10
-184.805678125479
 20
201.033763465862
 11
-184.805678125479
 21
200.933763465862
  0
ENDBLK
  5
F2
100
AcDbEntity
  8
0
100
AcDbBlockEnd
  0
BLOCK
  5
38
100
AcDbEntity
  8
0
100
AcDbBlockBegin
  2
HEX_BOLT_SIDE__9
 70
           0
 10
0.0
 20
0.0
 30
0.0
  3
HEX_BOLT_SIDE__9
  1

  0
LINE
  5
F9
100
AcDbEntity
  8
1
  6
CONTINUOUS
 62
           7
100
AcDbLine
 10
-230.90567812739
 20
206.613763465862
 11
-233.70567812739
 21
206.613763465862
  0
LINE
  5
F8
100
AcDbEntity
  8
1
  6
CONTINUOUS
 62
           7
100
AcDbLine
 10
-233.70567812739
 20
206.613763465862
 11
-233.90567812739
 21
206.413763465862
  0
LINE
  5
F7
100
AcDbEntity
  8
1
  6
CONTINUOUS
 62
           7
100
AcDbLine
 10
-233.90567812739
 20
206.413763465862
 11
-233.90567812739
 21
201.313763465862
  0
LINE
  5
F6
100
AcDbEntity
  8
1
  6
CONTINUOUS
 62
           7
100
AcDbLine
 10
-233.90567812739
 20
201.313763465862
 11
-233.70567812739
 21
201.113763465862
  0
LINE
  5
F5
100
AcDbEntity
  8
1
  6
CONTINUOUS
 62
           7
100
AcDbLine
 10
-233.70567812739
 20
201.113763465862
 11
-230.90567812739
 21
201.113763465862
  0
LINE
  5
F4
100
AcDbEntity
  8
1
  6
CONTINUOUS
 62
           7
100
AcDbLine
 10
-233.70567812739
 20
206.613763465862
 11
-233.70567812739
 21
201.113763465862
  0
LINE
  5
F3
100
AcDbEntity
  8
1
  6
CONTINUOUS
 62
           7
100
AcDbLine
 10
-230.90567812739
 20
206.613763465862
 11
-230.90567812739
 21
201.113763465862
  0
ENDBLK
  5
FA
100
AcDbEntity
  8
0
100
AcDbBlockEnd
  0
BLOCK
  5
3A
100
AcDbEntity
  8
0
100
AcDbBlockBegin
  2
HEX_BOLT_TOP__10
 70
           0
 10
0.0
 20
0.0
 30
0.0
  3
HEX_BOLT_TOP__10
  1

  0
CIRCLE
  5
102
100
AcDbEntity
  8
1
  6
CONTINUOUS
 62
           7
100
AcDbCircle
 10
-302.52200210284
 20
196.980772823746
 40
2.75
  0
CIRCLE
  5
101
100
AcDbEntity
  8
1
  6
CONTINUOUS
 62
           7
100
AcDbCircle
 10
-302.52200210284
 20
196.980772823746
 40
2.403589838486
  0
LINE
  5
100
100
AcDbEntity
  8
1
  6
CONTINUOUS
 62
           7
100
AcDbLine
 10
-301.800314266353
 20
195.730772823746
 11
-301.078626429866
 21
196.980772823746
  0
LINE
  5
FF
100
AcDbEntity
  8
1
  6
CONTINUOUS
 62
           7
100
AcDbLine
 10
-301.078626429866
 20
196.980772823746
 11
-301.800314266353
 21
198.230772823746
  0
LINE
  5
FE
100
AcDbEntity
  8
1
  6
CONTINUOUS
 62
           7
100
AcDbLine
 10
-301.800314266353
 20
198.230772823746
 11
-303.243689939327
 21
198.230772823746
  0
LINE
  5
FD
100
AcDbEntity
  8
1
  6
CONTINUOUS
 62
           7
100
AcDbLine
 10
-303.243689939327
 20
198.230772823746
 11
-303.965377775814
 21
196.980772823746
  0
LINE
  5
FC
100
AcDbEntity
  8
1
  6
CONTINUOUS
 62
           7
100
AcDbLine
 10
-303.965377775814
 20
196.980772823746
 11
-303.243689939327
 21
195.730772823746
  0
LINE
  5
FB
100
AcDbEntity
  8
1
  6
CONTINUOUS
 62
           7
100
AcDbLine
 10
-303.243689939327
 20
195.730772823746
 11
-301.800314266353
 21
195.730772823746
  0
ENDBLK
  5
103
100
AcDbEntity
  8
0
100
AcDbBlockEnd
  0
BLOCK
  5
3C
100
AcDbEntity
  8
0
100
AcDbBlockBegin
  2
HEX_BOLT_TOP__11
 70
           0
 10
0.0
 20
0.0
 30
0.0
  3
HEX_BOLT_TOP__11
  1

  0
CIRCLE
  5
10B
100
AcDbEntity
  8
1
  6
CONTINUOUS
 62
           7
100
AcDbCircle
 10
-295.639011460724
 20
180.363763465862
 40
2.75
  0
CIRCLE
  5
10A
100
AcDbEntity
  8
1
  6
CONTINUOUS
 62
           7
100
AcDbCircle
 10
-295.639011460724
 20
180.363763465862
 40
2.403589838486
  0
LINE
  5
109
100
AcDbEntity
  8
1
  6
CONTINUOUS
 62
           7
100
AcDbLine
 10
-294.917323624237
 20
179.113763465862
 11
-294.19563578775
 21
180.363763465862
  0
LINE
  5
108
100
AcDbEntity
  8
1
  6
CONTINUOUS
 62
           7
100
AcDbLine
 10
-294.19563578775
 20
180.363763465862
 11
-294.917323624237
 21
181.613763465862
  0
LINE
  5
107
100
AcDbEntity
  8
1
  6
CONTINUOUS
 62
           7
100
AcDbLine
 10
-294.917323624237
 20
181.613763465862
 11
-296.360699297211
 21
181.613763465862
  0
LINE
  5
106
100
AcDbEntity
  8
1
  6
CONTINUOUS
 62
           7
100
AcDbLine
 10
-296.360699297211
 20
181.613763465862
 11
-297.082387133698
 21
180.363763465862
  0
LINE
  5
105
100
AcDbEntity
  8
1
  6
CONTINUOUS
 62
           7
100
AcDbLine
 10
-297.082387133698
 20
180.363763465862
 11
-296.360699297211
 21
179.113763465862
  0
LINE
  5
104
100
AcDbEntity
  8
1
  6
CONTINUOUS
 62
           7
100
AcDbLine
 10
-296.360699297211
 20
179.113763465862
 11
-294.917323624237
 21
179.113763465862
  0
ENDBLK
  5
10C
100
AcDbEntity
  8
0
100
AcDbBlockEnd
  0
BLOCK
  5
3E
100
AcDbEntity
  8
0
100
AcDbBlockBegin
  2
HEX_BOLT_TOP__12
 70
           0
 10
0.0
 20
0.0
 30
0.0
  3
HEX_BOLT_TOP__12
  1

  0
CIRCLE
  5
114
100
AcDbEntity
  8
1
  6
CONTINUOUS
 62
           7
100
AcDbCircle
 10
-302.52200210284
 20
163.746754107978
 40
2.75
  0
CIRCLE
  5
113
100
AcDbEntity
  8
1
  6
CONTINUOUS
 62
           7
100
AcDbCircle
 10
-302.52200210284
 20
163.746754107978
 40
2.403589838486
  0
LINE
  5
112
100
AcDbEntity
  8
1
  6
CONTINUOUS
 62
           7
100
AcDbLine
 10
-301.800314266353
 20
162.496754107978
 11
-301.078626429866
 21
163.746754107978
  0
LINE
  5
111
100
AcDbEntity
  8
1
  6
CONTINUOUS
 62
           7
100
AcDbLine
 10
-301.078626429866
 20
163.746754107978
 11
-301.800314266353
 21
164.996754107978
  0
LINE
  5
110
100
AcDbEntity
  8
1
  6
CONTINUOUS
 62
           7
100
AcDbLine
 10
-301.800314266353
 20
164.996754107978
 11
-303.243689939327
 21
164.996754107978
  0
LINE
  5
10F
100
AcDbEntity
  8
1
  6
CONTINUOUS
 62
           7
100
AcDbLine
 10
-303.243689939327
 20
164.996754107978
 11
-303.965377775814
 21
163.746754107978
  0
LINE
  5
10E
100
AcDbEntity
  8
1
  6
CONTINUOUS
 62
           7
100
AcDbLine
 10
-303.965377775814
 20
163.746754107978
 11
-303.243689939327
 21
162.496754107978
  0
LINE
  5
10D
100
AcDbEntity
  8
1
  6
CONTINUOUS
 62
           7
100
AcDbLine
 10
-303.243689939327
 20
162.496754107978
 11
-301.800314266353
 21
162.496754107978
  0
ENDBLK
  5
115
100
AcDbEntity
  8
0
100
AcDbBlockEnd
  0
BLOCK
  5
40
100
AcDbEntity
  8
0
100
AcDbBlockBegin
  2
HEX_BOLT_TOP__13
 70
           0
 10
0.0
 20
0.0
 30
0.0
  3
HEX_BOLT_TOP__13
  1

  0
CIRCLE
  5
11D
100
AcDbEntity
  8
1
  6
CONTINUOUS
 62
           7
100
AcDbCircle
 10
-319.139011460724
 20
156.863763465862
 40
2.75
  0
CIRCLE
  5
11C
100
AcDbEntity
  8
1
  6
CONTINUOUS
 62
           7
100
AcDbCircle
 10
-319.139011460724
 20
156.863763465862
 40
2.403589838486
  0
LINE
  5
11B
100
AcDbEntity
  8
1
  6
CONTINUOUS
 62
           7
100
AcDbLine
 10
-318.417323624236
 20
155.613763465862
 11
-317.69563578775
 21
156.863763465862
  0
LINE
  5
11A
100
AcDbEntity
  8
1
  6
CONTINUOUS
 62
           7
100
AcDbLine
 10
-317.69563578775
 20
156.863763465862
 11
-318.417323624236
 21
158.113763465862
  0
LINE
  5
119
100
AcDbEntity
  8
1
  6
CONTINUOUS
 62
           7
100
AcDbLine
 10
-318.417323624236
 20
158.113763465862
 11
-319.860699297211
 21
158.113763465862
  0
LINE
  5
118
100
AcDbEntity
  8
1
  6
CONTINUOUS
 62
           7
100
AcDbLine
 10
-319.860699297211
 20
158.113763465862
 11
-320.582387133698
 21
156.863763465862
  0
LINE
  5
117
100
AcDbEntity
  8
1
  6
CONTINUOUS
 62
           7
100
AcDbLine
 10
-320.582387133698
 20
156.863763465862
 11
-319.860699297211
 21
155.613763465862
  0
LINE
  5
116
100
AcDbEntity
  8
1
  6
CONTINUOUS
 62
           7
100
AcDbLine
 10
-319.860699297211
 20
155.613763465862
 11
-318.417323624236
 21
155.613763465862
  0
ENDBLK
  5
11E
100
AcDbEntity
  8
0
100
AcDbBlockEnd
  0
BLOCK
  5
42
100
AcDbEntity
  8
0
100
AcDbBlockBegin
  2
HEX_BOLT_TOP__14
 70
           0
 10
0.0
 20
0.0
 30
0.0
  3
HEX_BOLT_TOP__14
  1

  0
CIRCLE
  5
126
100
AcDbEntity
  8
1
  6
CONTINUOUS
 62
           7
100
AcDbCircle
 10
-335.756020818608
 20
163.746754107978
 40
2.75
  0
CIRCLE
  5
125
100
AcDbEntity
  8
1
  6
CONTINUOUS
 62
           7
100
AcDbCircle
 10
-335.756020818608
 20
163.746754107978
 40
2.403589838486
  0
LINE
  5
124
100
AcDbEntity
  8
1
  6
CONTINUOUS
 62
           7
100
AcDbLine
 10
-335.034332982121
 20
162.496754107978
 11
-334.312645145634
 21
163.746754107978
  0
LINE
  5
123
100
AcDbEntity
  8
1
  6
CONTINUOUS
 62
           7
100
AcDbLine
 10
-334.312645145634
 20
163.746754107978
 11
-335.034332982121
 21
164.996754107978
  0
LINE
  5
122
100
AcDbEntity
  8
1
  6
CONTINUOUS
 62
           7
100
AcDbLine
 10
-335.034332982121
 20
164.996754107978
 11
-336.477708655095
 21
164.996754107978
  0
LINE
  5
121
100
AcDbEntity
  8
1
  6
CONTINUOUS
 62
           7
100
AcDbLine
 10
-336.477708655095
 20
164.996754107978
 11
-337.199396491582
 21
163.746754107978
  0
LINE
  5
120
100
AcDbEntity
  8
1
  6
CONTINUOUS
 62
           7
100
AcDbLine
 10
-337.199396491582
 20
163.746754107978
 11
-336.477708655095
 21
162.496754107978
  0
LINE
  5
11F
100
AcDbEntity
  8
1
  6
CONTINUOUS
 62
           7
100
AcDbLine
 10
-336.477708655095
 20
162.496754107978
 11
-335.034332982121
 21
162.496754107978
  0
ENDBLK
  5
127
100
AcDbEntity
  8
0
100
AcDbBlockEnd
  0
BLOCK
  5
44
100
AcDbEntity
  8
0
100
AcDbBlockBegin
  2
HEX_BOLT_TOP__15
 70
           0
 10
0.0
 20
0.0
 30
0.0
  3
HEX_BOLT_TOP__15
  1

  0
CIRCLE
  5
12F
100
AcDbEntity
  8
1
  6
CONTINUOUS
 62
           7
100
AcDbCircle
 10
-342.639011460724
 20
180.363763465862
 40
2.75
  0
CIRCLE
  5
12E
100
AcDbEntity
  8
1
  6
CONTINUOUS
 62
           7
100
AcDbCircle
 10
-342.639011460724
 20
180.363763465862
 40
2.403589838486
  0
LINE
  5
12D
100
AcDbEntity
  8
1
  6
CONTINUOUS
 62
           7
100
AcDbLine
 10
-341.917323624236
 20
179.113763465862
 11
-341.195635787749
 21
180.363763465862
  0
LINE
  5
12C
100
AcDbEntity
  8
1
  6
CONTINUOUS
 62
           7
100
AcDbLine
 10
-341.195635787749
 20
180.363763465862
 11
-341.917323624236
 21
181.613763465862
  0
LINE
  5
12B
100
AcDbEntity
  8
1
  6
CONTINUOUS
 62
           7
100
AcDbLine
 10
-341.917323624236
 20
181.613763465862
 11
-343.36069929721
 21
181.613763465862
  0
LINE
  5
12A
100
AcDbEntity
  8
1
  6
CONTINUOUS
 62
           7
100
AcDbLine
 10
-343.36069929721
 20
181.613763465862
 11
-344.082387133698
 21
180.363763465862
  0
LINE
  5
129
100
AcDbEntity
  8
1
  6
CONTINUOUS
 62
           7
100
AcDbLine
 10
-344.082387133698
 20
180.363763465862
 11
-343.36069929721
 21
179.113763465862
  0
LINE
  5
128
100
AcDbEntity
  8
1
  6
CONTINUOUS
 62
           7
100
AcDbLine
 10
-343.36069929721
 20
179.113763465862
 11
-341.917323624236
 21
179.113763465862
  0
ENDBLK
  5
130
100
AcDbEntity
  8
0
100
AcDbBlockEnd
  0
BLOCK
  5
46
100
AcDbEntity
  8
0
100
AcDbBlockBegin
  2
HEX_BOLT_TOP__16
 70
           0
 10
0.0
 20
0.0
 30
0.0
  3
HEX_BOLT_TOP__16
  1

  0
CIRCLE
  5
138
100
AcDbEntity
  8
1
  6
CONTINUOUS
 62
           7
100
AcDbCircle
 10
-335.756020818608
 20
196.980772823746
 40
2.75
  0
CIRCLE
  5
137
100
AcDbEntity
  8
1
  6
CONTINUOUS
 62
           7
100
AcDbCircle
 10
-335.756020818608
 20
196.980772823746
 40
2.403589838486
  0
LINE
  5
136
100
AcDbEntity
  8
1
  6
CONTINUOUS
 62
           7
100
AcDbLine
 10
-335.03433298212
 20
195.730772823746
 11
-334.312645145633
 21
196.980772823746
  0
LINE
  5
135
100
AcDbEntity
  8
1
  6
CONTINUOUS
 62
           7
100
AcDbLine
 10
-334.312645145633
 20
196.980772823746
 11
-335.03433298212
 21
198.230772823746
  0
LINE
  5
134
100
AcDbEntity
  8
1
  6
CONTINUOUS
 62
           7
100
AcDbLine
 10
-335.03433298212
 20
198.230772823746
 11
-336.477708655094
 21
198.230772823746
  0
LINE
  5
133
100
AcDbEntity
  8
1
  6
CONTINUOUS
 62
           7
100
AcDbLine
 10
-336.477708655094
 20
198.230772823746
 11
-337.199396491582
 21
196.980772823746
  0
LINE
  5
132
100
AcDbEntity
  8
1
  6
CONTINUOUS
 62
           7
100
AcDbLine
 10
-337.199396491582
 20
196.980772823746
 11
-336.477708655094
 21
195.730772823746
  0
LINE
  5
131
100
AcDbEntity
  8
1
  6
CONTINUOUS
 62
           7
100
AcDbLine
 10
-336.477708655094
 20
195.730772823746
 11
-335.03433298212
 21
195.730772823746
  0
ENDBLK
  5
139
100
AcDbEntity
  8
0
100
AcDbBlockEnd
  0
BLOCK
  5
48
100
AcDbEntity
  8
0
100
AcDbBlockBegin
  2
HEX_BOLT_TOP__17
 70
           0
 10
0.0
 20
0.0
 30
0.0
  3
HEX_BOLT_TOP__17
  1

  0
CIRCLE
  5
141
100
AcDbEntity
  8
1
  6
CONTINUOUS
 62
           7
100
AcDbCircle
 10
-319.139011460724
 20
203.863763465862
 40
2.75
  0
CIRCLE
  5
140
100
AcDbEntity
  8
1
  6
CONTINUOUS
 62
           7
100
AcDbCircle
 10
-319.139011460724
 20
203.863763465862
 40
2.403589838486
  0
LINE
  5
13F
100
AcDbEntity
  8
1
  6
CONTINUOUS
 62
           7
100
AcDbLine
 10
-318.417323624236
 20
202.613763465862
 11
-317.69563578775
 21
203.863763465862
  0
LINE
  5
13E
100
AcDbEntity
  8
1
  6
CONTINUOUS
 62
           7
100
AcDbLine
 10
-317.69563578775
 20
203.863763465862
 11
-318.417323624236
 21
205.113763465862
  0
LINE
  5
13D
100
AcDbEntity
  8
1
  6
CONTINUOUS
 62
           7
100
AcDbLine
 10
-318.417323624236
 20
205.113763465862
 11
-319.860699297211
 21
205.113763465862
  0
LINE
  5
13C
100
AcDbEntity
  8
1
  6
CONTINUOUS
 62
           7
100
AcDbLine
 10
-319.860699297211
 20
205.113763465862
 11
-320.582387133698
 21
203.863763465862
  0
LINE
  5
13B
100
AcDbEntity
  8
1
  6
CONTINUOUS
 62
           7
100
AcDbLine
 10
-320.582387133698
 20
203.863763465862
 11
-319.860699297211
 21
202.613763465862
  0
LINE
  5
13A
100
AcDbEntity
  8
1
  6
CONTINUOUS
 62
           7
100
AcDbLine
 10
-319.860699297211
 20
202.613763465862
 11
-318.417323624236
 21
202.613763465862
  0
ENDBLK
  5
142
100
AcDbEntity
  8
0
100
AcDbBlockEnd
  0
BLOCK
  5
4A
100
AcDbEntity
  8
0
100
AcDbBlockBegin
  2
HEX_BOLT_SIDE__18
 70
           0
 10
0.0
 20
0.0
 30
0.0
  3
HEX_BOLT_SIDE__18
  1

  0
ARC
  5
153
100
AcDbEntity
  8
1
  6
CONTINUOUS
 62
           7
100
AcDbCircle
 10
-218.605678073223
 20
186.663763465862
 40
0.2
100
AcDbArc
 50
0.0
 51
90.0
  0
LINE
  5
152
100
AcDbEntity
  8
1
  6
CONTINUOUS
 62
           3
100
AcDbLine
 10
-219.805678073223
 20
187.463763465862
 11
-230.405678073223
 21
187.463763465862
  0
LINE
  5
151
100
AcDbEntity
  8
1
  6
CONTINUOUS
 62
           3
100
AcDbLine
 10
-219.805678073223
 20
187.463763465862
 11
-218.766447588682
 21
186.863763465862
  0
LINE
  5
150
100
AcDbEntity
  8
1
  6
CONTINUOUS
 62
           7
100
AcDbLine
 10
-218.405678073223
 20
185.363763465862
 11
-214.705678073223
 21
185.363763465862
  0
LINE
  5
14F
100
AcDbEntity
  8
1
  6
CONTINUOUS
 62
           7
100
AcDbLine
 10
-214.705678073223
 20
185.363763465862
 11
-214.405678073223
 21
185.663763465862
  0
LINE
  5
14E
100
AcDbEntity
  8
1
  6
CONTINUOUS
 62
           7
100
AcDbLine
 10
-214.405678073223
 20
185.663763465862
 11
-214.405678073223
 21
190.337981094116
  0
LINE
  5
14D
100
AcDbEntity
  8
1
  6
CONTINUOUS
 62
           7
100
AcDbLine
 10
-230.405678073223
 20
190.263763465862
 11
-230.405678073223
 21
187.463763465862
  0
LINE
  5
14C
100
AcDbEntity
  8
1
  6
CONTINUOUS
 62
           7
100
AcDbLine
 10
-230.405678073223
 20
187.463763465862
 11
-229.805678073223
 21
186.863763465862
  0
LINE
  5
14B
100
AcDbEntity
  8
1
  6
CONTINUOUS
 62
           7
100
AcDbLine
 10
-229.805678073223
 20
186.863763465862
 11
-219.805678073223
 21
186.863763465862
  0
LINE
  5
14A
100
AcDbEntity
  8
1
  6
CONTINUOUS
 62
           7
100
AcDbLine
 10
-218.405678073223
 20
186.663763465862
 11
-218.405678073223
 21
185.363763465862
  0
LINE
  5
149
100
AcDbEntity
  8
1
  6
CONTINUOUS
 62
           7
100
AcDbLine
 10
-219.805678073223
 20
186.863763465862
 11
-219.805678073223
 21
188.228964245183
  0
LINE
  5
148
100
AcDbEntity
  8
1
  6
CONTINUOUS
 62
           7
100
AcDbLine
 10
-219.805678073223
 20
186.863763465862
 11
-218.605678073223
 21
186.863763465862
  0
LINE
  5
147
100
AcDbEntity
  8
1
  6
CONTINUOUS
 62
           7
100
AcDbLine
 10
-214.705678073223
 20
185.363763465862
 11
-214.705678073223
 21
190.141719951533
  0
LINE
  5
146
100
AcDbEntity
  8
1
  6
CONTINUOUS
 62
           7
100
AcDbLine
 10
-218.405678073223
 20
186.663763465862
 11
-218.405678073223
 21
188.526659123552
  0
LINE
  5
145
100
AcDbEntity
  8
1
  6
CONTINUOUS
 62
           7
100
AcDbLine
 10
-230.167391285357
 20
190.502050253727
 11
-230.405678073223
 21
190.263763465862
  0
LINE
  5
144
100
AcDbEntity
  8
1
  6
CONTINUOUS
 62
           7
100
AcDbLine
 10
-229.805678073223
 20
190.264714185618
 11
-229.805678073223
 21
186.863763465862
  0
LINE
  5
143
100
AcDbEntity
  8
1
  6
CONTINUOUS
 62
           3
100
AcDbLine
 10
-229.804177555767
 20
190.263763465862
 11
-230.405678073223
 21
190.263763465862
  0
ENDBLK
  5
154
100
AcDbEntity
  8
0
100
AcDbBlockEnd
  0
BLOCK
  5
4C
100
AcDbEntity
  8
0
100
AcDbBlockBegin
  2
100144641__19
 70
           0
 10
0.0
 20
0.0
 30
0.0
  3
100144641__19
  1

  0
HATCH
  5
18C
100
AcDbEntity
  8
0
  6
CONTINUOUS
 62
           7
100
AcDbHatch
 10
0.0
 20
0.0
 30
0.0
210
0.0
220
0.0
230
1.0
  2
USER
 70
           0
 71
           1
 91
        1
 92
        1
 93
       10
 72
           1
 10
-197.40567812739019
 20
208.86376346577731
 11
-197.40567812739019
 21
216.86376346577731
 72
           1
 10
-196.80567812739031
 20
207.82453298123599
 11
-197.40567812739019
 21
208.86376346577731
 72
           1
 10
-196.80567812739031
 20
188.36376346586181
 11
-196.80567812739031
 21
207.82453298123599
 72
           1
 10
-198.80567812752639
 20
188.36376346586181
 11
-196.80567812739031
 21
188.36376346586181
 72
           1
 10
-198.80567812752639
 20
199.36376346586181
 11
-198.80567812752639
 21
188.36376346586181
 72
           1
 10
-201.30567812739019
 20
199.36376346586181
 11
-198.80567812752639
 21
199.36376346586181
 72
           1
 10
-201.30567812739019
 20
199.36376346586181
 11
-201.80567812739019
 21
199.86376346586181
 72
           1
 10
-201.80567812739019
 20
216.36376346586181
 11
-201.80567812739019
 21
199.86376346586181
 72
           1
 10
-201.30567812739011
 20
216.86376346586181
 11
-201.80567812739019
 21
216.36376346586181
 72
           1
 10
-197.40567812739019
 20
216.86376346577731
 11
-201.30567812739011
 21
216.86376346586181
 97
       10
330
181
330
180
330
17E
330
167
330
185
330
16B
330
178
330
15B
330
177
330
155
 75
           1
 76
           0
 52
45.0
 41
1.0
 77
           0
 78
           1
 53
45.0
 43
0.0
 44
0.0
 45
-0.7071067811865475
 46
0.7071067811865476
 79
           0
 98
        1
 10
0.0
 20
0.0
  0
HATCH
  5
18B
100
AcDbEntity
  8
0
  6
CONTINUOUS
 62
           7
100
AcDbHatch
 10
0.0
 20
0.0
 30
0.0
210
0.0
220
0.0
230
1.0
  2
USER
 70
           0
 71
           1
 91
        1
 92
        1
 93
        8
 72
           1
 10
-189.30567812547949
 20
216.86376346586181
 11
-188.80567812547949
 21
216.36376346586181
 72
           1
 10
-188.80567812547949
 20
216.36376346586181
 11
-188.80567812547949
 21
188.86376346586181
 72
           1
 10
-189.3056781254796
 20
188.36376346586189
 11
-188.80567812547949
 21
188.86376346586181
 72
           1
 10
-192.00567812739021
 20
188.36376346586181
 11
-189.3056781254796
 21
188.36376346586189
 72
           1
 10
-192.00567812739021
 20
207.82453298123599
 11
-192.00567812739021
 21
188.36376346586181
 72
           1
 10
-191.40567812739019
 20
208.86376346577731
 11
-192.00567812739021
 21
207.82453298123599
 72
           1
 10
-191.40567812739019
 20
216.86376346577731
 11
-191.40567812739019
 21
208.86376346577731
 72
           1
 10
-189.30567812547949
 20
216.86376346586181
 11
-191.40567812739019
 21
216.86376346577731
 97
        8
330
176
330
15D
330
187
330
165
330
159
330
183
330
182
330
175
 75
           1
 76
           0
 52
45.0
 41
1.0
 77
           0
 78
           1
 53
45.0
 43
0.0
 44
0.0
 45
-0.7071067811865475
 46
0.7071067811865476
 79
           0
 98
        1
 10
0.0
 20
0.0
  0
HATCH
  5
18A
100
AcDbEntity
  8
0
  6
CONTINUOUS
 62
           5
100
AcDbHatch
 10
0.0
 20
0.0
 30
0.0
210
0.0
220
0.0
230
1.0
  2
USER
 70
           0
 71
           1
 91
        1
 92
        1
 93
        5
 72
           1
 10
-188.80567812547949
 20
171.86376346586169
 11
-189.3056781254796
 21
172.36376346586169
 72
           1
 10
-188.80567812547949
 20
171.86376346586169
 11
-188.80567812534329
 21
171.0637634658618
 72
           1
 10
-194.20567812561589
 20
171.0637634658618
 11
-188.80567812534329
 21
171.0637634658618
 72
           1
 10
-194.20567812561589
 20
172.36376346586169
 11
-194.20567812561589
 21
171.0637634658618
 72
           1
 10
-194.20567812561589
 20
172.36376346586169
 11
-189.3056781254796
 21
172.36376346586169
 97
        5
330
179
330
16D
330
16E
330
172
330
16A
 75
           1
 76
           0
 52
45.0
 41
1.0
 77
           0
 78
           1
 53
45.0
 43
0.0
 44
0.0
 45
-0.7071067811865475
 46
0.7071067811865476
 79
           0
 98
        1
 10
0.0
 20
0.0
  0
HATCH
  5
189
100
AcDbEntity
  8
0
  6
CONTINUOUS
 62
           5
100
AcDbHatch
 10
0.0
 20
0.0
 30
0.0
210
0.0
220
0.0
230
1.0
  2
USER
 70
           0
 71
           1
 91
        1
 92
        1
 93
        9
 72
           1
 10
-188.80567812534329
 20
168.16376346586179
 11
-188.80567812547949
 21
150.11376346586189
 72
           1
 10
-201.80567812739019
 20
150.11376346586189
 11
-188.80567812547949
 21
150.11376346586189
 72
           1
 10
-201.80567812739019
 20
160.86376346586201
 11
-201.80567812739019
 21
150.11376346586189
 72
           1
 10
-201.80567812739019
 20
160.86376346586201
 11
-201.30567812739019
 21
161.36376346586201
 72
           1
 10
-201.30567812739019
 20
161.36376346586201
 11
-198.80567812752639
 21
161.36376346586201
 72
           1
 10
-198.80567812752639
 20
161.36376346586201
 11
-198.80567812752659
 21
166.86376346586181
 72
           1
 10
-194.20567812561589
 20
166.86376346586181
 11
-198.80567812752659
 21
166.86376346586181
 72
           1
 10
-194.20567812561589
 20
168.16376346586179
 11
-194.20567812561589
 21
166.86376346586181
 72
           1
 10
-194.20567812561589
 20
168.16376346586179
 11
-188.80567812534329
 21
168.16376346586179
 97
        9
330
16C
330
162
330
163
330
17C
330
174
330
186
330
171
330
16F
330
170
 75
           1
 76
           0
 52
45.0
 41
1.0
 77
           0
 78
           1
 53
45.0
 43
0.0
 44
0.0
 45
-0.7071067811865475
 46
0.7071067811865476
 79
           0
 98
        1
 10
0.0
 20
0.0
  0
HATCH
  5
188
100
AcDbEntity
  8
0
  6
CONTINUOUS
 62
           5
100
AcDbHatch
 10
0.0
 20
0.0
 30
0.0
210
0.0
220
0.0
230
1.0
  2
USER
 70
           0
 71
           1
 91
        1
 92
        1
 93
        6
 72
           1
 10
-188.80567812547949
 20
145.61376346586189
 11
-188.80567812547949
 21
144.36376346586189
 72
           1
 10
-188.80567812547949
 20
144.36376346586189
 11
-189.30567812547949
 21
143.86376346586189
 72
           1
 10
-201.30567812739011
 20
143.86376346586181
 11
-189.30567812547949
 21
143.86376346586189
 72
           1
 10
-201.80567812739019
 20
144.36376346586181
 11
-201.30567812739011
 21
143.86376346586181
 72
           1
 10
-201.80567812739019
 20
145.61376346586189
 11
-201.80567812739019
 21
144.36376346586181
 72
           1
 10
-201.80567812739019
 20
145.61376346586189
 11
-188.80567812547949
 21
145.61376346586189
 97
        6
330
160
330
17B
330
173
330
17A
330
15F
330
161
 75
           1
 76
           0
 52
45.0
 41
1.0
 77
           0
 78
           1
 53
45.0
 43
0.0
 44
0.0
 45
-0.7071067811865475
 46
0.7071067811865476
 79
           0
 98
        1
 10
0.0
 20
0.0
  0
LINE
  5
187
100
AcDbEntity
  8
1
  6
CONTINUOUS
 62
           7
100
AcDbLine
 10
-189.30567812548
 20
188.363763465862
 11
-188.805678125479
 21
188.863763465862
  0
LINE
  5
186
100
AcDbEntity
  8
1
  6
CONTINUOUS
 62
           7
100
AcDbLine
 10
-198.805678127526
 20
161.363763465862
 11
-198.805678127527
 21
166.863763465862
  0
LINE
  5
185
100
AcDbEntity
  8
1
  6
CONTINUOUS
 62
           7
100
AcDbLine
 10
-198.805678127526
 20
199.363763465862
 11
-198.805678127526
 21
188.363763465862
  0
LINE
  5
184
100
AcDbEntity
  8
1
  6
DASH_CENTER
 62
           3
100
AcDbLine
 10
-194.40567812739
 20
218.663763465777
 11
-194.40567812739
 21
186.663763465862
  0
LINE
  5
183
100
AcDbEntity
  8
1
  6
CONTINUOUS
 62
           3
100
AcDbLine
 10
-191.40567812739
 20
208.863763465777
 11
-192.00567812739
 21
207.824532981236
  0
LINE
  5
182
100
AcDbEntity
  8
1
  6
CONTINUOUS
 62
           3
100
AcDbLine
 10
-191.40567812739
 20
216.863763465777
 11
-191.40567812739
 21
208.863763465777
  0
LINE
  5
181
100
AcDbEntity
  8
1
  6
CONTINUOUS
 62
           3
100
AcDbLine
 10
-197.40567812739
 20
208.863763465777
 11
-197.40567812739
 21
216.863763465777
  0
LINE
  5
180
100
AcDbEntity
  8
1
  6
CONTINUOUS
 62
           3
100
AcDbLine
 10
-196.80567812739
 20
207.824532981236
 11
-197.40567812739
 21
208.863763465777
  0
LINE
  5
17F
100
AcDbEntity
  8
1
  6
CONTINUOUS
 62
           7
100
AcDbLine
 10
-191.40567812739
 20
208.863763465777
 11
-197.40567812739
 21
208.863763465777
  0
LINE
  5
17E
100
AcDbEntity
  8
1
  6
CONTINUOUS
 62
           7
100
AcDbLine
 10
-196.80567812739
 20
188.363763465862
 11
-196.80567812739
 21
207.824532981236
  0
LINE
  5
17D
100
AcDbEntity
  8
1
  6
CONTINUOUS
 62
           7
100
AcDbLine
 10
-192.00567812739
 20
216.863763465777
 11
-192.00567812739
 21
207.824532981236
  0
LINE
  5
17C
100
AcDbEntity
  8
1
  6
CONTINUOUS
 62
           7
100
AcDbLine
 10
-201.80567812739
 20
160.863763465862
 11
-201.30567812739
 21
161.363763465862
  0
LINE
  5
17B
100
AcDbEntity
  8
1
  6
CONTINUOUS
 62
           7
100
AcDbLine
 10
-188.805678125479
 20
144.363763465862
 11
-189.305678125479
 21
143.863763465862
  0
LINE
  5
17A
100
AcDbEntity
  8
1
  6
CONTINUOUS
 62
           7
100
AcDbLine
 10
-201.80567812739
 20
144.363763465862
 11
-201.30567812739
 21
143.863763465862
  0
LINE
  5
179
100
AcDbEntity
  8
1
  6
CONTINUOUS
 62
           7
100
AcDbLine
 10
-188.805678125479
 20
171.863763465862
 11
-189.30567812548
 21
172.363763465862
  0
LINE
  5
178
100
AcDbEntity
  8
1
  6
CONTINUOUS
 62
           7
100
AcDbLine
 10
-201.30567812739
 20
199.363763465862
 11
-201.80567812739
 21
199.863763465862
  0
LINE
  5
177
100
AcDbEntity
  8
1
  6
CONTINUOUS
 62
           7
100
AcDbLine
 10
-201.30567812739
 20
216.863763465862
 11
-201.80567812739
 21
216.363763465862
  0
LINE
  5
176
100
AcDbEntity
  8
1
  6
CONTINUOUS
 62
           7
100
AcDbLine
 10
-189.305678125479
 20
216.863763465862
 11
-188.805678125479
 21
216.363763465862
  0
LINE
  5
175
100
AcDbEntity
  8
1
  6
CONTINUOUS
 62
           7
100
AcDbLine
 10
-189.305678125479
 20
216.863763465862
 11
-191.40567812739
 21
216.863763465777
  0
LINE
  5
174
100
AcDbEntity
  8
1
  6
CONTINUOUS
 62
           7
100
AcDbLine
 10
-201.30567812739
 20
161.363763465862
 11
-198.805678127526
 21
161.363763465862
  0
LINE
  5
173
100
AcDbEntity
  8
1
  6
CONTINUOUS
 62
           7
100
AcDbLine
 10
-201.30567812739
 20
143.863763465862
 11
-189.305678125479
 21
143.863763465862
  0
LINE
  5
172
100
AcDbEntity
  8
1
  6
CONTINUOUS
 62
           7
100
AcDbLine
 10
-194.205678125616
 20
172.363763465862
 11
-194.205678125616
 21
171.063763465862
  0
LINE
  5
171
100
AcDbEntity
  8
1
  6
CONTINUOUS
 62
           7
100
AcDbLine
 10
-194.205678125616
 20
166.863763465862
 11
-198.805678127527
 21
166.863763465862
  0
LINE
  5
170
100
AcDbEntity
  8
1
  6
CONTINUOUS
 62
           7
100
AcDbLine
 10
-194.205678125616
 20
168.163763465862
 11
-188.805678125343
 21
168.163763465862
  0
LINE
  5
16F
100
AcDbEntity
  8
1
  6
CONTINUOUS
 62
           7
100
AcDbLine
 10
-194.205678125616
 20
168.163763465862
 11
-194.205678125616
 21
166.863763465862
  0
LINE
  5
16E
100
AcDbEntity
  8
1
  6
CONTINUOUS
 62
           7
100
AcDbLine
 10
-194.205678125616
 20
171.063763465862
 11
-188.805678125343
 21
171.063763465862
  0
LINE
  5
16D
100
AcDbEntity
  8
1
  6
CONTINUOUS
 62
           7
100
AcDbLine
 10
-188.805678125479
 20
171.863763465862
 11
-188.805678125343
 21
171.063763465862
  0
LINE
  5
16C
100
AcDbEntity
  8
1
  6
CONTINUOUS
 62
           7
100
AcDbLine
 10
-188.805678125343
 20
168.163763465862
 11
-188.805678125479
 21
150.113763465862
  0
LINE
  5
16B
100
AcDbEntity
  8
1
  6
CONTINUOUS
 62
           7
100
AcDbLine
 10
-201.30567812739
 20
199.363763465862
 11
-198.805678127526
 21
199.363763465862
  0
LINE
  5
16A
100
AcDbEntity
  8
1
  6
CONTINUOUS
 62
           7
100
AcDbLine
 10
-194.205678125616
 20
172.363763465862
 11
-189.30567812548
 21
172.363763465862
  0
LINE
  5
169
100
AcDbEntity
  8
1
  6
CONTINUOUS
 62
           7
100
AcDbLine
 10
-194.205678125616
 20
171.063763465862
 11
-194.205678125616
 21
168.163763465862
  0
LINE
  5
168
100
AcDbEntity
  8
1
  6
CONTINUOUS
 62
           7
100
AcDbLine
 10
-188.805678125343
 20
171.063763465862
 11
-188.805678125343
 21
168.163763465862
  0
LINE
  5
167
100
AcDbEntity
  8
1
  6
CONTINUOUS
 62
           7
100
AcDbLine
 10
-198.805678127526
 20
188.363763465862
 11
-196.80567812739
 21
188.363763465862
  0
LINE
  5
166
100
AcDbEntity
  8
1
  6
CONTINUOUS
 62
           7
100
AcDbLine
 10
-196.80567812739
 20
188.363763465862
 11
-192.00567812739
 21
188.363763465862
  0
LINE
  5
165
100
AcDbEntity
  8
1
  6
CONTINUOUS
 62
           7
100
AcDbLine
 10
-192.00567812739
 20
188.363763465862
 11
-189.30567812548
 21
188.363763465862
  0
LINE
  5
164
100
AcDbEntity
  8
1
  6
CONTINUOUS
 62
           7
100
AcDbLine
 10
-194.205678125616
 20
172.363763465862
 11
-194.205678125616
 21
172.851273865203
  0
LINE
  5
163
100
AcDbEntity
  8
1
  6
CONTINUOUS
 62
           7
100
AcDbLine
 10
-201.80567812739
 20
160.863763465862
 11
-201.80567812739
 21
150.113763465862
  0
LINE
  5
162
100
AcDbEntity
  8
1
  6
CONTINUOUS
 62
           7
100
AcDbLine
 10
-201.80567812739
 20
150.113763465862
 11
-188.805678125479
 21
150.113763465862
  0
LINE
  5
161
100
AcDbEntity
  8
1
  6
CONTINUOUS
 62
           7
100
AcDbLine
 10
-201.80567812739
 20
145.613763465862
 11
-188.805678125479
 21
145.613763465862
  0
LINE
  5
160
100
AcDbEntity
  8
1
  6
CONTINUOUS
 62
           7
100
AcDbLine
 10
-188.805678125479
 20
145.613763465862
 11
-188.805678125479
 21
144.363763465862
  0
LINE
  5
15F
100
AcDbEntity
  8
1
  6
CONTINUOUS
 62
           7
100
AcDbLine
 10
-201.80567812739
 20
145.613763465862
 11
-201.80567812739
 21
144.363763465862
  0
LINE
  5
15E
100
AcDbEntity
  8
1
  6
DASHED
 62
           7
100
AcDbLine
 10
-201.80567812739
 20
215.113763465862
 11
-188.805678125479
 21
215.113763465862
  0
LINE
  5
15D
100
AcDbEntity
  8
1
  6
CONTINUOUS
 62
           7
100
AcDbLine
 10
-188.805678125479
 20
216.363763465862
 11
-188.805678125479
 21
188.863763465862
  0
LINE
  5
15C
100
AcDbEntity
  8
1
  6
DASHED
 62
           7
100
AcDbLine
 10
-201.80567812739
 20
210.613763465862
 11
-188.805678125479
 21
210.613763465862
  0
LINE
  5
15B
100
AcDbEntity
  8
1
  6
CONTINUOUS
 62
           7
100
AcDbLine
 10
-201.80567812739
 20
216.363763465862
 11
-201.80567812739
 21
199.863763465862
  0
LINE
  5
15A
100
AcDbEntity
  8
1
  6
CONTINUOUS
 62
           7
100
AcDbLine
 10
-196.80567812739
 20
207.824532981236
 11
-196.80567812739
 21
216.863763465777
  0
LINE
  5
159
100
AcDbEntity
  8
1
  6
CONTINUOUS
 62
           7
100
AcDbLine
 10
-192.00567812739
 20
207.824532981236
 11
-192.00567812739
 21
188.363763465862
  0
LINE
  5
158
100
AcDbEntity
  8
1
  6
CONTINUOUS
 62
           7
100
AcDbLine
 10
-191.40567812739
 20
216.863763465777
 11
-192.00567812739
 21
216.863763465777
  0
LINE
  5
157
100
AcDbEntity
  8
1
  6
CONTINUOUS
 62
           7
100
AcDbLine
 10
-192.00567812739
 20
216.863763465777
 11
-196.80567812739
 21
216.863763465777
  0
LINE
  5
156
100
AcDbEntity
  8
1
  6
CONTINUOUS
 62
           7
100
AcDbLine
 10
-196.80567812739
 20
216.863763465777
 11
-197.40567812739
 21
216.863763465777
  0
LINE
  5
155
100
AcDbEntity
  8
1
  6
CONTINUOUS
 62
           7
100
AcDbLine
 10
-197.40567812739
 20
216.863763465777
 11
-201.30567812739
 21
216.863763465862
  0
ENDBLK
  5
18D
100
AcDbEntity
  8
0
100
AcDbBlockEnd
  0
BLOCK
  5
4E
100
AcDbEntity
  8
0
100
AcDbBlockBegin
  2
100144641__20
 70
           0
 10
0.0
 20
0.0
 30
0.0
  3
100144641__20
  1

  0
HATCH
  5
1F9
100
AcDbEntity
  8
0
  6
CONTINUOUS
 62
           5
100
AcDbHatch
 10
0.0
 20
0.0
 30
0.0
210
0.0
220
0.0
230
1.0
  2
USER
 70
           0
 71
           1
 91
        1
 92
        1
 93
       36
 72
           1
 10
-183.30567812530509
 20
176.36376346586181
 11
-183.30567812530509
 21
169.36376346586181
 72
           1
 10
-183.30567812530509
 20
169.36376346586181
 11
-181.30567812533801
 21
169.36376346586181
 72
           1
 10
-181.30567812533801
 20
169.36376346586181
 11
-180.80567812533801
 21
168.86376346586181
 72
           1
 10
-180.80567812533801
 20
168.86376346586181
 11
-180.80567812533801
 21
165.7637634658619
 72
           2
 10
-181.00567812533799
 20
165.7637634658619
 40
0.1999999999999886
 50
-90.0
 51
0.0
 73
           1
 72
           1
 10
-181.00567812533799
 20
165.56376346586191
 11
-182.10567812514941
 21
165.56376346586191
 72
           2
 10
-182.10567812514941
 20
165.36376346586189
 40
0.2000000000000171
 50
90.0
 51
180.0
 73
           1
 72
           1
 10
-182.3056781251494
 20
165.36376346586189
 11
-182.3056781251494
 21
163.0637634658618
 72
           2
 10
-182.10567812514941
 20
163.0637634658618
 40
0.1999999999999886
 50
180.0
 51
-90.0
 73
           1
 72
           1
 10
-182.10567812514941
 20
162.86376346586181
 11
-181.00567812533799
 21
162.86376346586181
 72
           2
 10
-181.00567812533799
 20
162.66376346586179
 40
0.1999999999999886
 50
0.0
 51
90.0
 73
           1
 72
           1
 10
-180.80567812533801
 20
162.66376346586179
 11
-180.80567812533801
 21
150.11376346586189
 72
           1
 10
-180.80567812533801
 20
150.11376346586189
 11
-188.80567812547949
 21
150.11376346586189
 72
           1
 10
-188.80567812538479
 20
162.6637634658633
 11
-188.80567812547949
 21
150.11376346586189
 72
           2
 10
-188.6056781253848
 20
162.66376346586179
 40
0.2000000000000171
 50
90.0
 51
179.999999999568
 73
           1
 72
           1
 10
-188.6056781253848
 20
162.86376346586181
 11
-187.50567812547951
 21
162.86376346586181
 72
           2
 10
-187.50567812547951
 20
163.0637634658618
 40
0.1999999999999886
 50
-90.0
 51
0.0
 73
           1
 72
           1
 10
-187.30567812547949
 20
163.0637634658618
 11
-187.30567812547949
 21
165.36376346586189
 72
           2
 10
-187.50567812547951
 20
165.36376346586189
 40
0.2000000000000171
 50
0.0
 51
90.0
 73
           1
 72
           1
 10
-187.50567812547951
 20
165.56376346586191
 11
-188.6056781254795
 21
165.56376346586191
 72
           2
 10
-188.6056781254795
 20
165.7637634658619
 40
0.1999999999999886
 50
180.0
 51
-90.0
 73
           1
 72
           1
 10
-188.80567812547949
 20
168.36376346586181
 11
-188.80567812547949
 21
165.7637634658619
 72
           1
 10
-185.80567812547949
 20
168.36376346586181
 11
-188.80567812547949
 21
168.36376346586181
 72
           1
 10
-185.37266542358731
 20
168.61376346586181
 11
-185.80567812547949
 21
168.36376346586181
 72
           1
 10
-184.80567812547949
 20
168.61376346586181
 11
-185.37266542358731
 21
168.61376346586181
 72
           1
 10
-184.22832785628989
 20
169.61376346586181
 11
-184.80567812547949
 21
168.61376346586181
 72
           1
 10
-184.80567812547969
 20
170.61376346586181
 11
-184.22832785628989
 21
169.61376346586181
 72
           1
 10
-185.37266542358731
 20
170.61376346586181
 11
-184.80567812547969
 21
170.61376346586181
 72
           1
 10
-185.80567812547949
 20
170.86376346586181
 11
-185.37266542358731
 21
170.61376346586181
 72
           1
 10
-188.80567812547949
 20
170.86376346586181
 11
-185.80567812547949
 21
170.86376346586181
 72
           1
 10
-188.80567812547949
 20
171.96376346586169
 11
-188.80567812547949
 21
170.86376346586181
 72
           2
 10
-189.20567812547961
 20
171.96376346586169
 40
0.4000000000001194
 50
0.0
 51
90.0
 73
           1
 72
           1
 10
-190.3056781254796
 20
172.36376346586169
 11
-189.20567812547961
 21
172.36376346586169
 72
           1
 10
-190.3056781254796
 20
172.36376346586169
 11
-190.80567812547949
 21
172.86376346586181
 72
           1
 10
-190.80567812547949
 20
176.36376346586181
 11
-190.80567812547949
 21
172.86376346586181
 72
           1
 10
-190.80567812547949
 20
176.36376346586181
 11
-183.30567812530509
 21
176.36376346586181
 97
       36
330
1C8
330
1B1
330
1BC
330
1B2
330
1E6
330
1C2
330
1E9
330
1C3
330
1E8
330
1C4
330
1E7
330
1A8
330
1BE
330
1E1
330
1EC
330
1C5
330
1EB
330
1C6
330
1EA
330
1C7
330
1ED
330
1CF
330
1CE
330
1CD
330
1D3
330
1D7
330
1D6
330
18F
330
1CB
330
1CA
330
1C9
330
1E4
330
1A5
330
1DF
330
1AF
330
1B0
 75
           1
 76
           0
 52
-45.0
 41
1.0
 77
           0
 78
           1
 53
-45.0
 43
0.0
 44
0.0
 45
0.7071067811865475
 46
0.7071067811865476
 79
           0
 98
        1
 10
0.0
 20
0.0
  0
HATCH
  5
1F8
100
AcDbEntity
  8
0
  6
CONTINUOUS
 62
           5
100
AcDbHatch
 10
0.0
 20
0.0
 30
0.0
210
0.0
220
0.0
230
1.0
  2
USER
 70
           0
 71
           1
 91
        1
 92
        1
 93
        6
 72
           1
 10
-180.80567812533801
 20
145.61376346586189
 11
-180.80567812533801
 21
144.36376346586189
 72
           1
 10
-181.30567812533801
 20
143.86376346586189
 11
-180.80567812533801
 21
144.36376346586189
 72
           1
 10
-188.30567812547949
 20
143.86376346586189
 11
-181.30567812533801
 21
143.86376346586189
 72
           1
 10
-188.80567812547949
 20
144.36376346586189
 11
-188.30567812547949
 21
143.86376346586189
 72
           1
 10
-188.80567812547949
 20
145.61376346586189
 11
-188.80567812547949
 21
144.36376346586189
 72
           1
 10
-180.80567812533801
 20
145.61376346586189
 11
-188.80567812547949
 21
145.61376346586189
 97
        6
330
1C1
330
1B5
330
1B3
330
1B4
330
1E0
330
1C0
 75
           1
 76
           0
 52
-45.0
 41
1.0
 77
           0
 78
           1
 53
-45.0
 43
0.0
 44
0.0
 45
0.7071067811865475
 46
0.7071067811865476
 79
           0
 98
        1
 10
0.0
 20
0.0
  0
HATCH
  5
1F7
100
AcDbEntity
  8
0
  6
CONTINUOUS
 62
           5
100
AcDbHatch
 10
0.0
 20
0.0
 30
0.0
210
0.0
220
0.0
230
1.0
  2
USER
 70
           0
 71
           1
 91
        1
 92
        1
 93
       29
 72
           1
 10
-187.30567812547949
 20
195.36376346586189
 11
-187.30567812547949
 21
197.66376346586179
 72
           2
 10
-187.50567812547951
 20
197.66376346586179
 40
0.2000000000000171
 50
0.0
 51
90.0
 73
           1
 72
           1
 10
-187.50567812547951
 20
197.86376346586181
 11
-188.6056781254795
 21
197.86376346586181
 72
           2
 10
-188.6056781254795
 20
198.0637634658618
 40
0.1999999999999886
 50
180.0
 51
-90.0
 73
           1
 72
           1
 10
-188.80567812547949
 20
199.0337634658618
 11
-188.80567812547949
 21
198.0637634658618
 72
           1
 10
-188.80567812547949
 20
199.0337634658618
 11
-184.80567812547949
 21
199.0337634658618
 72
           1
 10
-184.80567812547949
 20
200.58376346586181
 11
-184.80567812547949
 21
199.0337634658618
 72
           1
 10
-184.80567812547949
 20
200.58376346586181
 11
-180.8056781251494
 21
200.58376346586181
 72
           1
 10
-180.8056781251494
 20
200.58376346586181
 11
-180.8056781251494
 21
198.0637634658618
 72
           2
 10
-181.00567812514939
 20
198.0637634658618
 40
0.1999999999999886
 50
-90.0
 51
0.0
 73
           1
 72
           1
 10
-181.00567812514939
 20
197.86376346586181
 11
-182.1056781249608
 21
197.86376346586181
 72
           2
 10
-182.1056781249608
 20
197.66376346586179
 40
0.2000000000000171
 50
90.0
 51
180.0
 73
           1
 72
           1
 10
-182.30567812496079
 20
197.66376346586179
 11
-182.30567812496079
 21
195.36376346586189
 72
           2
 10
-182.1056781249608
 20
195.36376346586189
 40
0.1999999999999886
 50
180.0
 51
-90.0
 73
           1
 72
           1
 10
-182.1056781249608
 20
195.1637634658619
 11
-181.00567812514939
 21
195.1637634658619
 72
           2
 10
-181.00567812514939
 20
194.96376346586189
 40
0.1999999999999886
 50
0.0
 51
90.0
 73
           1
 72
           1
 10
-180.8056781251494
 20
194.96376346586189
 11
-180.8056781251494
 21
191.86376346586181
 72
           1
 10
-181.3056781251494
 20
191.36376346586181
 11
-180.8056781251494
 21
191.86376346586181
 72
           1
 10
-181.3056781251494
 20
191.36376346586181
 11
-183.30567812530541
 21
191.36376346586181
 72
           1
 10
-183.30567812530541
 20
191.36376346586181
 11
-183.30567812530541
 21
184.36376346586181
 72
           1
 10
-183.30567812530541
 20
184.36376346586181
 11
-190.80567812547949
 21
184.36376346586181
 72
           1
 10
-190.80567812547949
 20
187.86376346586181
 11
-190.80567812547949
 21
184.36376346586181
 72
           1
 10
-190.30567812547949
 20
188.36376346586181
 11
-190.80567812547949
 21
187.86376346586181
 72
           1
 10
-189.20567812547961
 20
188.36376346586181
 11
-190.30567812547949
 21
188.36376346586181
 72
           2
 10
-189.20567812547961
 20
188.76376346586181
 40
0.4000000000000057
 50
-90.0
 51
0.0
 73
           1
 72
           1
 10
-188.80567812547949
 20
194.96376346586189
 11
-188.80567812547949
 21
188.76376346586181
 72
           2
 10
-188.6056781254795
 20
194.96376346586189
 40
0.2000000000000171
 50
90.0
 51
180.0
 73
           1
 72
           1
 10
-188.6056781254795
 20
195.1637634658619
 11
-187.50567812547951
 21
195.1637634658619
 72
           2
 10
-187.50567812547951
 20
195.36376346586189
 40
0.1999999999999886
 50
-90.0
 51
0.0
 73
           1
 97
       29
330
1DC
330
1F0
330
1DD
330
1F5
330
19A
330
19B
330
193
330
197
330
196
330
1F2
330
1DB
330
1EF
330
1D9
330
1EE
330
1DA
330
1F3
330
1AC
330
1BD
330
1B8
330
1B7
330
1B6
330
1AE
330
1A0
330
1A1
330
1E5
330
1A4
330
1F4
330
1DE
330
1F1
 75
           1
 76
           0
 52
-45.0
 41
1.0
 77
           0
 78
           1
 53
-45.0
 43
0.0
 44
0.0
 45
0.7071067811865475
 46
0.7071067811865476
 79
           0
 98
        1
 10
0.0
 20
0.0
  0
HATCH
  5
1F6
100
AcDbEntity
  8
0
  6
CONTINUOUS
 62
           5
100
AcDbHatch
 10
0.0
 20
0.0
 30
0.0
210
0.0
220
0.0
230
1.0
  2
USER
 70
           0
 71
           1
 91
        1
 92
        1
 93
        8
 72
           1
 10
-181.3056781251494
 20
216.86376346586181
 11
-180.8056781251494
 21
216.36376346586181
 72
           1
 10
-180.8056781251494
 20
216.36376346586181
 11
-180.8056781251494
 21
203.98376346586181
 72
           1
 10
-184.80567812547949
 20
203.98376346586181
 11
-180.8056781251494
 21
203.98376346586181
 72
           1
 10
-184.80567812547949
 20
205.5337634658618
 11
-184.80567812547949
 21
203.98376346586181
 72
           1
 10
-188.80567812547949
 20
205.5337634658618
 11
-184.80567812547949
 21
205.5337634658618
 72
           1
 10
-188.80567812547949
 20
216.36376346586181
 11
-188.80567812547949
 21
205.5337634658618
 72
           1
 10
-188.80567812547949
 20
216.36376346586181
 11
-188.30567812547949
 21
216.86376346586181
 72
           1
 10
-181.3056781251494
 20
216.86376346586181
 11
-188.30567812547949
 21
216.86376346586181
 97
        8
330
1BB
330
1AB
330
199
330
195
330
19D
330
1AD
330
1BA
330
1B9
 75
           1
 76
           0
 52
-45.0
 41
1.0
 77
           0
 78
           1
 53
-45.0
 43
0.0
 44
0.0
 45
0.7071067811865475
 46
0.7071067811865476
 79
           0
 98
        1
 10
0.0
 20
0.0
  0
ARC
  5
1F5
100
AcDbEntity
  8
1
  6
CONTINUOUS
 62
           7
100
AcDbCircle
 10
-188.60567812548
 20
198.063763465862
 40
0.2
100
AcDbArc
 50
180.0
 51
-90.0
  0
ARC
  5
1F4
100
AcDbEntity
  8
1
  6
CONTINUOUS
 62
           7
100
AcDbCircle
 10
-188.60567812548
 20
194.963763465862
 40
0.2
100
AcDbArc
 50
90.0
 51
180.0
  0
ARC
  5
1F3
100
AcDbEntity
  8
1
  6
CONTINUOUS
 62
           7
100
AcDbCircle
 10
-181.005678125149
 20
194.963763465862
 40
0.2
100
AcDbArc
 50
0.0
 51
90.0
  0
ARC
  5
1F2
100
AcDbEntity
  8
1
  6
CONTINUOUS
 62
           7
100
AcDbCircle
 10
-181.005678125149
 20
198.063763465862
 40
0.2
100
AcDbArc
 50
-90.0
 51
0.0
  0
ARC
  5
1F1
100
AcDbEntity
  8
1
  6
CONTINUOUS
 62
           7
100
AcDbCircle
 10
-187.50567812548
 20
195.363763465862
 40
0.2
100
AcDbArc
 50
-90.0
 51
0.0
  0
ARC
  5
1F0
100
AcDbEntity
  8
1
  6
CONTINUOUS
 62
           7
100
AcDbCircle
 10
-187.50567812548
 20
197.663763465862
 40
0.2
100
AcDbArc
 50
0.0
 51
90.0
  0
ARC
  5
1EF
100
AcDbEntity
  8
1
  6
CONTINUOUS
 62
           7
100
AcDbCircle
 10
-182.105678124961
 20
197.663763465862
 40
0.2
100
AcDbArc
 50
90.0
 51
180.0
  0
ARC
  5
1EE
100
AcDbEntity
  8
1
  6
CONTINUOUS
 62
           7
100
AcDbCircle
 10
-182.105678124961
 20
195.363763465862
 40
0.2
100
AcDbArc
 50
180.0
 51
-90.0
  0
ARC
  5
1ED
100
AcDbEntity
  8
1
  6
CONTINUOUS
 62
           7
100
AcDbCircle
 10
-188.60567812548
 20
165.763763465862
 40
0.2
100
AcDbArc
 50
180.0
 51
-90.0
  0
ARC
  5
1EC
100
AcDbEntity
  8
1
  6
CONTINUOUS
 62
           7
100
AcDbCircle
 10
-188.605678125385
 20
162.663763465862
 40
0.2
100
AcDbArc
 50
90.0
 51
179.999999999568
  0
ARC
  5
1EB
100
AcDbEntity
  8
1
  6
CONTINUOUS
 62
           7
100
AcDbCircle
 10
-187.50567812548
 20
163.063763465862
 40
0.2
100
AcDbArc
 50
-90.0
 51
0.0
  0
ARC
  5
1EA
100
AcDbEntity
  8
1
  6
CONTINUOUS
 62
           7
100
AcDbCircle
 10
-187.50567812548
 20
165.363763465862
 40
0.2
100
AcDbArc
 50
0.0
 51
90.0
  0
ARC
  5
1E9
100
AcDbEntity
  8
1
  6
CONTINUOUS
 62
           7
100
AcDbCircle
 10
-182.105678125149
 20
165.363763465862
 40
0.2
100
AcDbArc
 50
90.0
 51
180.0
  0
ARC
  5
1E8
100
AcDbEntity
  8
1
  6
CONTINUOUS
 62
           7
100
AcDbCircle
 10
-182.105678125149
 20
163.063763465862
 40
0.2
100
AcDbArc
 50
180.0
 51
-90.0
  0
ARC
  5
1E7
100
AcDbEntity
  8
1
  6
CONTINUOUS
 62
           7
100
AcDbCircle
 10
-181.005678125338
 20
162.663763465862
 40
0.2
100
AcDbArc
 50
0.0
 51
90.0
  0
ARC
  5
1E6
100
AcDbEntity
  8
1
  6
CONTINUOUS
 62
           7
100
AcDbCircle
 10
-181.005678125338
 20
165.763763465862
 40
0.2
100
AcDbArc
 50
-90.0
 51
0.0
  0
ARC
  5
1E5
100
AcDbEntity
  8
1
  6
CONTINUOUS
 62
           7
100
AcDbCircle
 10
-189.20567812548
 20
188.763763465862
 40
0.4
100
AcDbArc
 50
-90.0
 51
0.0
  0
ARC
  5
1E4
100
AcDbEntity
  8
1
  6
CONTINUOUS
 62
           7
100
AcDbCircle
 10
-189.20567812548
 20
171.963763465862
 40
0.4
100
AcDbArc
 50
0.0
 51
90.0
  0
LINE
  5
1E3
100
AcDbEntity
  8
1
  6
CONTINUOUS
 62
           7
100
AcDbLine
 10
-180.805678125149
 20
191.863763465862
 11
-180.805678125338
 21
168.863763465862
  0
LINE
  5
1E2
100
AcDbEntity
  8
1
  6
CONTINUOUS
 62
           7
100
AcDbLine
 10
-188.805678125479
 20
168.363763465862
 11
-188.805678125479
 21
168.613763465862
  0
LINE
  5
1E1
100
AcDbEntity
  8
1
  6
CONTINUOUS
 62
           7
100
AcDbLine
 10
-188.805678125385
 20
162.663763465863
 11
-188.805678125479
 21
150.113763465862
  0
LINE
  5
1E0
100
AcDbEntity
  8
1
  6
CONTINUOUS
 62
           7
100
AcDbLine
 10
-188.805678125479
 20
145.613763465862
 11
-188.805678125479
 21
144.363763465862
  0
LINE
  5
1DF
100
AcDbEntity
  8
1
  6
CONTINUOUS
 62
           7
100
AcDbLine
 10
-190.30567812548
 20
172.363763465862
 11
-190.805678125479
 21
172.863763465862
  0
LINE
  5
1DE
100
AcDbEntity
  8
1
  6
CONTINUOUS
 62
           7
100
AcDbLine
 10
-188.60567812548
 20
195.163763465862
 11
-187.50567812548
 21
195.163763465862
  0
LINE
  5
1DD
100
AcDbEntity
  8
1
  6
CONTINUOUS
 62
           7
100
AcDbLine
 10
-187.50567812548
 20
197.863763465862
 11
-188.60567812548
 21
197.863763465862
  0
LINE
  5
1DC
100
AcDbEntity
  8
1
  6
CONTINUOUS
 62
           7
100
AcDbLine
 10
-187.305678125479
 20
195.363763465862
 11
-187.305678125479
 21
197.663763465862
  0
LINE
  5
1DB
100
AcDbEntity
  8
1
  6
CONTINUOUS
 62
           7
100
AcDbLine
 10
-181.005678125149
 20
197.863763465862
 11
-182.105678124961
 21
197.863763465862
  0
LINE
  5
1DA
100
AcDbEntity
  8
1
  6
CONTINUOUS
 62
           7
100
AcDbLine
 10
-182.105678124961
 20
195.163763465862
 11
-181.005678125149
 21
195.163763465862
  0
LINE
  5
1D9
100
AcDbEntity
  8
1
  6
CONTINUOUS
 62
           7
100
AcDbLine
 10
-182.305678124961
 20
197.663763465862
 11
-182.305678124961
 21
195.363763465862
  0
LINE
  5
1D8
100
AcDbEntity
  8
1
  6
CONTINUOUS
 62
           7
100
AcDbLine
 10
-188.80567812548
 20
170.613763465862
 11
-185.80567812548
 21
170.613763465862
  0
LINE
  5
1D7
100
AcDbEntity
  8
1
  6
CONTINUOUS
 62
           7
100
AcDbLine
 10
-184.22832785629
 20
169.613763465862
 11
-184.805678125479
 21
168.613763465862
  0
LINE
  5
1D6
100
AcDbEntity
  8
1
  6
CONTINUOUS
 62
           7
100
AcDbLine
 10
-184.80567812548
 20
170.613763465862
 11
-184.22832785629
 21
169.613763465862
  0
LINE
  5
1D5
100
AcDbEntity
  8
1
  6
CONTINUOUS
 62
           7
100
AcDbLine
 10
-185.805678125479
 20
168.613763465862
 11
-188.805678125479
 21
168.613763465862
  0
LINE
  5
1D4
100
AcDbEntity
  8
1
  6
CONTINUOUS
 62
           7
100
AcDbLine
 10
-185.805678125479
 20
168.613763465862
 11
-185.805678125479
 21
168.363763465862
  0
LINE
  5
1D3
100
AcDbEntity
  8
1
  6
CONTINUOUS
 62
           7
100
AcDbLine
 10
-184.805678125479
 20
168.613763465862
 11
-185.372665423587
 21
168.613763465862
  0
LINE
  5
1D2
100
AcDbEntity
  8
1
  6
CONTINUOUS
 62
           7
100
AcDbLine
 10
-184.80567812548
 20
170.613763465862
 11
-184.805678125479
 21
168.613763465862
  0
LINE
  5
1D1
100
AcDbEntity
  8
1
  6
CONTINUOUS
 62
           7
100
AcDbLine
 10
-185.80567812548
 20
170.613763465862
 11
-185.372665423587
 21
170.613763465862
  0
LINE
  5
1D0
100
AcDbEntity
  8
1
  6
CONTINUOUS
 62
           7
100
AcDbLine
 10
-185.80567812548
 20
170.613763465862
 11
-185.805678125479
 21
168.613763465862
  0
LINE
  5
1CF
100
AcDbEntity
  8
1
  6
CONTINUOUS
 62
           7
100
AcDbLine
 10
-188.805678125479
 20
168.363763465862
 11
-188.805678125479
 21
165.763763465862
  0
LINE
  5
1CE
100
AcDbEntity
  8
1
  6
CONTINUOUS
 62
           3
100
AcDbLine
 10
-185.805678125479
 20
168.363763465862
 11
-188.805678125479
 21
168.363763465862
  0
LINE
  5
1CD
100
AcDbEntity
  8
1
  6
CONTINUOUS
 62
           3
100
AcDbLine
 10
-185.372665423587
 20
168.613763465862
 11
-185.805678125479
 21
168.363763465862
  0
LINE
  5
1CC
100
AcDbEntity
  8
1
  6
CONTINUOUS
 62
           7
100
AcDbLine
 10
-185.805678125479
 20
170.863763465862
 11
-185.80567812548
 21
170.613763465862
  0
LINE
  5
1CB
100
AcDbEntity
  8
1
  6
CONTINUOUS
 62
           3
100
AcDbLine
 10
-185.805678125479
 20
170.863763465862
 11
-185.372665423587
 21
170.613763465862
  0
LINE
  5
1CA
100
AcDbEntity
  8
1
  6
CONTINUOUS
 62
           3
100
AcDbLine
 10
-188.805678125479
 20
170.863763465862
 11
-185.805678125479
 21
170.863763465862
  0
LINE
  5
1C9
100
AcDbEntity
  8
1
  6
CONTINUOUS
 62
           7
100
AcDbLine
 10
-188.805678125479
 20
171.963763465862
 11
-188.805678125479
 21
170.863763465862
  0
LINE
  5
1C8
100
AcDbEntity
  8
1
  6
CONTINUOUS
 62
           7
100
AcDbLine
 10
-183.305678125305
 20
176.363763465862
 11
-183.305678125305
 21
169.363763465862
  0
LINE
  5
1C7
100
AcDbEntity
  8
1
  6
CONTINUOUS
 62
           7
100
AcDbLine
 10
-187.50567812548
 20
165.563763465862
 11
-188.60567812548
 21
165.563763465862
  0
LINE
  5
1C6
100
AcDbEntity
  8
1
  6
CONTINUOUS
 62
           7
100
AcDbLine
 10
-187.305678125479
 20
163.063763465862
 11
-187.305678125479
 21
165.363763465862
  0
LINE
  5
1C5
100
AcDbEntity
  8
1
  6
CONTINUOUS
 62
           7
100
AcDbLine
 10
-188.605678125385
 20
162.863763465862
 11
-187.50567812548
 21
162.863763465862
  0
LINE
  5
1C4
100
AcDbEntity
  8
1
  6
CONTINUOUS
 62
           7
100
AcDbLine
 10
-182.105678125149
 20
162.863763465862
 11
-181.005678125338
 21
162.863763465862
  0
LINE
  5
1C3
100
AcDbEntity
  8
1
  6
CONTINUOUS
 62
           7
100
AcDbLine
 10
-182.305678125149
 20
165.363763465862
 11
-182.305678125149
 21
163.063763465862
  0
LINE
  5
1C2
100
AcDbEntity
  8
1
  6
CONTINUOUS
 62
           7
100
AcDbLine
 10
-181.005678125338
 20
165.563763465862
 11
-182.105678125149
 21
165.563763465862
  0
LINE
  5
1C1
100
AcDbEntity
  8
1
  6
CONTINUOUS
 62
           7
100
AcDbLine
 10
-180.805678125338
 20
145.613763465862
 11
-180.805678125338
 21
144.363763465862
  0
LINE
  5
1C0
100
AcDbEntity
  8
1
  6
CONTINUOUS
 62
           7
100
AcDbLine
 10
-180.805678125338
 20
145.613763465862
 11
-188.805678125479
 21
145.613763465862
  0
LINE
  5
1BF
100
AcDbEntity
  8
1
  6
CONTINUOUS
 62
           7
100
AcDbLine
 10
-180.805678125338
 20
150.113763465862
 11
-180.805678125338
 21
145.613763465862
  0
LINE
  5
1BE
100
AcDbEntity
  8
1
  6
CONTINUOUS
 62
           7
100
AcDbLine
 10
-180.805678125338
 20
150.113763465862
 11
-188.805678125479
 21
150.113763465862
  0
LINE
  5
1BD
100
AcDbEntity
  8
1
  6
CONTINUOUS
 62
           7
100
AcDbLine
 10
-181.305678125149
 20
191.363763465862
 11
-180.805678125149
 21
191.863763465862
  0
LINE
  5
1BC
100
AcDbEntity
  8
1
  6
CONTINUOUS
 62
           7
100
AcDbLine
 10
-181.305678125338
 20
169.363763465862
 11
-180.805678125338
 21
168.863763465862
  0
LINE
  5
1BB
100
AcDbEntity
  8
1
  6
CONTINUOUS
 62
           7
100
AcDbLine
 10
-181.305678125149
 20
216.863763465862
 11
-180.805678125149
 21
216.363763465862
  0
LINE
  5
1BA
100
AcDbEntity
  8
1
  6
CONTINUOUS
 62
           7
100
AcDbLine
 10
-188.805678125479
 20
216.363763465862
 11
-188.305678125479
 21
216.863763465862
  0
LINE
  5
1B9
100
AcDbEntity
  8
1
  6
CONTINUOUS
 62
           7
100
AcDbLine
 10
-181.305678125149
 20
216.863763465862
 11
-188.305678125479
 21
216.863763465862
  0
LINE
  5
1B8
100
AcDbEntity
  8
1
  6
CONTINUOUS
 62
           7
100
AcDbLine
 10
-181.305678125149
 20
191.363763465862
 11
-183.305678125305
 21
191.363763465862
  0
LINE
  5
1B7
100
AcDbEntity
  8
1
  6
CONTINUOUS
 62
           7
100
AcDbLine
 10
-183.305678125305
 20
191.363763465862
 11
-183.305678125305
 21
184.363763465862
  0
LINE
  5
1B6
100
AcDbEntity
  8
1
  6
CONTINUOUS
 62
           7
100
AcDbLine
 10
-183.305678125305
 20
184.363763465862
 11
-190.805678125479
 21
184.363763465862
  0
LINE
  5
1B5
100
AcDbEntity
  8
1
  6
CONTINUOUS
 62
           7
100
AcDbLine
 10
-181.305678125338
 20
143.863763465862
 11
-180.805678125338
 21
144.363763465862
  0
LINE
  5
1B4
100
AcDbEntity
  8
1
  6
CONTINUOUS
 62
           7
100
AcDbLine
 10
-188.805678125479
 20
144.363763465862
 11
-188.305678125479
 21
143.863763465862
  0
LINE
  5
1B3
100
AcDbEntity
  8
1
  6
CONTINUOUS
 62
           7
100
AcDbLine
 10
-188.305678125479
 20
143.863763465862
 11
-181.305678125338
 21
143.863763465862
  0
LINE
  5
1B2
100
AcDbEntity
  8
1
  6
CONTINUOUS
 62
           7
100
AcDbLine
 10
-180.805678125338
 20
168.863763465862
 11
-180.805678125338
 21
165.763763465862
  0
LINE
  5
1B1
100
AcDbEntity
  8
1
  6
CONTINUOUS
 62
           7
100
AcDbLine
 10
-183.305678125305
 20
169.363763465862
 11
-181.305678125338
 21
169.363763465862
  0
LINE
  5
1B0
100
AcDbEntity
  8
1
  6
CONTINUOUS
 62
           7
100
AcDbLine
 10
-190.805678125479
 20
176.363763465862
 11
-183.305678125305
 21
176.363763465862
  0
LINE
  5
1AF
100
AcDbEntity
  8
1
  6
CONTINUOUS
 62
           7
100
AcDbLine
 10
-190.805678125479
 20
176.363763465862
 11
-190.805678125479
 21
172.863763465862
  0
LINE
  5
1AE
100
AcDbEntity
  8
1
  6
CONTINUOUS
 62
           7
100
AcDbLine
 10
-190.805678125479
 20
187.863763465862
 11
-190.805678125479
 21
184.363763465862
  0
LINE
  5
1AD
100
AcDbEntity
  8
1
  6
CONTINUOUS
 62
           7
100
AcDbLine
 10
-188.805678125479
 20
216.363763465862
 11
-188.805678125479
 21
205.533763465862
  0
LINE
  5
1AC
100
AcDbEntity
  8
1
  6
CONTINUOUS
 62
           7
100
AcDbLine
 10
-180.805678125149
 20
194.963763465862
 11
-180.805678125149
 21
191.863763465862
  0
LINE
  5
1AB
100
AcDbEntity
  8
1
  6
CONTINUOUS
 62
           7
100
AcDbLine
 10
-180.805678125149
 20
216.363763465862
 11
-180.805678125149
 21
203.983763465862
  0
LINE
  5
1AA
100
AcDbEntity
  8
1
  6
CONTINUOUS
 62
           7
100
AcDbLine
 10
-180.805678125149
 20
198.063763465862
 11
-180.805678125149
 21
194.963763465862
  0
LINE
  5
1A9
100
AcDbEntity
  8
1
  6
CONTINUOUS
 62
           7
100
AcDbLine
 10
-188.805678125479
 20
198.063763465862
 11
-188.805678125479
 21
194.963763465862
  0
LINE
  5
1A8
100
AcDbEntity
  8
1
  6
CONTINUOUS
 62
           7
100
AcDbLine
 10
-180.805678125338
 20
162.663763465862
 11
-180.805678125338
 21
150.113763465862
  0
LINE
  5
1A7
100
AcDbEntity
  8
1
  6
CONTINUOUS
 62
           7
100
AcDbLine
 10
-180.805678125338
 20
165.763763465862
 11
-180.805678125338
 21
162.663763465862
  0
LINE
  5
1A6
100
AcDbEntity
  8
1
  6
CONTINUOUS
 62
           7
100
AcDbLine
 10
-188.805678125479
 20
165.763763465862
 11
-188.805678125385
 21
162.663763465863
  0
LINE
  5
1A5
100
AcDbEntity
  8
1
  6
CONTINUOUS
 62
           7
100
AcDbLine
 10
-190.30567812548
 20
172.363763465862
 11
-189.20567812548
 21
172.363763465862
  0
LINE
  5
1A4
100
AcDbEntity
  8
1
  6
CONTINUOUS
 62
           7
100
AcDbLine
 10
-188.805678125479
 20
194.963763465862
 11
-188.805678125479
 21
188.763763465862
  0
LINE
  5
1A3
100
AcDbEntity
  8
1
  6
CONTINUOUS
 62
           7
100
AcDbLine
 10
-188.805678125479
 20
170.863763465862
 11
-188.80567812548
 21
170.613763465862
  0
LINE
  5
1A2
100
AcDbEntity
  8
1
  6
CONTINUOUS
 62
           7
100
AcDbLine
 10
-188.80567812548
 20
170.613763465862
 11
-188.805678125479
 21
168.613763465862
  0
LINE
  5
1A1
100
AcDbEntity
  8
1
  6
CONTINUOUS
 62
           7
100
AcDbLine
 10
-189.20567812548
 20
188.363763465862
 11
-190.305678125479
 21
188.363763465862
  0
LINE
  5
1A0
100
AcDbEntity
  8
1
  6
CONTINUOUS
 62
           7
100
AcDbLine
 10
-190.305678125479
 20
188.363763465862
 11
-190.805678125479
 21
187.863763465862
  0
LINE
  5
19F
100
AcDbEntity
  8
1
  6
CONTINUOUS
 62
           7
100
AcDbLine
 10
-190.805678125479
 20
184.363763465862
 11
-190.805678125479
 21
176.363763465862
  0
LINE
  5
19E
100
AcDbEntity
  8
1
  6
CONTINUOUS
 62
           7
100
AcDbLine
 10
-183.305678125305
 20
176.363763465862
 11
-183.305678125305
 21
184.363763465862
  0
LINE
  5
19D
100
AcDbEntity
  8
1
  6
CONTINUOUS
 62
           7
100
AcDbLine
 10
-188.805678125479
 20
205.533763465862
 11
-184.805678125479
 21
205.533763465862
  0
LINE
  5
19C
100
AcDbEntity
  8
1
  6
CONTINUOUS
 62
           7
100
AcDbLine
 10
-188.805678125479
 20
205.533763465862
 11
-188.805678125479
 21
199.033763465862
  0
LINE
  5
19B
100
AcDbEntity
  8
1
  6
CONTINUOUS
 62
           7
100
AcDbLine
 10
-188.805678125479
 20
199.033763465862
 11
-184.805678125479
 21
199.033763465862
  0
LINE
  5
19A
100
AcDbEntity
  8
1
  6
CONTINUOUS
 62
           7
100
AcDbLine
 10
-188.805678125479
 20
199.033763465862
 11
-188.805678125479
 21
198.063763465862
  0
LINE
  5
199
100
AcDbEntity
  8
1
  6
CONTINUOUS
 62
           7
100
AcDbLine
 10
-184.805678125479
 20
203.983763465862
 11
-180.805678125149
 21
203.983763465862
  0
LINE
  5
198
100
AcDbEntity
  8
1
  6
CONTINUOUS
 62
           7
100
AcDbLine
 10
-180.805678125149
 20
203.983763465862
 11
-180.805678125149
 21
203.713074476339
  0
LINE
  5
197
100
AcDbEntity
  8
1
  6
CONTINUOUS
 62
           7
100
AcDbLine
 10
-184.805678125479
 20
200.583763465862
 11
-180.805678125149
 21
200.583763465862
  0
LINE
  5
196
100
AcDbEntity
  8
1
  6
CONTINUOUS
 62
           7
100
AcDbLine
 10
-180.805678125149
 20
200.583763465862
 11
-180.805678125149
 21
198.063763465862
  0
LINE
  5
195
100
AcDbEntity
  8
1
  6
CONTINUOUS
 62
           7
100
AcDbLine
 10
-184.805678125479
 20
205.533763465862
 11
-184.805678125479
 21
203.983763465862
  0
LINE
  5
194
100
AcDbEntity
  8
1
  6
CONTINUOUS
 62
           7
100
AcDbLine
 10
-184.805678125479
 20
203.983763465862
 11
-184.805678125479
 21
200.583763465862
  0
LINE
  5
193
100
AcDbEntity
  8
1
  6
CONTINUOUS
 62
           7
100
AcDbLine
 10
-184.805678125479
 20
200.583763465862
 11
-184.805678125479
 21
199.033763465862
  0
LINE
  5
192
100
AcDbEntity
  8
1
  6
CONTINUOUS
 62
           7
100
AcDbLine
 10
-180.805678125149
 20
200.871767397576
 11
-180.805678125149
 21
200.583763465862
  0
LINE
  5
191
100
AcDbEntity
  8
1
  6
DASHED
 62
           7
100
AcDbLine
 10
-188.805678125479
 20
215.113763465862
 11
-180.805678125149
 21
215.113763465862
  0
LINE
  5
190
100
AcDbEntity
  8
1
  6
DASHED
 62
           7
100
AcDbLine
 10
-188.805678125479
 20
210.613763465862
 11
-180.805678125149
 21
210.613763465862
  0
LINE
  5
18F
100
AcDbEntity
  8
1
  6
CONTINUOUS
 62
           7
100
AcDbLine
 10
-185.372665423587
 20
170.613763465862
 11
-184.80567812548
 21
170.613763465862
  0
LINE
  5
18E
100
AcDbEntity
  8
1
  6
CONTINUOUS
 62
           7
100
AcDbLine
 10
-185.372665423587
 20
168.613763465862
 11
-185.805678125479
 21
168.613763465862
  0
ENDBLK
  5
1FA
100
AcDbEntity
  8
0
100
AcDbBlockEnd
  0
ENDSEC
  0
SECTION
  2
ENTITIES
  0
HATCH
  5
3A9
100
AcDbEntity
  8
0
  6
CONTINUOUS
 62
           5
100
AcDbHatch
 10
0.0
 20
0.0
 30
0.0
210
0.0
220
0.0
230
1.0
  2
USER
 70
           0
 71
           1
 91
        1
 92
        1
 93
        9
 72
           1
 10
-223.3056781273898
 20
186.6137093137871
 11
-223.3056781273898
 21
186.86376346586181
 72
           1
 10
-223.3056781273898
 20
186.6137093137871
 11
-218.40567807322299
 21
186.61376346586181
 72
           1
 10
-218.40567807322299
 20
186.61376346586181
 11
-218.40567807322299
 21
184.36376346586181
 72
           1
 10
-226.40567807322299
 20
184.36376346586181
 11
-218.40567807322299
 21
184.36376346586181
 72
           1
 10
-226.40567807322299
 20
184.36376346586181
 11
-226.40567807322299
 21
185.86376346586181
 72
           1
 10
-226.40567807322299
 20
185.86376346586181
 11
-235.30567812739019
 21
185.86376346586181
 72
           1
 10
-235.80567812739019
 20
186.36376346586181
 11
-235.30567812739019
 21
185.86376346586181
 72
           1
 10
-235.80567812739019
 20
186.86376346586181
 11
-235.80567812739019
 21
186.36376346586181
 72
           1
 10
-235.80567812739019
 20
186.86376346586181
 11
-223.3056781273898
 21
186.86376346586181
 97
        9
330
234
330
2CB
330
2CF
330
2CC
330
304
330
249
330
248
330
233
330
247
 75
           1
 76
           0
 52
45.0
 41
1.0
 77
           0
 78
           1
 53
45.0
 43
0.0
 44
0.0
 45
-0.7071067811865475
 46
0.7071067811865476
 79
           0
 98
        1
 10
0.0
 20
0.0
  0
HATCH
  5
3A8
100
AcDbEntity
  8
0
  6
CONTINUOUS
 62
           5
100
AcDbHatch
 10
0.0
 20
0.0
 30
0.0
210
0.0
220
0.0
230
1.0
  2
USER
 70
           0
 71
           1
 91
        1
 92
        1
 93
        6
 72
           1
 10
-201.80567812739019
 20
145.86376346586181
 11
-201.80567812739019
 21
144.36376346586181
 72
           1
 10
-202.30567812739019
 20
143.86376346586181
 11
-201.80567812739019
 21
144.36376346586181
 72
           1
 10
-202.30567812739019
 20
143.86376346586181
 11
-208.30567812739019
 21
143.86376346586181
 72
           1
 10
-208.30567812739019
 20
143.86376346586181
 11
-208.80567812739019
 21
144.36376346586181
 72
           1
 10
-208.80567812739019
 20
145.86376346586181
 11
-208.80567812739019
 21
144.36376346586181
 72
           1
 10
-201.80567812739019
 20
145.86376346586181
 11
-208.80567812739019
 21
145.86376346586181
 97
        6
330
297
330
2BF
330
2B8
330
2C8
330
20F
330
2BA
 75
           1
 76
           0
 52
-45.0
 41
1.0
 77
           0
 78
           1
 53
-45.0
 43
0.0
 44
0.0
 45
0.7071067811865475
 46
0.7071067811865476
 79
           0
 98
        1
 10
0.0
 20
0.0
  0
MTEXT
  5
3A7
100
AcDbEntity
  8
1
 62
           3
100
AcDbMText
 10
-189.34914969526
 20
97.5
 30
0.0
 40
4.5
 41
0.0
 71
           6
 72
           1
  1
C006405
  7
CONVERTER_2
  0
MTEXT
  5
3A6
100
AcDbEntity
  8
1
 62
           3
100
AcDbMText
 10
-206.5
 20
117.294942159596
 30
0.0
 40
3.5
 41
0.0
 71
           5
 72
           1
  1
CSG-14-50-2UH-LW-SP-A
  7
CONVERTER_2
 11
1.0
 21
0.0
 31
0.0
  0
LEADER
  5
3A4
100
AcDbEntity
  8
1
  6
CONTINUOUS
 62
           7
100
AcDbLeader
  3
Standard
 71
           0
 73
           3
 74
           0
 75
           0
 40
0.0
 76
           2
 10
-335.389011460724
 20
152.217937842868
 30
0.0
 10
-335.289011460724
 20
152.217937842868
 30
0.0
 77
           7
  0
LEADER
  5
3A1
100
AcDbEntity
  8
1
  6
CONTINUOUS
 62
           7
100
AcDbLeader
  3
Standard
 71
           0
 73
           3
 74
           0
 75
           0
 40
0.0
 76
           2
 10
-302.889011460724
 20
208.509589088856
 30
0.0
 10
-302.789011460723
 20
208.509589088856
 30
0.0
 77
           7
  0
LEADER
  5
39E
100
AcDbEntity
  8
1
  6
CONTINUOUS
 62
           7
100
AcDbLeader
  3
Standard
 71
           0
 73
           3
 74
           0
 75
           0
 40
0.0
 76
           2
 10
-286.639011460724
 20
180.363763465862
 30
0.0
 10
-286.539011460724
 20
180.363763465862
 30
0.0
 77
           7
  0
LEADER
  5
39B
100
AcDbEntity
  8
1
  6
CONTINUOUS
 62
           7
100
AcDbLeader
  3
Standard
 71
           0
 73
           3
 74
           0
 75
           0
 40
0.0
 76
           2
 10
-351.639011460724
 20
180.363763465862
 30
0.0
 10
-351.539011460724
 20
180.363763465862
 30
0.0
 77
           7
  0
LEADER
  5
398
100
AcDbEntity
  8
1
  6
CONTINUOUS
 62
           7
100
AcDbLeader
  3
Standard
 71
           0
 73
           3
 74
           0
 75
           0
 40
0.0
 76
           2
 10
-302.889011460724
 20
152.217937842868
 30
0.0
 10
-302.989011460724
 20
152.217937842868
 30
0.0
 77
           7
  0
LEADER
  5
395
100
AcDbEntity
  8
1
  6
CONTINUOUS
 62
           7
100
AcDbLeader
  3
Standard
 71
           0
 73
           3
 74
           0
 75
           0
 40
0.0
 76
           2
 10
-335.389011460724
 20
208.509589088856
 30
0.0
 10
-335.489011460724
 20
208.509589088856
 30
0.0
 77
           7
  0
ARC
  5
392
100
AcDbEntity
  8
1
  6
CONTINUOUS
 62
           7
100
AcDbCircle
 10
-209.20567812739
 20
151.963763465862
 40
0.4
100
AcDbArc
 50
0.0
 51
90.0
  0
ARC
  5
391
100
AcDbEntity
  8
1
  6
CONTINUOUS
 62
           7
100
AcDbCircle
 10
-209.20567812739
 20
208.763763465862
 40
0.4
100
AcDbArc
 50
-90.0
 51
0.0
  0
ARC
  5
390
100
AcDbEntity
  8
1
  6
CONTINUOUS
 62
           7
100
AcDbCircle
 10
-201.40567812739
 20
160.963763465862
 40
0.4
100
AcDbArc
 50
90.0
 51
180.0
  0
ARC
  5
38F
100
AcDbEntity
  8
1
  6
CONTINUOUS
 62
           7
100
AcDbCircle
 10
-201.40567812739
 20
199.763763465862
 40
0.4
100
AcDbArc
 50
180.0
 51
-90.0
  0
ARC
  5
38E
100
AcDbEntity
  8
1
  6
CONTINUOUS
 62
           7
100
AcDbCircle
 10
-230.10567812739
 20
206.863763465862
 40
0.8
100
AcDbArc
 50
90.0
 51
179.999999999991
  0
ARC
  5
38D
100
AcDbEntity
  8
1
  6
CONTINUOUS
 62
           7
100
AcDbCircle
 10
-231.30567812739
 20
201.013763465862
 40
0.4
100
AcDbArc
 50
-90.0
 51
0.0
  0
ARC
  5
38C
100
AcDbEntity
  8
1
  6
CONTINUOUS
 62
           7
100
AcDbCircle
 10
-231.30567812739
 20
159.713763465862
 40
0.4
100
AcDbArc
 50
0.0
 51
90.0
  0
ARC
  5
38B
100
AcDbEntity
  8
1
  6
CONTINUOUS
 62
           7
100
AcDbCircle
 10
-230.10567812739
 20
153.863763465862
 40
0.8
100
AcDbArc
 50
-179.999999999993
 51
-90.0
  0
ARC
  5
38A
100
AcDbEntity
  8
1
  6
DOTTED
 62
           2
100
AcDbCircle
 10
-226.50567812739
 20
164.702241096947
 40
0.2
100
AcDbArc
 50
45.0
 51
135.0
  0
ARC
  5
389
100
AcDbEntity
  8
1
  6
DOTTED
 62
           2
100
AcDbCircle
 10
-228.344155758475
 20
162.863763465862
 40
0.2
100
AcDbArc
 50
135.000000000023
 51
-135.0
  0
ARC
  5
388
100
AcDbEntity
  8
1
  6
DOTTED
 62
           2
100
AcDbCircle
 10
-224.667200496305
 20
162.863763465862
 40
0.2
100
AcDbArc
 50
-45.000000000023
 51
45.0
  0
ARC
  5
387
100
AcDbEntity
  8
1
  6
DOTTED
 62
           2
100
AcDbCircle
 10
-226.50567812739
 20
161.025285834777
 40
0.2
100
AcDbArc
 50
-134.999999999977
 51
-45.000000000023
  0
ARC
  5
386
100
AcDbEntity
  8
1
  6
CONTINUOUS
 62
           7
100
AcDbCircle
 10
-235.70567812739
 20
165.363763465862
 40
0.1
100
AcDbArc
 50
90.0
 51
180.0
  0
ARC
  5
385
100
AcDbEntity
  8
1
  6
CONTINUOUS
 62
           7
100
AcDbCircle
 10
-235.70567812739
 20
166.263763465862
 40
0.1
100
AcDbArc
 50
180.0
 51
-90.0
  0
ARC
  5
384
100
AcDbEntity
  8
1
  6
CONTINUOUS
 62
           7
100
AcDbCircle
 10
-235.50567812739
 20
166.063763465862
 40
0.1
100
AcDbArc
 50
0.0
 51
90.0
  0
ARC
  5
383
100
AcDbEntity
  8
1
  6
CONTINUOUS
 62
           7
100
AcDbCircle
 10
-235.50567812739
 20
165.563763465862
 40
0.1
100
AcDbArc
 50
-90.0
 51
0.0
  0
ARC
  5
382
100
AcDbEntity
  8
1
  6
CONTINUOUS
 62
           7
100
AcDbCircle
 10
-235.70567812739
 20
195.363763465862
 40
0.1
100
AcDbArc
 50
180.0
 51
-90.0
  0
ARC
  5
381
100
AcDbEntity
  8
1
  6
CONTINUOUS
 62
           7
100
AcDbCircle
 10
-235.70567812739
 20
194.463763465862
 40
0.1
100
AcDbArc
 50
90.0
 51
180.0
  0
ARC
  5
380
100
AcDbEntity
  8
1
  6
CONTINUOUS
 62
           7
100
AcDbCircle
 10
-235.50567812739
 20
194.663763465862
 40
0.1
100
AcDbArc
 50
-90.0
 51
0.0
  0
ARC
  5
37F
100
AcDbEntity
  8
1
  6
CONTINUOUS
 62
           7
100
AcDbCircle
 10
-235.50567812739
 20
195.163763465862
 40
0.1
100
AcDbArc
 50
0.0
 51
90.0
  0
ARC
  5
37E
100
AcDbEntity
  8
1
  6
CONTINUOUS
 62
           7
100
AcDbCircle
 10
-233.60567812739
 20
199.713763465862
 40
0.905538513814
100
AcDbArc
 50
96.340191745902
 51
180.0
  0
ARC
  5
37D
100
AcDbEntity
  8
1
  6
CONTINUOUS
 62
           7
100
AcDbCircle
 10
-233.60567812739
 20
161.013763465862
 40
0.905538513814
100
AcDbArc
 50
180.0
 51
-96.340191745902
  0
SPLINE
  5
37C
100
AcDbEntity
  8
1
  6
CONTINUOUS
 62
           3
100
AcDbSpline
210
0.0
220
0.0
230
1.0
 70
           0
 71
           4
 72
           8
 73
           4
 74
           3
 42
0.00000000001
 43
0.00000000001
 44
0.00000000001
 40
0.0
 40
0.0
 40
0.0
 40
0.0
 40
6.5599023816114777
 40
6.5599023816114777
 40
6.5599023816114777
 40
6.5599023816114777
 10
-234.70567812739031
 20
195.86376346586181
 30
0.0
 10
-233.76988679572449
 20
193.8040766124069
 30
0.0
 10
-232.3624530102212
 20
192.12793766002781
 30
0.0
 10
-230.67443278058869
 20
190.86376346586181
 30
0.0
 11
-234.70567812739031
 21
195.86376346586181
 31
0.0
 11
-232.972141290727
 21
193.06544621862847
 31
0.0
 11
-230.67443278058869
 21
190.86376346586181
 31
0.0
  0
SPLINE
  5
37B
100
AcDbEntity
  8
1
  6
CONTINUOUS
 62
           3
100
AcDbSpline
210
0.0
220
0.0
230
1.0
 70
           0
 71
           4
 72
          10
 73
           6
 74
           7
 42
0.00000000001
 43
0.00000000001
 44
0.00000000001
 40
0.0
 40
0.0
 40
0.0
 40
0.0
 40
7.2044480169305256
 40
10.77490698389887
 40
13.222235434920623
 40
13.222235434920623
 40
13.222235434920623
 40
13.222235434920623
 10
-234.70567812739031
 20
164.86376346586181
 30
0.0
 10
-233.33239235641361
 20
167.4243670898353
 30
0.0
 10
-229.30335545313079
 20
165.9254282094561
 30
0.0
 10
-225.75202747639059
 20
166.2945445006531
 30
0.0
 10
-223.90805592791111
 20
166.24133434035221
 30
0.0
 10
-223.30567812738991
 20
166.25729981806359
 30
0.0
 11
-234.70567812739031
 21
164.86376346586181
 31
0.0
 11
-231.88376821874937
 21
166.57846819470973
 31
0.0
 11
-228.4519429527316
 21
166.22449522850872
 31
0.0
 11
-226.89440070686703
 21
166.19135571974255
 31
0.0
 11
-225.37022334954401
 21
166.24802843641754
 31
0.0
 11
-224.29674619654105
 21
166.25228165119353
 31
0.0
 11
-223.30567812738991
 21
166.25729981806359
 31
0.0
  0
SPLINE
  5
37A
100
AcDbEntity
  8
1
  6
CONTINUOUS
 62
           3
100
AcDbSpline
210
0.0
220
0.0
230
1.0
 70
           0
 71
           4
 72
          11
 73
           7
 74
           9
 42
0.00000000001
 43
0.00000000001
 44
0.00000000001
 40
6.1269107601055621
 40
6.1269107601055621
 40
6.1269107601055621
 40
6.1269107601055621
 40
23.916562665238629
 40
35.555372230855582
 40
41.454257581230863
 40
45.774436440388925
 40
45.774436440388925
 40
45.774436440388925
 40
45.774436440388925
 10
-230.67443278058869
 20
190.86376346586181
 30
0.0
 10
-224.9370714622388
 20
186.56699972219289
 30
0.0
 10
-214.3294249238179
 20
187.1132656685437
 30
0.0
 10
-208.85533298951739
 20
197.38440025044471
 30
0.0
 10
-204.1243516576059
 20
193.86095534325841
 30
0.0
 10
-202.7688029501613
 20
196.4002762597982
 30
0.0
 10
-202.57234250793721
 20
197.828523762526
 30
0.0
 11
-230.67443278058869
 21
190.86376346586181
 31
0.0
 11
-221.92275137909564
 21
187.67635768087305
 31
0.0
 11
-214.32227537865757
 21
190.15443817119728
 31
0.0
 11
-210.72999629782697
 21
193.69766216036678
 31
0.0
 11
-207.49096480858631
 21
195.56243458013068
 31
0.0
 11
-205.71822496800166
 21
195.09509342383751
 31
0.0
 11
-204.06797769949932
 21
195.00149129487539
 31
0.0
 11
-203.1215425249803
 21
196.00139088504034
 31
0.0
 11
-202.57234250793721
 21
197.828523762526
 31
0.0
  0
SPLINE
  5
379
100
AcDbEntity
  8
1
  6
CONTINUOUS
 62
           3
100
AcDbSpline
210
0.0
220
0.0
230
1.0
 70
           0
 71
           4
 72
           8
 73
           4
 74
           3
 42
0.00000000001
 43
0.00000000001
 44
0.00000000001
 40
11.7320693904443
 40
11.7320693904443
 40
11.7320693904443
 40
11.7320693904443
 40
13.950510796823609
 40
13.950510796823609
 40
13.950510796823609
 40
13.950510796823609
 10
-223.30567812738991
 20
166.25729981806359
 30
0.0
 10
-222.4999574146199
 20
166.27865471538919
 30
0.0
 10
-221.7280107016978
 20
166.36064638444469
 30
0.0
 10
-221.15567803943421
 20
166.63835262714949
 30
0.0
 11
-223.30567812738991
 21
166.25729981806359
 31
0.0
 11
-222.14315756447215
 21
166.35169446808936
 31
0.0
 11
-221.15567803943421
 21
166.63835262714949
 31
0.0
  0
SPLINE
  5
378
100
AcDbEntity
  8
1
  6
CONTINUOUS
 62
           3
100
AcDbSpline
210
0.0
220
0.0
230
1.0
 70
           0
 71
           4
 72
          10
 73
           6
 74
           7
 42
0.00000000001
 43
0.00000000001
 44
0.00000000001
 40
14.137359037132899
 40
14.137359037132899
 40
14.137359037132899
 40
14.137359037132899
 40
20.063613642964789
 40
25.58770732300799
 40
29.163718533577669
 40
29.163718533577669
 40
29.163718533577669
 40
29.163718533577669
 10
-208.80567812739019
 20
151.9637634658618
 30
0.0
 10
-207.87241594474949
 20
153.34218745655031
 30
0.0
 10
-207.92618524749631
 20
157.60346143917701
 30
0.0
 10
-202.6848474184344
 20
159.34816449343521
 30
0.0
 10
-202.84270830174631
 20
162.25729745699061
 30
0.0
 10
-203.0077849975689
 20
162.89900316919611
 30
0.0
 11
-208.80567812739019
 21
151.9637634658618
 31
0.0
 11
-207.87093285541204
 21
154.4501361437303
 31
0.0
 11
-206.84380235248108
 21
156.96779227244528
 31
0.0
 11
-204.93133980141388
 21
158.61229056098151
 31
0.0
 11
-203.23318014764459
 21
160.25699767687394
 31
0.0
 11
-202.88888926856754
 21
161.65877928992478
 31
0.0
 11
-203.0077849975689
 21
162.89900316919611
 31
0.0
  0
SPLINE
  5
377
100
AcDbEntity
  8
1
  6
CONTINUOUS
 62
           3
100
AcDbSpline
210
0.0
220
0.0
230
1.0
 70
           0
 71
           4
 72
           8
 73
           4
 74
           3
 42
0.00000000001
 43
0.00000000001
 44
0.00000000001
 40
50.159789897097653
 40
50.159789897097653
 40
50.159789897097653
 40
50.159789897097653
 40
50.448266753086386
 40
50.448266753086386
 40
50.448266753086386
 40
50.448266753086386
 10
-220.9056780732179
 20
166.78133359311241
 30
0.0
 10
-220.98385574635481
 20
166.7286856867708
 30
0.0
 10
-221.06739197635969
 20
166.68119063461651
 30
0.0
 10
-221.15567803943091
 20
166.63835262715111
 30
0.0
 11
-220.9056780732179
 21
166.78133359311241
 31
0.0
 11
-221.02688741009905
 21
166.70616439805318
 31
0.0
 11
-221.15567803943091
 21
166.63835262715111
 31
0.0
  0
SPLINE
  5
376
100
AcDbEntity
  8
1
  6
CONTINUOUS
 62
           3
100
AcDbSpline
210
0.0
220
0.0
230
1.0
 70
           0
 71
           4
 72
           9
 73
           5
 74
           5
 42
0.00000000001
 43
0.00000000001
 44
0.00000000001
 40
48.434410605657291
 40
48.434410605657291
 40
48.434410605657291
 40
48.434410605657291
 40
49.296924446248596
 40
50.038135134459658
 40
50.038135134459658
 40
50.038135134459658
 40
50.038135134459658
 10
-220.16377463150789
 20
168.11376346586371
 30
0.0
 10
-220.2126634630485
 20
167.8148939167362
 30
0.0
 10
-220.3567364276042
 20
167.2740835706613
 30
0.0
 10
-220.7010883093115
 20
166.91911235137391
 30
0.0
 10
-220.9056780732179
 20
166.78133359311241
 30
0.0
 11
-220.16377463150789
 21
168.11376346586371
 31
0.0
 11
-220.26222193488746
 21
167.67718547769292
 31
0.0
 11
-220.42556445036058
 21
167.28693141575684
 31
0.0
 11
-220.63253923666548
 21
167.00939022063758
 31
0.0
 11
-220.9056780732179
 21
166.78133359311241
 31
0.0
  0
SPLINE
  5
375
100
AcDbEntity
  8
1
  6
CONTINUOUS
 62
           3
100
AcDbSpline
210
0.0
220
0.0
230
1.0
 70
           0
 71
           4
 72
           9
 73
           5
 74
           5
 42
0.00000000001
 43
0.00000000001
 44
0.00000000001
 40
43.982263614490947
 40
43.982263614490947
 40
43.982263614490947
 40
43.982263614490947
 40
45.883350062787798
 40
48.388722556179957
 40
48.388722556179957
 40
48.388722556179957
 40
48.388722556179957
 10
-218.40567807322299
 20
171.37037623037409
 30
0.0
 10
-219.0944457087939
 20
171.26623429843309
 30
0.0
 10
-220.103526996055
 20
170.60854783377351
 30
0.0
 10
-220.04525821000061
 20
168.83828373652551
 30
0.0
 10
-220.16377463150789
 20
168.11376346586371
 30
0.0
 11
-218.40567807322299
 21
171.37037623037409
 31
0.0
 11
-219.25560965735741
 21
171.07602428123312
 31
0.0
 11
-219.76647570888554
 21
170.49165276584398
 31
0.0
 11
-220.0376486174209
 21
169.33183329281744
 31
0.0
 11
-220.16377463150789
 21
168.11376346586371
 31
0.0
  0
SPLINE
  5
374
100
AcDbEntity
  8
1
  6
CONTINUOUS
 62
           3
100
AcDbSpline
210
0.0
220
0.0
230
1.0
 70
           0
 71
           4
 72
          11
 73
           7
 74
           9
 42
0.00000000001
 43
0.00000000001
 44
0.00000000001
 40
26.843179492134681
 40
26.843179492134681
 40
26.843179492134681
 40
26.843179492134681
 40
31.695758670186528
 40
36.472610581219499
 40
41.528841987785015
 40
49.305958098643103
 40
49.305958098643103
 40
49.305958098643103
 40
49.305958098643103
 10
-203.0077849975689
 20
162.89900316919611
 30
0.0
 10
-203.3902887560557
 20
164.3859171490152
 30
0.0
 10
-205.38304322808841
 20
167.03791754076241
 30
0.0
 10
-209.37088382604989
 20
164.4081948281576
 30
0.0
 10
-211.2780099653545
 20
169.09096600829449
 30
0.0
 10
-216.33445164629629
 20
171.6835464643506
 30
0.0
 10
-218.40567807322299
 20
171.37037623037409
 30
0.0
 11
-203.0077849975689
 21
162.89900316919611
 31
0.0
 11
-203.98985593411268
 21
164.89640106879853
 31
0.0
 11
-205.55669125811613
 21
165.94741831585858
 31
0.0
 11
-207.32109457413748
 21
165.73574814668714
 31
0.0
 11
-208.91618733661875
 21
165.49082735429877
 31
0.0
 11
-210.18007864133455
 21
166.47938164015051
 31
0.0
 11
-211.55251637934711
 21
168.24016602112667
 31
0.0
 11
-214.8465207835911
 21
170.62480557601046
 31
0.0
 11
-218.40567807322299
 21
171.37037623037409
 31
0.0
  0
SPLINE
  5
373
100
AcDbEntity
  8
1
  6
CONTINUOUS
 62
           3
100
AcDbSpline
210
0.0
220
0.0
230
1.0
 70
           0
 71
           4
 72
           9
 73
           5
 74
           5
 42
0.00000000001
 43
0.00000000001
 44
0.00000000001
 40
38.591969357669583
 40
38.591969357669583
 40
38.591969357669583
 40
38.591969357669583
 40
45.382053637231159
 40
54.190751588545979
 40
54.190751588545979
 40
54.190751588545979
 40
54.190751588545979
 10
-202.57234250793721
 20
197.828523762526
 30
0.0
 10
-202.35994452443691
 20
199.37263557498221
 30
0.0
 10
-203.13113486086871
 20
204.5469138259154
 30
0.0
 10
-208.0623980203768
 20
204.97734203052869
 30
0.0
 10
-208.80567812739019
 20
208.76376346586181
 30
0.0
 11
-202.57234250793721
 21
197.828523762526
 31
0.0
 11
-202.6948368025302
 21
200.47497554194524
 31
0.0
 11
-203.81959703874674
 21
202.97844246126968
 31
0.0
 11
-206.58069351637701
 21
205.10963303203908
 31
0.0
 11
-208.80567812739019
 21
208.76376346586181
 31
0.0
  0
CIRCLE
  5
372
100
AcDbEntity
  8
1
  6
CONTINUOUS
 62
           3
100
AcDbCircle
 10
-194.405678129437
 20
180.363763465862
 40
1.5
  0
CIRCLE
  5
371
100
AcDbEntity
  8
1
  6
CONTINUOUS
 62
           7
100
AcDbCircle
 10
-194.405678129437
 20
180.363763465862
 40
1.2
  0
CIRCLE
  5
370
100
AcDbEntity
  8
1
  6
CONTINUOUS
 62
           7
100
AcDbCircle
 10
-319.139011460724
 20
180.363763465862
 40
14.2
  0
CIRCLE
  5
36F
100
AcDbEntity
  8
1
  6
CONTINUOUS
 62
           7
100
AcDbCircle
 10
-319.139011460724
 20
180.363763465862
 40
14.9
  0
CIRCLE
  5
36E
100
AcDbEntity
  8
1
  6
CONTINUOUS
 62
           7
100
AcDbCircle
 10
-319.139011460724
 20
180.363763465862
 40
28.0
  0
CIRCLE
  5
36D
100
AcDbEntity
  8
1
  6
CONTINUOUS
 62
           7
100
AcDbCircle
 10
-319.139011460724
 20
180.363763465862
 40
27.5
  0
CIRCLE
  5
36C
100
AcDbEntity
  8
1
  6
CONTINUOUS
 62
           7
100
AcDbCircle
 10
-319.139011460724
 20
180.363763465862
 40
15.5
  0
CIRCLE
  5
36B
100
AcDbEntity
  8
1
  6
CONTINUOUS
 62
           7
100
AcDbCircle
 10
-319.139011460724
 20
180.363763465862
 40
4.0
  0
CIRCLE
  5
36A
100
AcDbEntity
  8
1
  6
CONTINUOUS
 62
           3
100
AcDbCircle
 10
-319.139011460724
 20
191.863763465862
 40
2.0
  0
CIRCLE
  5
369
100
AcDbEntity
  8
1
  6
CONTINUOUS
 62
           7
100
AcDbCircle
 10
-319.139011460724
 20
191.863763465862
 40
1.6
  0
CIRCLE
  5
368
100
AcDbEntity
  8
1
  6
CONTINUOUS
 62
           3
100
AcDbCircle
 10
-329.098303604245
 20
186.113763465862
 40
2.0
  0
CIRCLE
  5
367
100
AcDbEntity
  8
1
  6
CONTINUOUS
 62
           7
100
AcDbCircle
 10
-329.098303604245
 20
186.113763465862
 40
1.6
  0
CIRCLE
  5
366
100
AcDbEntity
  8
1
  6
CONTINUOUS
 62
           3
100
AcDbCircle
 10
-329.098303604245
 20
174.613763465862
 40
2.0
  0
CIRCLE
  5
365
100
AcDbEntity
  8
1
  6
CONTINUOUS
 62
           7
100
AcDbCircle
 10
-329.098303604245
 20
174.613763465862
 40
1.6
  0
CIRCLE
  5
364
100
AcDbEntity
  8
1
  6
CONTINUOUS
 62
           3
100
AcDbCircle
 10
-319.139011460724
 20
168.863763465862
 40
2.0
  0
CIRCLE
  5
363
100
AcDbEntity
  8
1
  6
CONTINUOUS
 62
           7
100
AcDbCircle
 10
-319.139011460724
 20
168.863763465862
 40
1.6
  0
CIRCLE
  5
362
100
AcDbEntity
  8
1
  6
CONTINUOUS
 62
           3
100
AcDbCircle
 10
-309.179719317203
 20
174.613763465862
 40
2.0
  0
CIRCLE
  5
361
100
AcDbEntity
  8
1
  6
CONTINUOUS
 62
           7
100
AcDbCircle
 10
-309.179719317203
 20
174.613763465862
 40
1.6
  0
CIRCLE
  5
360
100
AcDbEntity
  8
1
  6
CONTINUOUS
 62
           3
100
AcDbCircle
 10
-309.179719317203
 20
186.113763465862
 40
2.0
  0
CIRCLE
  5
35F
100
AcDbEntity
  8
1
  6
CONTINUOUS
 62
           7
100
AcDbCircle
 10
-309.179719317203
 20
186.113763465862
 40
1.6
  0
CIRCLE
  5
35E
100
AcDbEntity
  8
1
  6
CONTINUOUS
 62
           7
100
AcDbCircle
 10
-319.139011460724
 20
180.363763465862
 40
20.0
  0
CIRCLE
  5
35D
100
AcDbEntity
  8
1
  6
DASH_CENTER
 62
           3
100
AcDbCircle
 10
-319.139011460724
 20
180.363763465862
 40
7.5
  0
CIRCLE
  5
35C
100
AcDbEntity
  8
1
  6
CONTINUOUS
 62
           7
100
AcDbCircle
 10
-318.095213203523
 20
187.790773981424
 40
1.05
  0
CIRCLE
  5
35B
100
AcDbEntity
  8
1
  6
CONTINUOUS
 62
           7
100
AcDbCircle
 10
-325.049092112774
 20
184.981224530804
 40
1.05
  0
CIRCLE
  5
35A
100
AcDbEntity
  8
1
  6
CONTINUOUS
 62
           7
100
AcDbCircle
 10
-326.092890369975
 20
177.554214015242
 40
1.05
  0
CIRCLE
  5
359
100
AcDbEntity
  8
1
  6
CONTINUOUS
 62
           7
100
AcDbCircle
 10
-320.182809717924
 20
172.9367529503
 40
1.05
  0
CIRCLE
  5
358
100
AcDbEntity
  8
1
  6
CONTINUOUS
 62
           7
100
AcDbCircle
 10
-313.228930808673
 20
175.746302400919
 40
1.05
  0
CIRCLE
  5
357
100
AcDbEntity
  8
1
  6
CONTINUOUS
 62
           7
100
AcDbCircle
 10
-312.185132551473
 20
183.173312916481
 40
1.05
  0
CIRCLE
  5
356
100
AcDbEntity
  8
1
  6
DASH_CENTER
 62
           3
100
AcDbCircle
 10
-319.139011460724
 20
180.363763465862
 40
8.5
  0
CIRCLE
  5
355
100
AcDbEntity
  8
1
  6
CONTINUOUS
 62
           3
100
AcDbCircle
 10
-322.323167504759
 20
188.244826229679
 40
2.0
  0
CIRCLE
  5
354
100
AcDbEntity
  8
1
  6
CONTINUOUS
 62
           7
100
AcDbCircle
 10
-322.323167504759
 20
188.244826229679
 40
1.6
  0
CIRCLE
  5
353
100
AcDbEntity
  8
1
  6
CONTINUOUS
 62
           7
100
AcDbCircle
 10
-327.556290045027
 20
181.546734824022
 40
1.6
  0
CIRCLE
  5
352
100
AcDbEntity
  8
1
  6
CONTINUOUS
 62
           3
100
AcDbCircle
 10
-327.556290045027
 20
181.546734824022
 40
2.0
  0
CIRCLE
  5
351
100
AcDbEntity
  8
1
  6
CONTINUOUS
 62
           7
100
AcDbCircle
 10
-324.372134000992
 20
173.665672060205
 40
1.6
  0
CIRCLE
  5
350
100
AcDbEntity
  8
1
  6
CONTINUOUS
 62
           3
100
AcDbCircle
 10
-324.372134000992
 20
173.665672060205
 40
2.0
  0
CIRCLE
  5
34F
100
AcDbEntity
  8
1
  6
CONTINUOUS
 62
           7
100
AcDbCircle
 10
-315.954855416688
 20
172.482700702044
 40
1.6
  0
CIRCLE
  5
34E
100
AcDbEntity
  8
1
  6
CONTINUOUS
 62
           3
100
AcDbCircle
 10
-315.954855416688
 20
172.482700702044
 40
2.0
  0
CIRCLE
  5
34D
100
AcDbEntity
  8
1
  6
CONTINUOUS
 62
           7
100
AcDbCircle
 10
-310.72173287642
 20
179.180792107701
 40
1.6
  0
CIRCLE
  5
34C
100
AcDbEntity
  8
1
  6
CONTINUOUS
 62
           3
100
AcDbCircle
 10
-310.72173287642
 20
179.180792107701
 40
2.0
  0
CIRCLE
  5
34B
100
AcDbEntity
  8
1
  6
CONTINUOUS
 62
           7
100
AcDbCircle
 10
-313.905888920455
 20
187.061854871519
 40
1.6
  0
CIRCLE
  5
34A
100
AcDbEntity
  8
1
  6
CONTINUOUS
 62
           3
100
AcDbCircle
 10
-313.905888920455
 20
187.061854871519
 40
2.0
  0
CIRCLE
  5
349
100
AcDbEntity
  8
1
  6
DASH_CENTER
 62
           3
100
AcDbCircle
 10
-319.139011460724
 20
180.363763465862
 40
11.5
  0
CIRCLE
  5
348
100
AcDbEntity
  8
1
  6
CONTINUOUS
 62
           7
100
AcDbCircle
 10
-319.139011460724
 20
180.363763465862
 40
5.5
  0
CIRCLE
  5
347
100
AcDbEntity
  8
1
  6
CONTINUOUS
 62
           7
100
AcDbCircle
 10
-95.563893331088
 20
180.363763465862
 40
3.0
  0
CIRCLE
  5
346
100
AcDbEntity
  8
1
  6
CONTINUOUS
 62
           7
100
AcDbCircle
 10
-95.563893331088
 20
180.363763465862
 40
4.0
  0
CIRCLE
  5
345
100
AcDbEntity
  8
1
  6
CONTINUOUS
 62
           7
100
AcDbCircle
 10
-95.563893331088
 20
180.363763465862
 40
11.0
  0
CIRCLE
  5
344
100
AcDbEntity
  8
1
  6
CONTINUOUS
 62
           7
100
AcDbCircle
 10
-95.563893331088
 20
180.363763465862
 40
14.8
  0
CIRCLE
  5
343
100
AcDbEntity
  8
1
  6
CONTINUOUS
 62
           7
100
AcDbCircle
 10
-95.563893331088
 20
180.363763465862
 40
17.5
  0
CIRCLE
  5
342
100
AcDbEntity
  8
1
  6
CONTINUOUS
 62
           7
100
AcDbCircle
 10
-95.563893331088
 20
180.363763465862
 40
36.5
  0
CIRCLE
  5
341
100
AcDbEntity
  8
1
  6
DASH_CENTER
 62
           3
100
AcDbCircle
 10
-95.563893331088
 20
180.363763465862
 40
32.5
  0
CIRCLE
  5
340
100
AcDbEntity
  8
1
  6
CONTINUOUS
 62
           7
100
AcDbCircle
 10
-95.563893331088
 20
212.863763465862
 40
2.25
  0
CIRCLE
  5
33F
100
AcDbEntity
  8
1
  6
CONTINUOUS
 62
           7
100
AcDbCircle
 10
-123.709718954083
 20
196.613763465862
 40
2.25
  0
CIRCLE
  5
33E
100
AcDbEntity
  8
1
  6
CONTINUOUS
 62
           7
100
AcDbCircle
 10
-123.709718954083
 20
164.113763465862
 40
2.25
  0
CIRCLE
  5
33D
100
AcDbEntity
  8
1
  6
CONTINUOUS
 62
           7
100
AcDbCircle
 10
-95.563893331089
 20
147.863763465862
 40
2.25
  0
CIRCLE
  5
33C
100
AcDbEntity
  8
1
  6
CONTINUOUS
 62
           7
100
AcDbCircle
 10
-67.418067708094
 20
196.613763465862
 40
2.25
  0
CIRCLE
  5
33B
100
AcDbEntity
  8
1
  6
CONTINUOUS
 62
           7
100
AcDbCircle
 10
-67.418067708094
 20
164.113763465862
 40
2.25
  0
CIRCLE
  5
33A
100
AcDbEntity
  8
1
  6
DASH_CENTER
 62
           3
100
AcDbCircle
 10
-95.563893331088
 20
180.363763465862
 40
21.92
  0
CIRCLE
  5
339
100
AcDbEntity
  8
1
  6
CONTINUOUS
 62
           7
100
AcDbCircle
 10
-74.390799218832
 20
174.690449997215
 40
1.7
  0
CIRCLE
  5
338
100
AcDbEntity
  8
1
  6
DASHED
 62
           7
100
AcDbCircle
 10
-74.390799218832
 20
174.690449997215
 40
3.25
  0
CIRCLE
  5
337
100
AcDbEntity
  8
1
  6
DASHED
 62
           7
100
AcDbCircle
 10
-89.890579862441
 20
201.536857578118
 40
3.25
  0
CIRCLE
  5
336
100
AcDbEntity
  8
1
  6
CONTINUOUS
 62
           7
100
AcDbCircle
 10
-89.890579862441
 20
201.536857578118
 40
1.7
  0
CIRCLE
  5
335
100
AcDbEntity
  8
1
  6
DASHED
 62
           7
100
AcDbCircle
 10
-116.736987443345
 20
186.037076934509
 40
3.25
  0
CIRCLE
  5
334
100
AcDbEntity
  8
1
  6
CONTINUOUS
 62
           7
100
AcDbCircle
 10
-116.736987443345
 20
186.037076934509
 40
1.7
  0
CIRCLE
  5
333
100
AcDbEntity
  8
1
  6
DASHED
 62
           7
100
AcDbCircle
 10
-101.237206799736
 20
159.190669353605
 40
3.25
  0
CIRCLE
  5
332
100
AcDbEntity
  8
1
  6
CONTINUOUS
 62
           7
100
AcDbCircle
 10
-101.237206799736
 20
159.190669353605
 40
1.7
  0
CIRCLE
  5
331
100
AcDbEntity
  8
1
  6
DASHED
 62
           7
100
AcDbCircle
 10
-106.313893331088
 20
180.363763465862
 40
1.0
  0
CIRCLE
  5
330
100
AcDbEntity
  8
1
  6
DASHED
 62
           3
100
AcDbCircle
 10
-106.313893331088
 20
180.363763465862
 40
1.25
  0
CIRCLE
  5
32F
100
AcDbEntity
  8
1
  6
DASHED
 62
           7
100
AcDbCircle
 10
-106.313893331088
 20
180.363763465862
 40
1.45
  0
CIRCLE
  5
32E
100
AcDbEntity
  8
1
  6
DASHED
 62
           7
100
AcDbCircle
 10
-84.813893331088
 20
180.363763465862
 40
1.45
  0
CIRCLE
  5
32D
100
AcDbEntity
  8
1
  6
DASHED
 62
           3
100
AcDbCircle
 10
-84.813893331088
 20
180.363763465862
 40
1.25
  0
CIRCLE
  5
32C
100
AcDbEntity
  8
1
  6
DASHED
 62
           7
100
AcDbCircle
 10
-84.813893331088
 20
180.363763465862
 40
1.0
  0
CIRCLE
  5
32B
100
AcDbEntity
  8
1
  6
CONTINUOUS
 62
           7
100
AcDbCircle
 10
-319.139011460724
 20
180.363763465862
 40
27.75
  0
CIRCLE
  5
32A
100
AcDbEntity
  8
1
  6
CONTINUOUS
 62
           7
100
AcDbCircle
 10
-319.139011460724
 20
180.363763465862
 40
36.5
  0
CIRCLE
  5
329
100
AcDbEntity
  8
1
  6
DASH_CENTER
 62
           3
100
AcDbCircle
 10
-319.139011460724
 20
180.363763465862
 40
23.5
  0
CIRCLE
  5
328
100
AcDbEntity
  8
1
  6
DASH_CENTER
 62
           3
100
AcDbCircle
 10
-319.139011460724
 20
180.363763465862
 40
32.5
  0
CIRCLE
  5
327
100
AcDbEntity
  8
1
  6
CONTINUOUS
 62
           7
100
AcDbCircle
 10
-319.139011460724
 20
212.863763465862
 40
2.25
  0
CIRCLE
  5
326
100
AcDbEntity
  8
1
  6
CONTINUOUS
 62
           7
100
AcDbCircle
 10
-347.284837083718
 20
196.613763465862
 40
2.25
  0
CIRCLE
  5
325
100
AcDbEntity
  8
1
  6
CONTINUOUS
 62
           7
100
AcDbCircle
 10
-347.284837083718
 20
164.113763465862
 40
2.25
  0
CIRCLE
  5
324
100
AcDbEntity
  8
1
  6
CONTINUOUS
 62
           7
100
AcDbCircle
 10
-319.139011460724
 20
147.863763465862
 40
2.25
  0
CIRCLE
  5
323
100
AcDbEntity
  8
1
  6
CONTINUOUS
 62
           7
100
AcDbCircle
 10
-290.993185837729
 20
164.113763465862
 40
2.25
  0
CIRCLE
  5
322
100
AcDbEntity
  8
1
  6
CONTINUOUS
 62
           7
100
AcDbCircle
 10
-290.993185837729
 20
196.613763465862
 40
2.25
  0
ARC
  5
321
100
AcDbEntity
  8
1
  6
CONTINUOUS
 62
           7
100
AcDbCircle
 10
-203.10567812739
 20
206.668932091677
 40
0.2
100
AcDbArc
 50
91.500000000008
 51
180.0
  0
ARC
  5
320
100
AcDbEntity
  8
1
  6
CONTINUOUS
 62
           7
100
AcDbCircle
 10
-203.10567812739
 20
204.358594840046
 40
0.2
100
AcDbArc
 50
180.0
 51
-91.500000000009
  0
ARC
  5
31F
100
AcDbEntity
  8
1
  6
CONTINUOUS
 62
           7
100
AcDbCircle
 10
-203.10567812739
 20
156.368932091677
 40
0.2
100
AcDbArc
 50
91.500000000008
 51
180.0
  0
ARC
  5
31E
100
AcDbEntity
  8
1
  6
CONTINUOUS
 62
           7
100
AcDbCircle
 10
-203.10567812739
 20
154.058594840046
 40
0.2
100
AcDbArc
 50
179.999999999975
 51
-91.500000000009
  0
ARC
  5
31D
100
AcDbEntity
  8
0
  6
CONTINUOUS
 62
           7
100
AcDbCircle
 10
-199.905678126117
 20
197.54374245415
 40
0.09999999854
100
AcDbArc
 50
0.000000006823
 51
45.0
  0
ARC
  5
31C
100
AcDbEntity
  8
0
  6
CONTINUOUS
 62
           7
100
AcDbCircle
 10
-199.905678125925
 20
197.425992761736
 40
0.099999998398
100
AcDbArc
 50
-85.99999998601
 51
0.000000001319
  0
ARC
  5
31B
100
AcDbEntity
  8
0
  6
CONTINUOUS
 62
           7
100
AcDbCircle
 10
-199.905678126117
 20
163.183784477594
 40
0.09999999854
100
AcDbArc
 50
-45.000000000046
 51
-0.000000006758
  0
ARC
  5
31A
100
AcDbEntity
  8
0
  6
CONTINUOUS
 62
           7
100
AcDbCircle
 10
-199.905678125915
 20
163.301534169997
 40
0.099999998388
100
AcDbArc
 50
0.000000005032
 51
85.999999991421
  0
ARC
  5
319
100
AcDbEntity
  8
0
  6
CONTINUOUS
 62
           7
100
AcDbCircle
 10
-221.405678035676
 20
168.613763642354
 40
0.249999996241
100
AcDbArc
 50
-0.00000000073
 51
89.999999999264
  0
ARC
  5
318
100
AcDbEntity
  8
1
  6
DASHED
 62
           7
100
AcDbCircle
 10
-95.563893331088
 20
180.363763465862
 40
8.0
100
AcDbArc
 50
122.457603123722
 51
135.824338706372
  0
ARC
  5
317
100
AcDbEntity
  8
1
  6
DASHED
 62
           7
100
AcDbCircle
 10
-95.563893331088
 20
180.363763465862
 40
8.0
100
AcDbArc
 50
67.973848132104
 51
87.542396876277
  0
ARC
  5
316
100
AcDbEntity
  8
1
  6
DASHED
 62
           7
100
AcDbCircle
 10
-95.563893331088
 20
180.363763465862
 40
8.0
100
AcDbArc
 50
87.542396876277
 51
122.457603123722
  0
ARC
  5
315
100
AcDbEntity
  8
1
  6
DASHED
 62
           7
100
AcDbCircle
 10
-95.563893331088
 20
180.363763465862
 40
8.0
100
AcDbArc
 50
159.894490212084
 51
-159.894490212084
  0
ARC
  5
314
100
AcDbEntity
  8
1
  6
CONTINUOUS
 62
           7
100
AcDbCircle
 10
-95.563893331088
 20
180.363763465862
 40
8.0
100
AcDbArc
 50
153.182690127552
 51
159.894490212084
  0
ARC
  5
313
100
AcDbEntity
  8
1
  6
DASHED
 62
           7
100
AcDbCircle
 10
-106.313893331088
 20
180.363763465862
 40
2.75
100
AcDbArc
 50
90.0
 51
-90.0
  0
ARC
  5
312
100
AcDbEntity
  8
1
  6
DASHED
 62
           7
100
AcDbCircle
 10
-95.563893331088
 20
180.363763465862
 40
8.0
100
AcDbArc
 50
-159.894490212084
 51
-153.475365801342
  0
ARC
  5
311
100
AcDbEntity
  8
1
  6
DASH_CENTER
 62
           3
100
AcDbCircle
 10
-95.563893331088
 20
180.363763465862
 40
10.75
100
AcDbArc
 50
159.548217411616
 51
-160.972942179624
  0
ARC
  5
310
100
AcDbEntity
  8
1
  6
DASH_CENTER
 62
           3
100
AcDbCircle
 10
-95.563893331088
 20
180.363763465862
 40
10.75
100
AcDbArc
 50
-19.027057820375
 51
20.451782588383
  0
ARC
  5
30F
100
AcDbEntity
  8
1
  6
DASHED
 62
           7
100
AcDbCircle
 10
-95.563893331088
 20
180.363763465862
 40
8.0
100
AcDbArc
 50
-26.524634198657
 51
-20.105509787916
  0
ARC
  5
30E
100
AcDbEntity
  8
1
  6
DASHED
 62
           7
100
AcDbCircle
 10
-84.813893331088
 20
180.363763465862
 40
2.75
100
AcDbArc
 50
-90.0
 51
90.0
  0
ARC
  5
30D
100
AcDbEntity
  8
1
  6
CONTINUOUS
 62
           7
100
AcDbCircle
 10
-95.563893331088
 20
180.363763465862
 40
8.0
100
AcDbArc
 50
20.105509787916
 51
26.817309872448
  0
ARC
  5
30C
100
AcDbEntity
  8
1
  6
DASHED
 62
           7
100
AcDbCircle
 10
-95.563893331088
 20
180.363763465862
 40
8.0
100
AcDbArc
 50
-20.105509787916
 51
20.105509787916
  0
LINE
  5
30B
100
AcDbEntity
  8
1
  6
CONTINUOUS
 62
           7
100
AcDbLine
 10
-224.707642097411
 20
207.863722205988
 11
-224.90567812739
 21
207.663763465862
  0
LINE
  5
30A
100
AcDbEntity
  8
1
  6
CONTINUOUS
 62
           7
100
AcDbLine
 10
-201.80567812739
 20
207.097805163902
 11
-201.80567812739
 21
203.929721767822
  0
LINE
  5
309
100
AcDbEntity
  8
1
  6
CONTINUOUS
 62
           7
100
AcDbLine
 10
-201.80567812739
 20
203.929721767822
 11
-201.80567812739
 21
199.763763465862
  0
LINE
  5
308
100
AcDbEntity
  8
1
  6
CONTINUOUS
 62
           7
100
AcDbLine
 10
-201.80567812739
 20
156.797805163902
 11
-201.80567812739
 21
153.629721767822
  0
LINE
  5
307
100
AcDbEntity
  8
1
  6
CONTINUOUS
 62
           7
100
AcDbLine
 10
-218.405678073223
 20
186.613763465862
 11
-218.405678073223
 21
188.526659123552
  0
LINE
  5
306
100
AcDbEntity
  8
1
  6
CONTINUOUS
 62
           7
100
AcDbLine
 10
-218.405678073223
 20
176.363763465862
 11
-218.405678073223
 21
171.370376230374
  0
LINE
  5
305
100
AcDbEntity
  8
1
  6
CONTINUOUS
 62
           7
100
AcDbLine
 10
-226.405678073223
 20
176.363763465862
 11
-226.405678073223
 21
184.363763465862
  0
LINE
  5
304
100
AcDbEntity
  8
1
  6
CONTINUOUS
 62
           7
100
AcDbLine
 10
-226.405678073223
 20
184.363763465862
 11
-226.405678073223
 21
185.863763465862
  0
LINE
  5
303
100
AcDbEntity
  8
1
  6
CONTINUOUS
 62
           7
100
AcDbLine
 10
-199.805678127577
 20
197.543742454162
 11
-199.805678127526
 21
197.425992761738
  0
LINE
  5
302
100
AcDbEntity
  8
1
  6
CONTINUOUS
 62
           7
100
AcDbLine
 10
-200.105678123096
 20
197.311763211265
 11
-199.898702478638
 21
197.326236358309
  0
LINE
  5
301
100
AcDbEntity
  8
1
  6
CONTINUOUS
 62
           7
100
AcDbLine
 10
-200.40567812739
 20
197.828523762526
 11
-199.80567812739
 21
198.428523762526
  0
LINE
  5
300
100
AcDbEntity
  8
1
  6
CONTINUOUS
 62
           7
100
AcDbLine
 10
-200.40567812739
 20
162.899003169198
 11
-199.80567812739
 21
162.299003169198
  0
LINE
  5
2FF
100
AcDbEntity
  8
1
  6
CONTINUOUS
 62
           7
100
AcDbLine
 10
-199.805678127526
 20
163.301534170006
 11
-199.805678127577
 21
163.183784477582
  0
LINE
  5
2FE
100
AcDbEntity
  8
1
  6
CONTINUOUS
 62
           7
100
AcDbLine
 10
-200.105678123096
 20
163.415763720476
 11
-199.898702478638
 21
163.401290573414
  0
LINE
  5
2FD
100
AcDbEntity
  8
1
  6
CONTINUOUS
 62
           7
100
AcDbLine
 10
-193.205678129437
 20
183.363763465862
 11
-192.905678129437
 21
183.363763465862
  0
LINE
  5
2FC
100
AcDbEntity
  8
1
  6
CONTINUOUS
 62
           7
100
AcDbLine
 10
-193.205678129437
 20
187.363763465862
 11
-192.905678129437
 21
187.363763465862
  0
LINE
  5
2FB
100
AcDbEntity
  8
1
  6
CONTINUOUS
 62
           7
100
AcDbLine
 10
-193.205678129437
 20
187.363763465862
 11
-193.205678129437
 21
183.363763465862
  0
LINE
  5
2FA
100
AcDbEntity
  8
1
  6
CONTINUOUS
 62
           7
100
AcDbLine
 10
-195.605678129437
 20
183.363763465862
 11
-193.205678129437
 21
183.363763465862
  0
LINE
  5
2F9
100
AcDbEntity
  8
1
  6
CONTINUOUS
 62
           7
100
AcDbLine
 10
-195.605678129437
 20
187.363763465862
 11
-193.205678129437
 21
187.363763465862
  0
LINE
  5
2F8
100
AcDbEntity
  8
1
  6
CONTINUOUS
 62
           7
100
AcDbLine
 10
-195.605678129437
 20
187.363763465862
 11
-195.605678129437
 21
183.363763465862
  0
LINE
  5
2F7
100
AcDbEntity
  8
1
  6
DASH_CENTER
 62
           3
100
AcDbLine
 10
-194.405678129437
 20
188.163763465862
 11
-194.405678129437
 21
177.563763465862
  0
LINE
  5
2F6
100
AcDbEntity
  8
1
  6
CONTINUOUS
 62
           7
100
AcDbLine
 10
-192.905678129437
 20
183.363763465862
 11
-192.405678129437
 21
183.363763465862
  0
LINE
  5
2F5
100
AcDbEntity
  8
1
  6
CONTINUOUS
 62
           7
100
AcDbLine
 10
-192.905678129437
 20
187.363763465862
 11
-191.905678129437
 21
187.363763465862
  0
LINE
  5
2F4
100
AcDbEntity
  8
1
  6
CONTINUOUS
 62
           3
100
AcDbLine
 10
-192.905678129437
 20
187.363763465862
 11
-192.905678129437
 21
183.363763465862
  0
LINE
  5
2F3
100
AcDbEntity
  8
1
  6
CONTINUOUS
 62
           7
100
AcDbLine
 10
-195.905678129437
 20
183.363763465862
 11
-195.605678129437
 21
183.363763465862
  0
LINE
  5
2F2
100
AcDbEntity
  8
1
  6
CONTINUOUS
 62
           7
100
AcDbLine
 10
-195.905678129437
 20
187.363763465862
 11
-195.605678129437
 21
187.363763465862
  0
LINE
  5
2F1
100
AcDbEntity
  8
1
  6
CONTINUOUS
 62
           3
100
AcDbLine
 10
-195.905678129437
 20
187.363763465862
 11
-195.905678129437
 21
183.363763465862
  0
LINE
  5
2F0
100
AcDbEntity
  8
1
  6
CONTINUOUS
 62
           7
100
AcDbLine
 10
-208.405678129437
 20
183.863763465862
 11
-208.405678129437
 21
176.863763465862
  0
LINE
  5
2EF
100
AcDbEntity
  8
1
  6
CONTINUOUS
 62
           7
100
AcDbLine
 10
-191.905678129437
 20
183.863763465862
 11
-191.905678129437
 21
176.863763465862
  0
LINE
  5
2EE
100
AcDbEntity
  8
1
  6
CONTINUOUS
 62
           7
100
AcDbLine
 10
-192.405678129437
 20
177.363763465862
 11
-191.905678129437
 21
176.863763465862
  0
LINE
  5
2ED
100
AcDbEntity
  8
1
  6
CONTINUOUS
 62
           7
100
AcDbLine
 10
-192.405678129437
 20
183.363763465862
 11
-191.905678129437
 21
183.863763465862
  0
LINE
  5
2EC
100
AcDbEntity
  8
1
  6
CONTINUOUS
 62
           7
100
AcDbLine
 10
-208.405678129437
 20
183.863763465862
 11
-207.905678129437
 21
183.363763465862
  0
LINE
  5
2EB
100
AcDbEntity
  8
1
  6
CONTINUOUS
 62
           7
100
AcDbLine
 10
-208.405678129437
 20
176.863763465862
 11
-207.905678129437
 21
177.363763465862
  0
LINE
  5
2EA
100
AcDbEntity
  8
1
  6
CONTINUOUS
 62
           7
100
AcDbLine
 10
-191.905678129437
 20
176.863763465862
 11
-191.905678129437
 21
173.363763465862
  0
LINE
  5
2E9
100
AcDbEntity
  8
1
  6
CONTINUOUS
 62
           7
100
AcDbLine
 10
-208.405678129437
 20
176.863763465862
 11
-208.405678129437
 21
165.613763465862
  0
LINE
  5
2E8
100
AcDbEntity
  8
1
  6
CONTINUOUS
 62
           7
100
AcDbLine
 10
-207.905678129437
 20
183.363763465862
 11
-195.905678129437
 21
183.363763465862
  0
LINE
  5
2E7
100
AcDbEntity
  8
1
  6
CONTINUOUS
 62
           7
100
AcDbLine
 10
-191.905678129437
 20
187.363763465862
 11
-191.905678129437
 21
183.863763465862
  0
LINE
  5
2E6
100
AcDbEntity
  8
1
  6
CONTINUOUS
 62
           7
100
AcDbLine
 10
-201.205678129437
 20
173.363763465862
 11
-191.905678129437
 21
173.363763465862
  0
LINE
  5
2E5
100
AcDbEntity
  8
1
  6
CONTINUOUS
 62
           7
100
AcDbLine
 10
-201.205678129437
 20
187.363763465862
 11
-195.905678129437
 21
187.363763465862
  0
LINE
  5
2E4
100
AcDbEntity
  8
1
  6
CONTINUOUS
 62
           7
100
AcDbLine
 10
-201.205678129437
 20
192.89876327761
 11
-201.205678129437
 21
187.363763465862
  0
LINE
  5
2E3
100
AcDbEntity
  8
1
  6
CONTINUOUS
 62
           7
100
AcDbLine
 10
-201.205678129437
 20
167.828763654122
 11
-201.205678129437
 21
173.363763465862
  0
LINE
  5
2E2
100
AcDbEntity
  8
1
  6
CONTINUOUS
 62
           7
100
AcDbLine
 10
-207.605678129437
 20
167.828763654122
 11
-207.605678129437
 21
165.613763465862
  0
LINE
  5
2E1
100
AcDbEntity
  8
1
  6
CONTINUOUS
 62
           7
100
AcDbLine
 10
-201.205678129437
 20
167.828763654122
 11
-207.605678129437
 21
167.828763654122
  0
LINE
  5
2E0
100
AcDbEntity
  8
1
  6
CONTINUOUS
 62
           7
100
AcDbLine
 10
-208.405678129437
 20
165.613763465862
 11
-207.605678129437
 21
165.613763465862
  0
LINE
  5
2DF
100
AcDbEntity
  8
1
  6
CONTINUOUS
 62
           7
100
AcDbLine
 10
-208.405678129437
 20
195.113763465862
 11
-208.405678129437
 21
183.863763465862
  0
LINE
  5
2DE
100
AcDbEntity
  8
1
  6
CONTINUOUS
 62
           7
100
AcDbLine
 10
-207.605678129437
 20
195.113763465862
 11
-207.605678129437
 21
192.89876327761
  0
LINE
  5
2DD
100
AcDbEntity
  8
1
  6
CONTINUOUS
 62
           7
100
AcDbLine
 10
-201.205678129437
 20
192.89876327761
 11
-207.605678129437
 21
192.89876327761
  0
LINE
  5
2DC
100
AcDbEntity
  8
1
  6
CONTINUOUS
 62
           7
100
AcDbLine
 10
-208.405678129437
 20
195.113763465862
 11
-207.605678129437
 21
195.113763465862
  0
LINE
  5
2DB
100
AcDbEntity
  8
1
  6
CONTINUOUS
 62
           7
100
AcDbLine
 10
-224.70567812739
 20
152.863763465862
 11
-212.80567812739
 21
152.613763465862
  0
LINE
  5
2DA
100
AcDbEntity
  8
1
  6
CONTINUOUS
 62
           7
100
AcDbLine
 10
-212.80567812739
 20
152.613763465862
 11
-212.55567812739
 21
152.363763465862
  0
LINE
  5
2D9
100
AcDbEntity
  8
1
  6
CONTINUOUS
 62
           7
100
AcDbLine
 10
-212.80567812739
 20
208.113763465862
 11
-224.707642097411
 21
207.863722205988
  0
LINE
  5
2D8
100
AcDbEntity
  8
1
  6
CONTINUOUS
 62
           7
100
AcDbLine
 10
-201.80567812739
 20
216.363763465862
 11
-201.80567812739
 21
207.097805163902
  0
LINE
  5
2D7
100
AcDbEntity
  8
1
  6
CONTINUOUS
 62
           7
100
AcDbLine
 10
-224.90567812739
 20
153.863763465862
 11
-224.90567812739
 21
153.063763465862
  0
LINE
  5
2D6
100
AcDbEntity
  8
1
  6
CONTINUOUS
 62
           7
100
AcDbLine
 10
-224.70567812739
 20
152.863763465862
 11
-224.90567812739
 21
153.063763465862
  0
LINE
  5
2D5
100
AcDbEntity
  8
1
  6
DASH_CENTER
 62
           3
100
AcDbLine
 10
-235.20567812739
 20
203.863763465862
 11
-230.00567812739
 21
203.863763465862
  0
LINE
  5
2D4
100
AcDbEntity
  8
1
  6
CONTINUOUS
 62
           7
100
AcDbLine
 10
-200.00567812739
 20
199.363763465862
 11
-199.80567812739
 21
199.163763465862
  0
LINE
  5
2D3
100
AcDbEntity
  8
1
  6
CONTINUOUS
 62
           7
100
AcDbLine
 10
-200.00567812739
 20
199.363763465862
 11
-201.40567812739
 21
199.363763465862
  0
LINE
  5
2D2
100
AcDbEntity
  8
1
  6
CONTINUOUS
 62
           7
100
AcDbLine
 10
-199.80567812739
 20
199.163763465862
 11
-199.80567812739
 21
198.428523762526
  0
LINE
  5
2D1
100
AcDbEntity
  8
1
  6
CONTINUOUS
 62
           7
100
AcDbLine
 10
-199.80567812739
 20
161.563763465862
 11
-200.00567812739
 21
161.363763465862
  0
LINE
  5
2D0
100
AcDbEntity
  8
1
  6
CONTINUOUS
 62
           7
100
AcDbLine
 10
-199.80567812739
 20
162.299003169198
 11
-199.80567812739
 21
161.563763465862
  0
LINE
  5
2CF
100
AcDbEntity
  8
1
  6
CONTINUOUS
 62
           7
100
AcDbLine
 10
-218.405678073223
 20
186.613763465862
 11
-218.405678073223
 21
184.363763465862
  0
LINE
  5
2CE
100
AcDbEntity
  8
1
  6
CONTINUOUS
 62
           7
100
AcDbLine
 10
-226.405678073223
 20
176.363763465862
 11
-218.405678073223
 21
176.363763465862
  0
LINE
  5
2CD
100
AcDbEntity
  8
1
  6
CONTINUOUS
 62
           7
100
AcDbLine
 10
-226.405678073223
 20
174.863763465862
 11
-226.405678073223
 21
176.363763465862
  0
LINE
  5
2CC
100
AcDbEntity
  8
1
  6
CONTINUOUS
 62
           7
100
AcDbLine
 10
-226.405678073223
 20
184.363763465862
 11
-218.405678073223
 21
184.363763465862
  0
LINE
  5
2CB
100
AcDbEntity
  8
1
  6
CONTINUOUS
 62
           7
100
AcDbLine
 10
-223.30567812739
 20
186.613709313787
 11
-218.405678073223
 21
186.613763465862
  0
LINE
  5
2CA
100
AcDbEntity
  8
1
  6
DASH_CENTER
 62
           3
100
AcDbLine
 10
-177.805678125338
 20
180.363763465862
 11
-238.80567812739
 21
180.363763465862
  0
LINE
  5
2C9
100
AcDbEntity
  8
1
  6
CONTINUOUS
 62
           7
100
AcDbLine
 10
-224.90567812739
 20
207.663763465862
 11
-224.90567812739
 21
206.863763465862
  0
LINE
  5
2C8
100
AcDbEntity
  8
1
  6
CONTINUOUS
 62
           7
100
AcDbLine
 10
-208.30567812739
 20
143.863763465862
 11
-208.80567812739
 21
144.363763465862
  0
LINE
  5
2C7
100
AcDbEntity
  8
1
  6
CONTINUOUS
 62
           7
100
AcDbLine
 10
-208.80567812739
 20
151.963763465862
 11
-208.80567812739
 21
149.863763465862
  0
LINE
  5
2C6
100
AcDbEntity
  8
1
  6
CONTINUOUS
 62
           7
100
AcDbLine
 10
-208.80567812739
 20
151.963763465862
 11
-208.80567812739
 21
144.363763465862
  0
LINE
  5
2C5
100
AcDbEntity
  8
1
  6
CONTINUOUS
 62
           7
100
AcDbLine
 10
-212.55567812739
 20
152.363763465862
 11
-209.20567812739
 21
152.363763465862
  0
LINE
  5
2C4
100
AcDbEntity
  8
1
  6
CONTINUOUS
 62
           7
100
AcDbLine
 10
-212.55567812739
 20
208.363763465862
 11
-212.80567812739
 21
208.113763465862
  0
LINE
  5
2C3
100
AcDbEntity
  8
1
  6
CONTINUOUS
 62
           7
100
AcDbLine
 10
-208.80567812739
 20
216.363763465862
 11
-208.30567812739
 21
216.863763465862
  0
LINE
  5
2C2
100
AcDbEntity
  8
1
  6
CONTINUOUS
 62
           7
100
AcDbLine
 10
-209.20567812739
 20
208.363763465862
 11
-212.55567812739
 21
208.363763465862
  0
LINE
  5
2C1
100
AcDbEntity
  8
1
  6
CONTINUOUS
 62
           7
100
AcDbLine
 10
-208.80567812739
 20
216.363763465862
 11
-208.80567812739
 21
208.763763465862
  0
LINE
  5
2C0
100
AcDbEntity
  8
1
  6
CONTINUOUS
 62
           7
100
AcDbLine
 10
-201.80567812739
 20
216.363763465862
 11
-202.30567812739
 21
216.863763465862
  0
LINE
  5
2BF
100
AcDbEntity
  8
1
  6
CONTINUOUS
 62
           7
100
AcDbLine
 10
-202.30567812739
 20
143.863763465862
 11
-201.80567812739
 21
144.363763465862
  0
LINE
  5
2BE
100
AcDbEntity
  8
1
  6
CONTINUOUS
 62
           7
100
AcDbLine
 10
-201.80567812739
 20
160.963763465862
 11
-201.80567812739
 21
156.797805163902
  0
LINE
  5
2BD
100
AcDbEntity
  8
1
  6
CONTINUOUS
 62
           7
100
AcDbLine
 10
-201.80567812739
 20
146.263763465862
 11
-208.80567812739
 21
146.263763465862
  0
LINE
  5
2BC
100
AcDbEntity
  8
1
  6
CONTINUOUS
 62
           7
100
AcDbLine
 10
-201.80567812739
 20
149.463763465862
 11
-208.80567812739
 21
149.463763465862
  0
LINE
  5
2BB
100
AcDbEntity
  8
1
  6
DASH_CENTER
 62
           3
100
AcDbLine
 10
-175.405678125338
 20
147.863763465862
 11
-210.20567812739
 21
147.863763465862
  0
LINE
  5
2BA
100
AcDbEntity
  8
1
  6
CONTINUOUS
 62
           3
100
AcDbLine
 10
-201.80567812739
 20
145.863763465862
 11
-208.80567812739
 21
145.863763465862
  0
LINE
  5
2B9
100
AcDbEntity
  8
1
  6
CONTINUOUS
 62
           3
100
AcDbLine
 10
-201.80567812739
 20
149.863763465862
 11
-208.80567812739
 21
149.863763465862
  0
LINE
  5
2B8
100
AcDbEntity
  8
1
  6
CONTINUOUS
 62
           7
100
AcDbLine
 10
-202.30567812739
 20
143.863763465862
 11
-208.30567812739
 21
143.863763465862
  0
LINE
  5
2B7
100
AcDbEntity
  8
1
  6
CONTINUOUS
 62
           7
100
AcDbLine
 10
-200.00567812739
 20
161.363763465862
 11
-201.40567812739
 21
161.363763465862
  0
LINE
  5
2B6
100
AcDbEntity
  8
1
  6
CONTINUOUS
 62
           7
100
AcDbLine
 10
-208.30567812739
 20
216.863763465862
 11
-202.30567812739
 21
216.863763465862
  0
LINE
  5
2B5
100
AcDbEntity
  8
1
  6
DASH_CENTER
 62
           3
100
AcDbLine
 10
-338.76122463865
 20
199.985976643788
 11
-332.397263607971
 21
193.62201561311
  0
LINE
  5
2B4
100
AcDbEntity
  8
1
  6
DASH_CENTER
 62
           3
100
AcDbLine
 10
-338.761224638651
 20
160.741550287935
 11
-332.397263607972
 21
167.105511318614
  0
LINE
  5
2B3
100
AcDbEntity
  8
1
  6
DASH_CENTER
 62
           3
100
AcDbLine
 10
-299.516798282797
 20
160.741550287935
 11
-305.880759313476
 21
167.105511318614
  0
LINE
  5
2B2
100
AcDbEntity
  8
1
  6
DASH_CENTER
 62
           3
100
AcDbLine
 10
-299.516798282797
 20
199.985976643788
 11
-305.880759313476
 21
193.62201561311
  0
LINE
  5
2B1
100
AcDbEntity
  8
1
  6
DASH_CENTER
 62
           3
100
AcDbLine
 10
-319.139011460724
 20
140.863763465862
 11
-319.139011460724
 21
219.863763465862
  0
LINE
  5
2B0
100
AcDbEntity
  8
1
  6
DASH_CENTER
 62
           3
100
AcDbLine
 10
-331.696379815598
 20
187.613763465862
 11
-326.500227392891
 21
184.613763465862
  0
LINE
  5
2AF
100
AcDbEntity
  8
1
  6
DASH_CENTER
 62
           3
100
AcDbLine
 10
-331.696379815598
 20
173.113763465862
 11
-326.500227392891
 21
176.113763465862
  0
LINE
  5
2AE
100
AcDbEntity
  8
1
  6
DASH_CENTER
 62
           3
100
AcDbLine
 10
-306.581643105849
 20
173.113763465862
 11
-311.777795528556
 21
176.113763465862
  0
LINE
  5
2AD
100
AcDbEntity
  8
1
  6
DASH_CENTER
 62
           3
100
AcDbLine
 10
-306.581643105849
 20
187.613763465862
 11
-311.777795528556
 21
184.613763465862
  0
LINE
  5
2AC
100
AcDbEntity
  8
1
  6
CONTINUOUS
 62
           7
100
AcDbLine
 10
-203.110913517052
 20
206.868863556673
 11
-202.00567812739
 21
206.897805163902
  0
LINE
  5
2AB
100
AcDbEntity
  8
1
  6
CONTINUOUS
 62
           7
100
AcDbLine
 10
-202.00567812739
 20
206.897805163902
 11
-201.80567812739
 21
207.097805163902
  0
LINE
  5
2AA
100
AcDbEntity
  8
1
  6
CONTINUOUS
 62
           7
100
AcDbLine
 10
-201.80567812739
 20
203.929721767822
 11
-202.00567812739
 21
204.129721767822
  0
LINE
  5
2A9
100
AcDbEntity
  8
1
  6
CONTINUOUS
 62
           7
100
AcDbLine
 10
-202.00567812739
 20
204.129721767822
 11
-203.110913517052
 21
204.158663375051
  0
LINE
  5
2A8
100
AcDbEntity
  8
1
  6
CONTINUOUS
 62
           7
100
AcDbLine
 10
-203.30567812739
 20
206.668932091677
 11
-203.30567812739
 21
204.358594840046
  0
LINE
  5
2A7
100
AcDbEntity
  8
1
  6
CONTINUOUS
 62
           7
100
AcDbLine
 10
-203.30567812739
 20
156.368932091677
 11
-203.30567812739
 21
154.058594840046
  0
LINE
  5
2A6
100
AcDbEntity
  8
1
  6
CONTINUOUS
 62
           7
100
AcDbLine
 10
-203.110913517052
 20
156.568863556673
 11
-202.00567812739
 21
156.597805163902
  0
LINE
  5
2A5
100
AcDbEntity
  8
1
  6
CONTINUOUS
 62
           7
100
AcDbLine
 10
-202.00567812739
 20
156.597805163902
 11
-201.80567812739
 21
156.797805163902
  0
LINE
  5
2A4
100
AcDbEntity
  8
1
  6
CONTINUOUS
 62
           7
100
AcDbLine
 10
-202.00567812739
 20
153.829721767822
 11
-203.110913517052
 21
153.858663375051
  0
LINE
  5
2A3
100
AcDbEntity
  8
1
  6
CONTINUOUS
 62
           7
100
AcDbLine
 10
-200.40567812739
 20
162.899003169198
 11
-203.007784997569
 21
162.899003169198
  0
LINE
  5
2A2
100
AcDbEntity
  8
1
  6
CONTINUOUS
 62
           7
100
AcDbLine
 10
-199.834967449031
 20
197.614453131237
 11
-200.334277517114
 21
198.113763199319
  0
LINE
  5
2A1
100
AcDbEntity
  8
1
  6
CONTINUOUS
 62
           7
100
AcDbLine
 10
-199.834967449031
 20
163.113073800507
 11
-200.334277517128
 21
162.613763732411
  0
LINE
  5
2A0
100
AcDbEntity
  8
0
  6
CONTINUOUS
 62
           7
100
AcDbLine
 10
-200.105678123096
 20
197.311763211265
 11
-201.205678129437
 21
197.311763211265
  0
LINE
  5
29F
100
AcDbEntity
  8
0
  6
CONTINUOUS
 62
           7
100
AcDbLine
 10
-223.30567812739
 20
168.86370948652
 11
-221.405678035672
 21
168.863763638595
  0
LINE
  5
29E
100
AcDbEntity
  8
0
  6
CONTINUOUS
 62
           7
100
AcDbLine
 10
-200.105678123096
 20
163.415763720476
 11
-201.205678129437
 21
163.415763720474
  0
LINE
  5
29D
100
AcDbEntity
  8
0
  6
CONTINUOUS
 62
           7
100
AcDbLine
 10
-199.805678127526
 20
197.425992761738
 11
-199.805678127526
 21
195.156729278882
  0
LINE
  5
29C
100
AcDbEntity
  8
0
  6
CONTINUOUS
 62
           7
100
AcDbLine
 10
-199.805678127526
 20
163.301534170006
 11
-199.805678127451
 21
165.373550192693
  0
LINE
  5
29B
100
AcDbEntity
  8
1
  6
DASH_CENTER
 62
           3
100
AcDbLine
 10
-213.505678262592
 20
188.863763465862
 11
-217.324869912894
 21
188.863763465862
  0
LINE
  5
29A
100
AcDbEntity
  8
1
  6
DASH_CENTER
 62
           3
100
AcDbLine
 10
-189.055678125479
 20
202.283763465862
 11
-176.055678125479
 21
202.283763465862
  0
LINE
  5
299
100
AcDbEntity
  8
1
  6
CONTINUOUS
 62
           7
100
AcDbLine
 10
-201.80567812739
 20
153.629721767822
 11
-201.80567812739
 21
149.863763465862
  0
LINE
  5
298
100
AcDbEntity
  8
1
  6
CONTINUOUS
 62
           7
100
AcDbLine
 10
-201.80567812739
 20
153.629721767822
 11
-202.00567812739
 21
153.829721767822
  0
LINE
  5
297
100
AcDbEntity
  8
1
  6
CONTINUOUS
 62
           7
100
AcDbLine
 10
-201.80567812739
 20
145.863763465862
 11
-201.80567812739
 21
144.363763465862
  0
LINE
  5
296
100
AcDbEntity
  8
1
  6
DASH_CENTER
 62
           3
100
AcDbLine
 10
-197.635381006749
 20
169.613763465862
 11
-183.635381006749
 21
169.613763465862
  0
LINE
  5
295
100
AcDbEntity
  8
1
  6
DASH_CENTER
 62
           3
100
AcDbLine
 10
-326.639011460724
 20
180.363763465862
 11
-291.389011460724
 21
180.363763465862
  0
LINE
  5
294
100
AcDbEntity
  8
1
  6
DASH_CENTER
 62
           3
100
AcDbLine
 10
-317.876015569511
 20
189.350446189692
 11
-318.314410837535
 21
186.231101773156
  0
LINE
  5
293
100
AcDbEntity
  8
1
  6
DASH_CENTER
 62
           3
100
AcDbLine
 10
-326.290209049705
 20
185.950891354442
 11
-323.807975175844
 21
184.011557707166
  0
LINE
  5
292
100
AcDbEntity
  8
1
  6
DASH_CENTER
 62
           3
100
AcDbLine
 10
-327.553204940917
 20
176.964208630612
 11
-324.632575799032
 21
178.144219399873
  0
LINE
  5
291
100
AcDbEntity
  8
1
  6
DASH_CENTER
 62
           3
100
AcDbLine
 10
-320.402007351936
 20
171.377080742032
 11
-319.963612083912
 21
174.496425158568
  0
LINE
  5
290
100
AcDbEntity
  8
1
  6
DASH_CENTER
 62
           3
100
AcDbLine
 10
-311.987813871743
 20
174.776635577282
 11
-314.470047745604
 21
176.715969224557
  0
LINE
  5
28F
100
AcDbEntity
  8
1
  6
DASH_CENTER
 62
           3
100
AcDbLine
 10
-310.72481798053
 20
183.763318301111
 11
-313.645447122415
 21
182.583307531851
  0
LINE
  5
28E
100
AcDbEntity
  8
1
  6
DASH_CENTER
 62
           3
100
AcDbLine
 10
-327.639011460724
 20
180.363763465862
 11
-326.639011460724
 21
180.363763465862
  0
LINE
  5
28D
100
AcDbEntity
  8
1
  6
DASH_CENTER
 62
           3
100
AcDbLine
 10
-323.353335636653
 20
190.794581829738
 11
-321.292999372865
 21
185.695070629621
  0
LINE
  5
28C
100
AcDbEntity
  8
1
  6
DASH_CENTER
 62
           3
100
AcDbLine
 10
-330.279527234066
 20
181.929460851663
 11
-324.833052855988
 21
181.164008796382
  0
LINE
  5
28B
100
AcDbEntity
  8
1
  6
DASH_CENTER
 62
           3
100
AcDbLine
 10
-326.065203058137
 20
171.498642487786
 11
-322.679064943846
 21
175.832701632623
  0
LINE
  5
28A
100
AcDbEntity
  8
1
  6
DASH_CENTER
 62
           3
100
AcDbLine
 10
-314.924687284795
 20
169.932945101985
 11
-316.985023548582
 21
175.032456302103
  0
LINE
  5
289
100
AcDbEntity
  8
1
  6
DASH_CENTER
 62
           3
100
AcDbLine
 10
-307.998495687381
 20
178.798066080061
 11
-313.444970065459
 21
179.563518135341
  0
LINE
  5
288
100
AcDbEntity
  8
1
  6
DASH_CENTER
 62
           3
100
AcDbLine
 10
-312.21281986331
 20
189.228884443937
 11
-315.598957977601
 21
184.8948252991
  0
LINE
  5
287
100
AcDbEntity
  8
1
  6
DASH_CENTER
 62
           3
100
AcDbLine
 10
-126.632554691855
 20
198.301263465862
 11
-120.78688321631
 21
194.926263465862
  0
LINE
  5
286
100
AcDbEntity
  8
1
  6
DASH_CENTER
 62
           3
100
AcDbLine
 10
-126.632554691855
 20
162.426263465862
 11
-120.78688321631
 21
165.801263465862
  0
LINE
  5
285
100
AcDbEntity
  8
1
  6
DASH_CENTER
 62
           3
100
AcDbLine
 10
-64.495231970322
 20
198.301263465862
 11
-70.340903445867
 21
194.926263465862
  0
LINE
  5
284
100
AcDbEntity
  8
1
  6
DASH_CENTER
 62
           3
100
AcDbLine
 10
-70.340903445867
 20
165.801263465862
 11
-64.495231970322
 21
162.426263465862
  0
LINE
  5
283
100
AcDbEntity
  8
1
  6
DASH_CENTER
 62
           3
100
AcDbLine
 10
-76.688893331088
 20
213.056222458724
 11
-81.938893331088
 21
203.962955718988
  0
LINE
  5
282
100
AcDbEntity
  8
1
  6
DASH_CENTER
 62
           3
100
AcDbLine
 10
-114.438893331088
 20
147.671304472999
 11
-109.188893331088
 21
156.764571212736
  0
LINE
  5
281
100
AcDbEntity
  8
1
  6
DASHED
 62
           3
100
AcDbLine
 10
-100.042458637643
 20
208.669106650408
 11
-100.353041491766
 21
207.509995658861
  0
LINE
  5
280
100
AcDbEntity
  8
1
  6
DASHED
 62
           7
100
AcDbLine
 10
-100.042458637643
 20
208.669106650408
 11
-100.622014133417
 21
208.513815223346
  0
LINE
  5
27F
100
AcDbEntity
  8
1
  6
DASHED
 62
           3
100
AcDbLine
 10
-104.989485457954
 20
206.267664242369
 11
-105.838013595378
 21
207.116192379793
  0
LINE
  5
27E
100
AcDbEntity
  8
1
  6
DASHED
 62
           3
100
AcDbLine
 10
-105.838013595378
 20
207.116192379793
 11
-107.876602685499
 21
214.724310439881
  0
LINE
  5
27D
100
AcDbEntity
  8
1
  6
DASHED
 62
           7
100
AcDbLine
 10
-100.622014133417
 20
208.513815223346
 11
-105.258458099604
 21
207.271483806854
  0
LINE
  5
27C
100
AcDbEntity
  8
1
  6
DASHED
 62
           7
100
AcDbLine
 10
-100.622014133417
 20
208.513815223346
 11
-95.220852413567
 21
188.356405264973
  0
LINE
  5
27B
100
AcDbEntity
  8
1
  6
DASHED
 62
           7
100
AcDbLine
 10
-99.857296379755
 20
187.114073848481
 11
-105.258458099604
 21
207.271483806854
  0
LINE
  5
27A
100
AcDbEntity
  8
1
  6
DASHED
 62
           7
100
AcDbLine
 10
-105.258458099604
 20
207.271483806854
 11
-105.838013595378
 21
207.116192379793
  0
LINE
  5
279
100
AcDbEntity
  8
1
  6
DASHED
 62
           7
100
AcDbLine
 10
-105.258458099604
 20
207.271483806854
 11
-107.308566452707
 21
214.922592341655
  0
LINE
  5
278
100
AcDbEntity
  8
1
  6
DASH_CENTER
 62
           3
100
AcDbLine
 10
-105.217843713413
 20
216.392796786444
 11
-96.973388971712
 21
185.624072809716
  0
LINE
  5
277
100
AcDbEntity
  8
1
  6
DASHED
 62
           7
100
AcDbLine
 10
-102.672122486519
 20
216.164923758147
 11
-100.622014133417
 21
208.513815223346
  0
LINE
  5
276
100
AcDbEntity
  8
1
  6
DASHED
 62
           3
100
AcDbLine
 10
-102.081047727765
 20
216.277224710497
 11
-100.042458637643
 21
208.669106650408
  0
LINE
  5
275
100
AcDbEntity
  8
1
  6
DASH_CENTER
 62
           3
100
AcDbLine
 10
-69.681910815673
 20
173.42870715234
 11
-79.099687621991
 21
175.952192842089
  0
LINE
  5
274
100
AcDbEntity
  8
1
  6
DASH_CENTER
 62
           3
100
AcDbLine
 10
-88.628837017566
 20
206.245745981277
 11
-91.152322707316
 21
196.827969174959
  0
LINE
  5
273
100
AcDbEntity
  8
1
  6
DASH_CENTER
 62
           3
100
AcDbLine
 10
-121.445875846504
 20
187.298819779384
 11
-112.028099040186
 21
184.775334089634
  0
LINE
  5
272
100
AcDbEntity
  8
1
  6
DASH_CENTER
 62
           3
100
AcDbLine
 10
-102.498949644611
 20
154.481780950446
 11
-99.975463954861
 21
163.899557756765
  0
LINE
  5
271
100
AcDbEntity
  8
1
  6
DASHED
 62
           7
100
AcDbLine
 10
-103.076382931747
 20
183.113763465862
 11
-106.313893331088
 21
183.113763465862
  0
LINE
  5
270
100
AcDbEntity
  8
1
  6
DASHED
 62
           7
100
AcDbLine
 10
-103.076382931747
 20
177.613763465862
 11
-106.313893331088
 21
177.613763465862
  0
LINE
  5
26F
100
AcDbEntity
  8
1
  6
DASHED
 62
           7
100
AcDbLine
 10
-84.813893331088
 20
177.613763465862
 11
-88.05140373043
 21
177.613763465862
  0
LINE
  5
26E
100
AcDbEntity
  8
1
  6
DASHED
 62
           7
100
AcDbLine
 10
-84.813893331088
 20
183.113763465862
 11
-88.05140373043
 21
183.113763465862
  0
LINE
  5
26D
100
AcDbEntity
  8
1
  6
DASH_CENTER
 62
           3
100
AcDbLine
 10
-135.063893331089
 20
180.363763465862
 11
-56.063893331088
 21
180.363763465862
  0
LINE
  5
26C
100
AcDbEntity
  8
1
  6
DASH_CENTER
 62
           3
100
AcDbLine
 10
-95.563893331088
 20
219.863763465862
 11
-95.563893331088
 21
140.863763465862
  0
LINE
  5
26B
100
AcDbEntity
  8
1
  6
DASHED
 62
           7
100
AcDbLine
 10
-201.80567812739
 20
215.113763465862
 11
-208.80567812739
 21
215.113763465862
  0
LINE
  5
26A
100
AcDbEntity
  8
1
  6
DASH_CENTER
 62
           3
100
AcDbLine
 10
-180.105678125149
 20
212.863763465862
 11
-209.50567812739
 21
212.863763465862
  0
LINE
  5
269
100
AcDbEntity
  8
1
  6
DASHED
 62
           7
100
AcDbLine
 10
-201.80567812739
 20
210.613763465862
 11
-208.80567812739
 21
210.613763465862
  0
LINE
  5
268
100
AcDbEntity
  8
1
  6
CONTINUOUS
 62
           7
100
AcDbLine
 10
-230.90567812739
 20
206.863763465862
 11
-230.90567812739
 21
201.013763465862
  0
LINE
  5
267
100
AcDbEntity
  8
1
  6
CONTINUOUS
 62
           7
100
AcDbLine
 10
-225.40567812739
 20
207.663763465862
 11
-230.10567812739
 21
207.663763465862
  0
LINE
  5
266
100
AcDbEntity
  8
1
  6
CONTINUOUS
 62
           7
100
AcDbLine
 10
-225.40567812739
 20
206.863763465862
 11
-225.40567812739
 21
207.663763465862
  0
LINE
  5
265
100
AcDbEntity
  8
1
  6
CONTINUOUS
 62
           7
100
AcDbLine
 10
-234.70567812739
 20
199.113763465862
 11
-234.511216641204
 21
199.113763465862
  0
LINE
  5
264
100
AcDbEntity
  8
1
  6
CONTINUOUS
 62
           7
100
AcDbLine
 10
-231.30567812739
 20
200.613763465862
 11
-233.70567812739
 21
200.613763465862
  0
LINE
  5
263
100
AcDbEntity
  8
1
  6
CONTINUOUS
 62
           7
100
AcDbLine
 10
-234.70567812739
 20
195.863763465862
 11
-234.70567812739
 21
199.113763465862
  0
LINE
  5
262
100
AcDbEntity
  8
1
  6
CONTINUOUS
 62
           7
100
AcDbLine
 10
-234.70567812739
 20
161.613763465862
 11
-234.70567812739
 21
164.863763465862
  0
LINE
  5
261
100
AcDbEntity
  8
1
  6
CONTINUOUS
 62
           7
100
AcDbLine
 10
-233.70567812739
 20
160.113763465862
 11
-231.30567812739
 21
160.113763465862
  0
LINE
  5
260
100
AcDbEntity
  8
1
  6
CONTINUOUS
 62
           7
100
AcDbLine
 10
-225.40567812739
 20
153.063763465862
 11
-225.40567812739
 21
153.863763465862
  0
LINE
  5
25F
100
AcDbEntity
  8
1
  6
CONTINUOUS
 62
           7
100
AcDbLine
 10
-230.10567812739
 20
153.063763465862
 11
-225.40567812739
 21
153.063763465862
  0
LINE
  5
25E
100
AcDbEntity
  8
1
  6
CONTINUOUS
 62
           7
100
AcDbLine
 10
-230.90567812739
 20
159.713763465862
 11
-230.90567812739
 21
153.863763465862
  0
LINE
  5
25D
100
AcDbEntity
  8
1
  6
DASH_CENTER
 62
           3
100
AcDbLine
 10
-223.50567812739
 20
162.863763465862
 11
-229.50567812739
 21
162.863763465862
  0
LINE
  5
25C
100
AcDbEntity
  8
1
  6
DOTTED
 62
           2
100
AcDbLine
 10
-226.647099483627
 20
164.843662453184
 11
-228.485577114713
 21
163.005184822099
  0
LINE
  5
25B
100
AcDbEntity
  8
1
  6
DOTTED
 62
           2
100
AcDbLine
 10
-226.647099483627
 20
160.883864478539
 11
-228.485577114713
 21
162.722342109624
  0
LINE
  5
25A
100
AcDbEntity
  8
1
  6
DOTTED
 62
           2
100
AcDbLine
 10
-226.364256771153
 20
160.883864478539
 11
-224.525779140068
 21
162.722342109624
  0
LINE
  5
259
100
AcDbEntity
  8
1
  6
DOTTED
 62
           2
100
AcDbLine
 10
-226.364256771153
 20
164.843662453184
 11
-224.525779140068
 21
163.005184822099
  0
LINE
  5
258
100
AcDbEntity
  8
1
  6
DASH_CENTER
 62
           3
100
AcDbLine
 10
-226.50567812739
 20
159.863763465862
 11
-226.50567812739
 21
165.863763465862
  0
LINE
  5
257
100
AcDbEntity
  8
1
  6
CONTINUOUS
 62
           7
100
AcDbLine
 10
-235.80567812739
 20
166.263763465862
 11
-235.80567812739
 21
165.363763465862
  0
LINE
  5
256
100
AcDbEntity
  8
1
  6
CONTINUOUS
 62
           7
100
AcDbLine
 10
-235.80567812739
 20
165.063763465862
 11
-235.60567812739
 21
164.863763465862
  0
LINE
  5
255
100
AcDbEntity
  8
1
  6
CONTINUOUS
 62
           7
100
AcDbLine
 10
-235.40567812739
 20
166.063763465862
 11
-235.40567812739
 21
165.563763465862
  0
LINE
  5
254
100
AcDbEntity
  8
1
  6
CONTINUOUS
 62
           7
100
AcDbLine
 10
-235.70567812739
 20
165.463763465862
 11
-235.50567812739
 21
165.463763465862
  0
LINE
  5
253
100
AcDbEntity
  8
1
  6
CONTINUOUS
 62
           7
100
AcDbLine
 10
-235.70567812739
 20
166.163763465862
 11
-235.50567812739
 21
166.163763465862
  0
LINE
  5
252
100
AcDbEntity
  8
1
  6
CONTINUOUS
 62
           7
100
AcDbLine
 10
-235.80567812739
 20
165.363763465862
 11
-235.80567812739
 21
165.063763465862
  0
LINE
  5
251
100
AcDbEntity
  8
1
  6
CONTINUOUS
 62
           3
100
AcDbLine
 10
-235.80567812739
 20
170.863763465862
 11
-223.305678073223
 21
170.863763465862
  0
LINE
  5
250
100
AcDbEntity
  8
1
  6
CONTINUOUS
 62
           7
100
AcDbLine
 10
-235.80567812739
 20
170.463763465862
 11
-223.305678073223
 21
170.463763465862
  0
LINE
  5
24F
100
AcDbEntity
  8
1
  6
DASH_CENTER
 62
           3
100
AcDbLine
 10
-236.60567812739
 20
168.863763465862
 11
-223.30567812739
 21
168.863763465862
  0
LINE
  5
24E
100
AcDbEntity
  8
1
  6
CONTINUOUS
 62
           3
100
AcDbLine
 10
-223.30567812739
 20
166.863763465862
 11
-235.80567812739
 21
166.863763465862
  0
LINE
  5
24D
100
AcDbEntity
  8
1
  6
CONTINUOUS
 62
           7
100
AcDbLine
 10
-223.30567812739
 20
167.263763465862
 11
-235.80567812739
 21
167.263763465862
  0
LINE
  5
24C
100
AcDbEntity
  8
1
  6
CONTINUOUS
 62
           7
100
AcDbLine
 10
-235.80567812739
 20
174.363763465862
 11
-235.80567812739
 21
170.863763465862
  0
LINE
  5
24B
100
AcDbEntity
  8
1
  6
CONTINUOUS
 62
           7
100
AcDbLine
 10
-235.30567812739
 20
174.863763465862
 11
-235.80567812739
 21
174.363763465862
  0
LINE
  5
24A
100
AcDbEntity
  8
1
  6
CONTINUOUS
 62
           7
100
AcDbLine
 10
-226.405678073223
 20
174.863763465862
 11
-235.30567812739
 21
174.863763465862
  0
LINE
  5
249
100
AcDbEntity
  8
1
  6
CONTINUOUS
 62
           7
100
AcDbLine
 10
-226.405678073223
 20
185.863763465862
 11
-235.30567812739
 21
185.863763465862
  0
LINE
  5
248
100
AcDbEntity
  8
1
  6
CONTINUOUS
 62
           7
100
AcDbLine
 10
-235.80567812739
 20
186.363763465862
 11
-235.30567812739
 21
185.863763465862
  0
LINE
  5
247
100
AcDbEntity
  8
1
  6
CONTINUOUS
 62
           3
100
AcDbLine
 10
-235.80567812739
 20
186.863763465862
 11
-223.30567812739
 21
186.863763465862
  0
LINE
  5
246
100
AcDbEntity
  8
1
  6
CONTINUOUS
 62
           7
100
AcDbLine
 10
-235.80567812739
 20
187.463763465862
 11
-230.405678073223
 21
187.463763465862
  0
LINE
  5
245
100
AcDbEntity
  8
1
  6
CONTINUOUS
 62
           7
100
AcDbLine
 10
-230.405678073223
 20
190.263763465862
 11
-235.80567812739
 21
190.263763465862
  0
LINE
  5
244
100
AcDbEntity
  8
1
  6
CONTINUOUS
 62
           3
100
AcDbLine
 10
-230.674432780589
 20
190.863763465862
 11
-235.80567812739
 21
190.863763465862
  0
LINE
  5
243
100
AcDbEntity
  8
1
  6
CONTINUOUS
 62
           7
100
AcDbLine
 10
-235.80567812739
 20
195.363763465862
 11
-235.80567812739
 21
194.463763465862
  0
LINE
  5
242
100
AcDbEntity
  8
1
  6
CONTINUOUS
 62
           7
100
AcDbLine
 10
-235.40567812739
 20
195.163763465862
 11
-235.40567812739
 21
194.663763465862
  0
LINE
  5
241
100
AcDbEntity
  8
1
  6
CONTINUOUS
 62
           7
100
AcDbLine
 10
-235.50567812739
 20
195.263763465862
 11
-235.70567812739
 21
195.263763465862
  0
LINE
  5
240
100
AcDbEntity
  8
1
  6
CONTINUOUS
 62
           7
100
AcDbLine
 10
-235.50567812739
 20
194.563763465862
 11
-235.70567812739
 21
194.563763465862
  0
LINE
  5
23F
100
AcDbEntity
  8
1
  6
CONTINUOUS
 62
           7
100
AcDbLine
 10
-235.80567812739
 20
195.663763465862
 11
-235.80567812739
 21
195.363763465862
  0
LINE
  5
23E
100
AcDbEntity
  8
1
  6
CONTINUOUS
 62
           7
100
AcDbLine
 10
-235.80567812739
 20
194.463763465862
 11
-235.80567812739
 21
190.863763465862
  0
LINE
  5
23D
100
AcDbEntity
  8
1
  6
CONTINUOUS
 62
           7
100
AcDbLine
 10
-235.60567812739
 20
195.863763465862
 11
-235.80567812739
 21
195.663763465862
  0
LINE
  5
23C
100
AcDbEntity
  8
1
  6
CONTINUOUS
 62
           7
100
AcDbLine
 10
-235.60567812739
 20
195.863763465862
 11
-234.70567812739
 21
195.863763465862
  0
LINE
  5
23B
100
AcDbEntity
  8
1
  6
CONTINUOUS
 62
           7
100
AcDbLine
 10
-235.80567812739
 20
186.363763465862
 11
-235.80567812739
 21
174.363763465862
  0
LINE
  5
23A
100
AcDbEntity
  8
1
  6
CONTINUOUS
 62
           7
100
AcDbLine
 10
-234.70567812739
 20
164.863763465862
 11
-235.60567812739
 21
164.863763465862
  0
LINE
  5
239
100
AcDbEntity
  8
1
  6
CONTINUOUS
 62
           7
100
AcDbLine
 10
-234.511216641204
 20
199.713763465862
 11
-234.511216641204
 21
199.113763465862
  0
LINE
  5
238
100
AcDbEntity
  8
1
  6
CONTINUOUS
 62
           7
100
AcDbLine
 10
-225.40567812739
 20
206.863763465862
 11
-224.90567812739
 21
206.863763465862
  0
LINE
  5
237
100
AcDbEntity
  8
1
  6
CONTINUOUS
 62
           7
100
AcDbLine
 10
-202.539026195952
 20
198.113763199301
 11
-200.334277517114
 21
198.113763199319
  0
LINE
  5
236
100
AcDbEntity
  8
1
  6
CONTINUOUS
 62
           7
100
AcDbLine
 10
-202.572342507937
 20
197.828523762526
 11
-200.40567812739
 21
197.828523762526
  0
LINE
  5
235
100
AcDbEntity
  8
1
  6
DASH_CENTER
 62
           3
100
AcDbLine
 10
-226.897419251256
 20
188.863763465862
 11
-236.632998168926
 21
188.863763465862
  0
LINE
  5
234
100
AcDbEntity
  8
1
  6
CONTINUOUS
 62
           7
100
AcDbLine
 10
-223.30567812739
 20
186.613709313787
 11
-223.30567812739
 21
186.863763465862
  0
LINE
  5
233
100
AcDbEntity
  8
1
  6
CONTINUOUS
 62
           7
100
AcDbLine
 10
-235.80567812739
 20
186.863763465862
 11
-235.80567812739
 21
186.363763465862
  0
LINE
  5
232
100
AcDbEntity
  8
1
  6
CONTINUOUS
 62
           7
100
AcDbLine
 10
-235.80567812739
 20
190.863763465862
 11
-235.80567812739
 21
186.863763465862
  0
LINE
  5
231
100
AcDbEntity
  8
1
  6
CONTINUOUS
 62
           7
100
AcDbLine
 10
-223.30567812739
 20
166.863763465862
 11
-223.30567812739
 21
166.257299818064
  0
LINE
  5
230
100
AcDbEntity
  8
1
  6
CONTINUOUS
 62
           7
100
AcDbLine
 10
-223.30567812739
 20
166.863763465862
 11
-223.30567812739
 21
167.263763465862
  0
LINE
  5
22F
100
AcDbEntity
  8
1
  6
CONTINUOUS
 62
           7
100
AcDbLine
 10
-223.30567812739
 20
167.263763465862
 11
-223.30567812739
 21
168.86370948652
  0
LINE
  5
22E
100
AcDbEntity
  8
1
  6
CONTINUOUS
 62
           7
100
AcDbLine
 10
-223.30567812739
 20
168.86370948652
 11
-223.305678073223
 21
170.463763465862
  0
LINE
  5
22D
100
AcDbEntity
  8
1
  6
CONTINUOUS
 62
           7
100
AcDbLine
 10
-223.305678073223
 20
170.463763465862
 11
-223.305678073223
 21
170.863763465862
  0
LINE
  5
22C
100
AcDbEntity
  8
1
  6
CONTINUOUS
 62
           7
100
AcDbLine
 10
-235.80567812739
 20
170.863763465862
 11
-235.80567812739
 21
170.463763465862
  0
LINE
  5
22B
100
AcDbEntity
  8
1
  6
CONTINUOUS
 62
           7
100
AcDbLine
 10
-235.80567812739
 20
166.863763465862
 11
-235.80567812739
 21
166.263763465862
  0
LINE
  5
22A
100
AcDbEntity
  8
1
  6
CONTINUOUS
 62
           7
100
AcDbLine
 10
-221.155678039434
 20
168.613763642351
 11
-221.155678039431
 21
166.638352627151
  0
LINE
  5
229
100
AcDbEntity
  8
1
  6
CONTINUOUS
 62
           7
100
AcDbLine
 10
-220.905678073223
 20
166.781333593109
 11
-220.905678073223
 21
168.113763465862
  0
LINE
  5
228
100
AcDbEntity
  8
1
  6
CONTINUOUS
 62
           7
100
AcDbLine
 10
-220.905678073223
 20
168.113763465862
 11
-220.163774631508
 21
168.113763465862
  0
LINE
  5
227
100
AcDbEntity
  8
1
  6
CONTINUOUS
 62
           7
100
AcDbLine
 10
-235.80567812739
 20
170.463763465862
 11
-235.80567812739
 21
167.263763465862
  0
LINE
  5
226
100
AcDbEntity
  8
1
  6
CONTINUOUS
 62
           7
100
AcDbLine
 10
-235.80567812739
 20
167.263763465862
 11
-235.80567812739
 21
166.863763465862
  0
LINE
  5
225
100
AcDbEntity
  8
1
  6
CONTINUOUS
 62
           7
100
AcDbLine
 10
-234.511216641204
 20
161.013763465862
 11
-234.511216641204
 21
161.613763465862
  0
LINE
  5
224
100
AcDbEntity
  8
1
  6
CONTINUOUS
 62
           7
100
AcDbLine
 10
-234.511216641204
 20
161.613763465862
 11
-234.70567812739
 21
161.613763465862
  0
LINE
  5
223
100
AcDbEntity
  8
1
  6
CONTINUOUS
 62
           7
100
AcDbLine
 10
-225.40567812739
 20
153.863763465862
 11
-224.90567812739
 21
153.863763465862
  0
LINE
  5
222
100
AcDbEntity
  8
1
  6
CONTINUOUS
 62
           7
100
AcDbLine
 10
-202.943125655745
 20
162.613763732431
 11
-200.334277517128
 21
162.613763732411
  0
LINE
  5
221
100
AcDbEntity
  8
1
  6
CONTINUOUS
 62
           7
100
AcDbLine
 10
-234.511216641204
 20
161.613763465862
 11
-234.511216641204
 21
165.188662397135
  0
LINE
  5
220
100
AcDbEntity
  8
1
  6
CONTINUOUS
 62
           7
100
AcDbLine
 10
-230.90567812739
 20
159.713763465862
 11
-230.90567812739
 21
166.534501245783
  0
LINE
  5
21F
100
AcDbEntity
  8
1
  6
CONTINUOUS
 62
           7
100
AcDbLine
 10
-225.40567812739
 20
153.863763465862
 11
-225.40567812739
 21
160.428229559929
  0
LINE
  5
21E
100
AcDbEntity
  8
1
  6
CONTINUOUS
 62
           7
100
AcDbLine
 10
-224.90567812739
 20
153.863763465862
 11
-224.90567812739
 21
160.928229559929
  0
LINE
  5
21D
100
AcDbEntity
  8
1
  6
CONTINUOUS
 62
           7
100
AcDbLine
 10
-212.80567812739
 20
152.613763465862
 11
-212.80567812739
 21
169.322409301959
  0
LINE
  5
21C
100
AcDbEntity
  8
1
  6
CONTINUOUS
 62
           7
100
AcDbLine
 10
-212.55567812739
 20
152.363763465862
 11
-212.55567812739
 21
169.127122192259
  0
LINE
  5
21B
100
AcDbEntity
  8
1
  6
CONTINUOUS
 62
           7
100
AcDbLine
 10
-208.80567812739
 20
151.963763465862
 11
-208.80567812739
 21
165.351081912965
  0
LINE
  5
21A
100
AcDbEntity
  8
1
  6
CONTINUOUS
 62
           7
100
AcDbLine
 10
-224.90567812739
 20
164.799297371795
 11
-224.90567812739
 21
166.255420231333
  0
LINE
  5
219
100
AcDbEntity
  8
1
  6
CONTINUOUS
 62
           7
100
AcDbLine
 10
-225.40567812739
 20
165.299297371795
 11
-225.40567812739
 21
166.250095548281
  0
LINE
  5
218
100
AcDbEntity
  8
1
  6
DASH_CENTER
 62
           3
100
AcDbLine
 10
-230.00567812739
 20
156.863763465862
 11
-235.20567812739
 21
156.863763465862
  0
LINE
  5
217
100
AcDbEntity
  8
1
  6
CONTINUOUS
 62
           7
100
AcDbLine
 10
-234.511216641204
 20
199.113763465862
 11
-234.511216641204
 21
195.454792759224
  0
LINE
  5
216
100
AcDbEntity
  8
1
  6
CONTINUOUS
 62
           7
100
AcDbLine
 10
-230.90567812739
 20
201.013763465862
 11
-230.90567812739
 21
191.040908920686
  0
LINE
  5
215
100
AcDbEntity
  8
1
  6
CONTINUOUS
 62
           7
100
AcDbLine
 10
-225.40567812739
 20
206.863763465862
 11
-225.40567812739
 21
188.432022907862
  0
LINE
  5
214
100
AcDbEntity
  8
1
  6
CONTINUOUS
 62
           7
100
AcDbLine
 10
-224.90567812739
 20
206.863763465862
 11
-224.90567812739
 21
188.32485367067
  0
LINE
  5
213
100
AcDbEntity
  8
1
  6
CONTINUOUS
 62
           7
100
AcDbLine
 10
-212.80567812739
 20
208.113763465862
 11
-212.80567812739
 21
191.612500029684
  0
LINE
  5
212
100
AcDbEntity
  8
1
  6
CONTINUOUS
 62
           7
100
AcDbLine
 10
-212.55567812739
 20
208.363763465862
 11
-212.55567812739
 21
191.852712243771
  0
LINE
  5
211
100
AcDbEntity
  8
1
  6
CONTINUOUS
 62
           7
100
AcDbLine
 10
-208.80567812739
 20
208.763763465862
 11
-208.80567812739
 21
195.980073760401
  0
LINE
  5
210
100
AcDbEntity
  8
1
  6
CONTINUOUS
 62
           7
100
AcDbLine
 10
-208.80567812739
 20
149.863763465862
 11
-208.80567812739
 21
145.863763465862
  0
LINE
  5
20F
100
AcDbEntity
  8
1
  6
CONTINUOUS
 62
           7
100
AcDbLine
 10
-208.80567812739
 20
145.863763465862
 11
-208.80567812739
 21
144.363763465862
  0
LINE
  5
20E
100
AcDbEntity
  8
1
  6
CONTINUOUS
 62
           7
100
AcDbLine
 10
-207.905678129437
 20
177.363763465862
 11
-192.405678129437
 21
177.363763465862
  0
LINE
  5
20D
100
AcDbEntity
  8
1
  6
DASH_CENTER
 62
           3
100
AcDbLine
 10
-291.389011460724
 20
180.363763465862
 11
-279.639011460724
 21
180.363763465862
  0
LINE
  5
20C
100
AcDbEntity
  8
1
  6
DASH_CENTER
 62
           3
100
AcDbLine
 10
-358.639011460724
 20
180.363763465862
 11
-327.639011460724
 21
180.363763465862
  0
LINE
  5
20B
100
AcDbEntity
  8
1
  6
DASH_CENTER
 62
           3
100
AcDbLine
 10
-350.20767282149
 20
198.301263465862
 11
-344.362001345945
 21
194.926263465862
  0
LINE
  5
20A
100
AcDbEntity
  8
1
  6
DASH_CENTER
 62
           3
100
AcDbLine
 10
-350.20767282149
 20
162.426263465862
 11
-344.362001345945
 21
165.801263465862
  0
LINE
  5
209
100
AcDbEntity
  8
1
  6
DASH_CENTER
 62
           3
100
AcDbLine
 10
-319.139011460724
 20
144.488763465862
 11
-319.139011460724
 21
151.238763465862
  0
LINE
  5
208
100
AcDbEntity
  8
1
  6
DASH_CENTER
 62
           3
100
AcDbLine
 10
-288.070350099957
 20
162.426263465862
 11
-293.916021575502
 21
165.801263465862
  0
LINE
  5
207
100
AcDbEntity
  8
1
  6
DASH_CENTER
 62
           3
100
AcDbLine
 10
-288.070350099957
 20
198.301263465862
 11
-293.916021575502
 21
194.926263465862
  0
LINE
  5
206
100
AcDbEntity
  8
1
  6
DASH_CENTER
 62
           3
100
AcDbLine
 10
-301.201511460724
 20
211.432424826629
 11
-304.576511460724
 21
205.586753351084
  0
LINE
  5
205
100
AcDbEntity
  8
1
  6
DASH_CENTER
 62
           3
100
AcDbLine
 10
-337.076511460724
 20
149.295102105095
 11
-333.701511460724
 21
155.14077358064
  0
LINE
  5
204
100
AcDbEntity
  8
1
  6
DASH_CENTER
 62
           3
100
AcDbLine
 10
-304.576511460724
 20
155.14077358064
 11
-301.201511460724
 21
149.295102105095
  0
LINE
  5
203
100
AcDbEntity
  8
1
  6
DASH_CENTER
 62
           3
100
AcDbLine
 10
-333.701511460724
 20
205.586753351084
 11
-337.076511460724
 21
211.432424826629
  0
LINE
  5
202
100
AcDbEntity
  8
1
  6
CONTINUOUS
 62
           7
100
AcDbLine
 10
-218.405678073223
 20
184.363763465862
 11
-218.405678073223
 21
176.363763465862
  0
LINE
  5
201
100
AcDbEntity
  8
1
  6
CONTINUOUS
 62
           7
100
AcDbLine
 10
-201.205678129437
 20
192.89876327761
 11
-201.205678129437
 21
197.311763211265
  0
LINE
  5
200
100
AcDbEntity
  8
0
  6
CONTINUOUS
 62
           7
100
AcDbLine
 10
-201.205678129437
 20
197.311763211265
 11
-202.664595169943
 21
197.311763211265
  0
LINE
  5
1FF
100
AcDbEntity
  8
1
  6
CONTINUOUS
 62
           7
100
AcDbLine
 10
-207.605678129437
 20
195.113763465862
 11
-207.605678129437
 21
195.967412580571
  0
LINE
  5
1FE
100
AcDbEntity
  8
1
  6
CONTINUOUS
 62
           7
100
AcDbLine
 10
-201.205678129437
 20
167.828763654122
 11
-201.205678129437
 21
163.415763720474
  0
LINE
  5
1FD
100
AcDbEntity
  8
0
  6
CONTINUOUS
 62
           7
100
AcDbLine
 10
-201.205678129437
 20
163.415763720474
 11
-203.169566022311
 21
163.415763720472
  0
LINE
  5
1FC
100
AcDbEntity
  8
1
  6
CONTINUOUS
 62
           7
100
AcDbLine
 10
-207.605678129437
 20
165.613763465862
 11
-207.605678129437
 21
165.588615189834
  0
INSERT
  5
51
100
AcDbEntity
  8
0
100
AcDbBlockReference
  2
TOP
 10
0.0
 20
0.0
  0
INSERT
  5
52
100
AcDbEntity
  8
0
100
AcDbBlockReference
  2
HEX_BOLT_SIDE__1
 10
0.0
 20
0.0
  0
INSERT
  5
53
100
AcDbEntity
  8
0
100
AcDbBlockReference
  2
HEX_BOLT_TOP__2
 10
0.0
 20
0.0
  0
INSERT
  5
54
100
AcDbEntity
  8
0
100
AcDbBlockReference
  2
HEX_BOLT_TOP__3
 10
0.0
 20
0.0
  0
INSERT
  5
55
100
AcDbEntity
  8
0
100
AcDbBlockReference
  2
HEX_BOLT_TOP__4
 10
0.0
 20
0.0
  0
INSERT
  5
56
100
AcDbEntity
  8
0
100
AcDbBlockReference
  2
HEX_BOLT_TOP__5
 10
0.0
 20
0.0
  0
INSERT
  5
57
100
AcDbEntity
  8
0
100
AcDbBlockReference
  2
HEX_BOLT_SIDE__6
 10
0.0
 20
0.0
  0
INSERT
  5
58
100
AcDbEntity
  8
0
100
AcDbBlockReference
  2
HEX_BOLT_SIDE__7
 10
0.0
 20
0.0
  0
INSERT
  5
59
100
AcDbEntity
  8
0
100
AcDbBlockReference
  2
HEX_BOLT_SIDE__8
 10
0.0
 20
0.0
  0
INSERT
  5
5A
100
AcDbEntity
  8
0
100
AcDbBlockReference
  2
HEX_BOLT_SIDE__9
 10
0.0
 20
0.0
  0
INSERT
  5
5B
100
AcDbEntity
  8
0
100
AcDbBlockReference
  2
HEX_BOLT_TOP__10
 10
0.0
 20
0.0
  0
INSERT
  5
5C
100
AcDbEntity
  8
0
100
AcDbBlockReference
  2
HEX_BOLT_TOP__11
 10
0.0
 20
0.0
  0
INSERT
  5
5D
100
AcDbEntity
  8
0
100
AcDbBlockReference
  2
HEX_BOLT_TOP__12
 10
0.0
 20
0.0
  0
INSERT
  5
5E
100
AcDbEntity
  8
0
100
AcDbBlockReference
  2
HEX_BOLT_TOP__13
 10
0.0
 20
0.0
  0
INSERT
  5
5F
100
AcDbEntity
  8
0
100
AcDbBlockReference
  2
HEX_BOLT_TOP__14
 10
0.0
 20
0.0
  0
INSERT
  5
60
100
AcDbEntity
  8
0
100
AcDbBlockReference
  2
HEX_BOLT_TOP__15
 10
0.0
 20
0.0
  0
INSERT
  5
61
100
AcDbEntity
  8
0
100
AcDbBlockReference
  2
HEX_BOLT_TOP__16
 10
0.0
 20
0.0
  0
INSERT
  5
62
100
AcDbEntity
  8
0
100
AcDbBlockReference
  2
HEX_BOLT_TOP__17
 10
0.0
 20
0.0
  0
INSERT
  5
63
100
AcDbEntity
  8
0
100
AcDbBlockReference
  2
HEX_BOLT_SIDE__18
 10
0.0
 20
0.0
  0
INSERT
  5
64
100
AcDbEntity
  8
0
100
AcDbBlockReference
  2
100144641__19
 10
0.0
 20
0.0
  0
INSERT
  5
65
100
AcDbEntity
  8
0
100
AcDbBlockReference
  2
100144641__20
 10
0.0
 20
0.0
  0
CIRCLE
  5
393
100
AcDbEntity
  8
0
 62
           7
100
AcDbCircle
 10
-335.389011460724
 20
208.509589088856
 40
1.0
  0
HATCH
  5
394
100
AcDbEntity
  8
0
 62
           7
100
AcDbHatch
 10
0.0
 20
0.0
 30
0.0
210
0.0
220
0.0
230
1.0
  2
SOLID
 70
           1
 71
           1
 91
        1
 92
        1
 93
        1
 72
           2
 10
-335.38901146072379
 20
208.50958908885599
 40
1.0
 50
-180.0
 51
180.0
 73
           1
 97
        1
330
393
 75
           0
 76
           1
 98
        1
 10
0.0
 20
0.0
  0
CIRCLE
  5
396
100
AcDbEntity
  8
0
 62
           7
100
AcDbCircle
 10
-302.889011460724
 20
152.217937842868
 40
1.0
  0
HATCH
  5
397
100
AcDbEntity
  8
0
 62
           7
100
AcDbHatch
 10
0.0
 20
0.0
 30
0.0
210
0.0
220
0.0
230
1.0
  2
SOLID
 70
           1
 71
           1
 91
        1
 92
        1
 93
        1
 72
           2
 10
-302.88901146072368
 20
152.2179378428676
 40
1.0
 50
-180.0
 51
180.0
 73
           1
 97
        1
330
396
 75
           0
 76
           1
 98
        1
 10
0.0
 20
0.0
  0
CIRCLE
  5
399
100
AcDbEntity
  8
0
 62
           7
100
AcDbCircle
 10
-351.639011460724
 20
180.363763465862
 40
1.0
  0
HATCH
  5
39A
100
AcDbEntity
  8
0
 62
           7
100
AcDbHatch
 10
0.0
 20
0.0
 30
0.0
210
0.0
220
0.0
230
1.0
  2
SOLID
 70
           1
 71
           1
 91
        1
 92
        1
 93
        1
 72
           2
 10
-351.63901146072362
 20
180.36376346586181
 40
1.0
 50
-180.0
 51
180.0
 73
           1
 97
        1
330
399
 75
           0
 76
           1
 98
        1
 10
0.0
 20
0.0
  0
CIRCLE
  5
39C
100
AcDbEntity
  8
0
 62
           7
100
AcDbCircle
 10
-286.639011460724
 20
180.363763465862
 40
1.0
  0
HATCH
  5
39D
100
AcDbEntity
  8
0
 62
           7
100
AcDbHatch
 10
0.0
 20
0.0
 30
0.0
210
0.0
220
0.0
230
1.0
  2
SOLID
 70
           1
 71
           1
 91
        1
 92
        1
 93
        1
 72
           2
 10
-286.63901146072362
 20
180.36376346586181
 40
1.0
 50
-180.0
 51
180.0
 73
           1
 97
        1
330
39C
 75
           0
 76
           1
 98
        1
 10
0.0
 20
0.0
  0
CIRCLE
  5
39F
100
AcDbEntity
  8
0
 62
           7
100
AcDbCircle
 10
-302.889011460724
 20
208.509589088856
 40
1.0
  0
HATCH
  5
3A0
100
AcDbEntity
  8
0
 62
           7
100
AcDbHatch
 10
0.0
 20
0.0
 30
0.0
210
0.0
220
0.0
230
1.0
  2
SOLID
 70
           1
 71
           1
 91
        1
 92
        1
 93
        1
 72
           2
 10
-302.88901146072362
 20
208.50958908885599
 40
1.0
 50
-180.0
 51
180.0
 73
           1
 97
        1
330
39F
 75
           0
 76
           1
 98
        1
 10
0.0
 20
0.0
  0
CIRCLE
  5
3A2
100
AcDbEntity
  8
0
 62
           7
100
AcDbCircle
 10
-335.389011460724
 20
152.217937842868
 40
1.0
  0
HATCH
  5
3A3
100
AcDbEntity
  8
0
 62
           7
100
AcDbHatch
 10
0.0
 20
0.0
 30
0.0
210
0.0
220
0.0
230
1.0
  2
SOLID
 70
           1
 71
           1
 91
        1
 92
        1
 93
        1
 72
           2
 10
-335.38901146072368
 20
152.2179378428676
 40
1.0
 50
-180.0
 51
180.0
 73
           1
 97
        1
330
3A2
 75
           0
 76
           1
 98
        1
 10
0.0
 20
0.0
  0
ENDSEC
  0
SECTION
  2
OBJECTS
  0
DICTIONARY
  5
19
100
AcDbDictionary
  3
ACAD_GROUP
350
1A
  3
ACAD_MLINESTYLE
350
1B
  0
DICTIONARY
  5
1A
102
{ACAD_REACTORS
330
19
102
}
100
AcDbDictionary
  0
DICTIONARY
  5
1B
102
{ACAD_REACTORS
330
19
102
}
100
AcDbDictionary
  3
STANDARD
350
1C
  0
MLINESTYLE
  5
1C
102
{ACAD_REACTORS
330
1B
102
}
100
AcDbMlineStyle
  2
STANDARD
 70
           0
  3

 62
           0
 51
90.0
 52
90.0
 71
           2
 49
0.5
 62
         256
  6
BYLAYER
 49
-0.5
 62
         256
  6
BYLAYER
  0
ENDSEC
  0
EOF
