  0
SECTION
  2
HEADER
  9
$ACADVER
  1
AC1014
  9
$ACADMAINTVER
 70
           0
  9
$DWGCODEPAGE
  3
DOS932
  9
$INSBASE
 10
0.0
 20
0.0
 30
0.0
  9
$EXTMIN
 10
1.000000000000E+20
 20
1.000000000000E+20
 30
1.000000000000E+20
  9
$EXTMAX
 10
-1.000000000000E+20
 20
-1.000000000000E+20
 30
-1.000000000000E+20
  9
$LIMMIN
 10
0.0
 20
0.0
  9
$LIMMAX
 10
0.0
 20
0.0
  9
$ORTHOMODE
 70
           0
  9
$REGENMODE
 70
           1
  9
$FILLMODE
 70
           1
  9
$QTEXTMODE
 70
           0
  9
$MIRRTEXT
 70
           1
  9
$DRAGMODE
 70
           2
  9
$LTSCALE
 40
1.0
  9
$OSMODE
 70
           0
  9
$ATTMODE
 70
           1
  9
$TEXTSIZE
 40
0.2
  9
$TRACEWID
 40
0.05
  9
$TEXTSTYLE
  7
STANDARD
  9
$CLAYER
  8
0
  9
$CELTYPE
  6
CONTINUOUS
  9
$CECOLOR
 62
         256
  9
$CELTSCALE
 40
1.0
  9
$DELOBJ
 70
           1
  9
$DISPSILH
 70
           0
  9
$DIMSCALE
 40
1.0
  9
$DIMASZ
 40
0.18
  9
$DIMEXO
 40
0.0625
  9
$DIMDLI
 40
0.38
  9
$DIMRND
 40
0.0
  9
$DIMDLE
 40
0.0
  9
$DIMEXE
 40
0.18
  9
$DIMTP
 40
0.0
  9
$DIMTM
 40
0.0
  9
$DIMTXT
 40
0.18
  9
$DIMCEN
 40
0.09
  9
$DIMTSZ
 40
0.0
  9
$DIMTOL
 70
           0
  9
$DIMLIM
 70
           0
  9
$DIMTIH
 70
           1
  9
$DIMTOH
 70
           1
  9
$DIMSE1
 70
           0
  9
$DIMSE2
 70
           0
  9
$DIMTAD
 70
           0
  9
$DIMZIN
 70
           0
  9
$DIMBLK
  1

  9
$DIMASO
 70
           1
  9
$DIMSHO
 70
           1
  9
$DIMPOST
  1

  9
$DIMAPOST
  1

  9
$DIMALT
 70
           0
  9
$DIMALTD
 70
           2
  9
$DIMALTF
 40
25.4
  9
$DIMLFAC
 40
1.0
  9
$DIMTOFL
 70
           0
  9
$DIMTVP
 40
0.0
  9
$DIMTIX
 70
           0
  9
$DIMSOXD
 70
           0
  9
$DIMSAH
 70
           0
  9
$DIMBLK1
  1

  9
$DIMBLK2
  1

  9
$DIMSTYLE
  2
STANDARD
  9
$DIMCLRD
 70
           0
  9
$DIMCLRE
 70
           0
  9
$DIMCLRT
 70
           0
  9
$DIMTFAC
 40
1.0
  9
$DIMGAP
 40
0.09
  9
$DIMJUST
 70
           0
  9
$DIMSD1
 70
           0
  9
$DIMSD2
 70
           0
  9
$DIMTOLJ
 70
           1
  9
$DIMTZIN
 70
           0
  9
$DIMALTZ
 70
           0
  9
$DIMALTTZ
 70
           0
  9
$DIMFIT
 70
           3
  9
$DIMUPT
 70
           0
  9
$DIMUNIT
 70
           2
  9
$DIMDEC
 70
           4
  9
$DIMTDEC
 70
           4
  9
$DIMALTU
 70
           2
  9
$DIMALTTD
 70
           2
  9
$DIMTXSTY
  7
STANDARD
  9
$DIMAUNIT
 70
           0
  9
$LUNITS
 70
           2
  9
$LUPREC
 70
           4
  9
$SKETCHINC
 40
0.1
  9
$FILLETRAD
 40
0.0
  9
$AUNITS
 70
           0
  9
$AUPREC
 70
           0
  9
$MENU
  1
acad
  9
$ELEVATION
 40
0.0
  9
$PELEVATION
 40
0.0
  9
$THICKNESS
 40
0.0
  9
$LIMCHECK
 70
           0
  9
$BLIPMODE
 70
           1
  9
$CHAMFERA
 40
0.0
  9
$CHAMFERB
 40
0.0
  9
$CHAMFERC
 40
0.0
  9
$CHAMFERD
 40
0.0
  9
$SKPOLY
 70
           0
  9
$TDCREATE
 40
0.000000000
  9
$TDUPDATE
 40
0.000000000
  9
$TDINDWG
 40
0.0000000000
  9
$TDUSRTIMER
 40
0.0000000000
  9
$USRTIMER
 70
           1
  9
$ANGBASE
 50
0.0
  9
$ANGDIR
 70
           0
  9
$PDMODE
 70
           0
  9
$PDSIZE
 40
0.0
  9
$PLINEWID
 40
0.0
  9
$COORDS
 70
           0
  9
$SPLFRAME
 70
           0
  9
$SPLINETYPE
 70
           6
  9
$SPLINESEGS
 70
           8
  9
$ATTDIA
 70
           0
  9
$ATTREQ
 70
           1
  9
$HANDLING
 70
           1
  9
$HANDSEED
  5
2B0
  9
$SURFTAB1
 70
           6
  9
$SURFTAB2
 70
           6
  9
$SURFTYPE
 70
           6
  9
$SURFU
 70
           6
  9
$SURFV
 70
           6
  9
$UCSNAME
  2

  9
$UCSORG
 10
0.0
 20
0.0
 30
0.0
  9
$UCSXDIR
 10
1.0
 20
0.0
 30
0.0
  9
$UCSYDIR
 10
0.0
 20
1.0
 30
0.0
  9
$PUCSNAME
  2

  9
$PUCSORG
 10
0.0
 20
0.0
 30
0.0
  9
$PUCSXDIR
 10
1.0
 20
0.0
 30
0.0
  9
$PUCSYDIR
 10
0.0
 20
1.0
 30
0.0
  9
$USERI1
 70
           0
  9
$USERI2
 70
           0
  9
$USERI3
 70
           0
  9
$USERI4
 70
           0
  9
$USERI5
 70
           0
  9
$USERR1
 40
0.0
  9
$USERR2
 40
0.0
  9
$USERR3
 40
0.0
  9
$USERR4
 40
0.0
  9
$USERR5
 40
0.0
  9
$WORLDVIEW
 70
           1
  9
$SHADEDGE
 70
           3
  9
$SHADEDIF
 70
          70
  9
$TILEMODE
 70
           1
  9
$MAXACTVP
 70
          16
  9
$PINSBASE
 10
0.0
 20
0.0
 30
0.0
  9
$PLIMCHECK
 70
           0
  9
$PEXTMIN
 10
1.000000000000E+20
 20
1.000000000000E+20
 30
1.000000000000E+20
  9
$PEXTMAX
 10
-1.000000000000E+20
 20
-1.000000000000E+20
 30
-1.000000000000E+20
  9
$PLIMMIN
 10
0.0
 20
0.0
  9
$PLIMMAX
 10
12.0
 20
9.0
  9
$UNITMODE
 70
           0
  9
$VISRETAIN
 70
           0
  9
$PLINEGEN
 70
           1
  9
$PSLTSCALE
 70
           0
  9
$TREEDEPTH
 70
        3020
  9
$PICKSTYLE
 70
           1
  9
$CMLSTYLE
  2
STANDARD
  9
$CMLJUST
 70
           0
  9
$CMLSCALE
 40
1.0
  9
$PROXYGRAPHICS
 70
           0
  9
$MEASUREMENT
 70
           0
  0
ENDSEC
  0
SECTION
  2
CLASSES
  0
CLASS
  1
LWPOLYLINE
  2
AcDbPolyline
  3
"AutoCAD"
 90
        0
280
           0
281
           1
  0
CLASS
  1
IMAGE
  2
AcDbRasterImage
  3
ISM
 90
      127
280
           0
281
           1
  0
CLASS
  1
OLE2FRAME
  2
AcDbOle2Frame
  3
""
 90
        0
280
           0
281
           1
  0
CLASS
  1
HATCH
  2
AcDbHatch
  3
"ACAD_SEDONA"
 90
        0
280
           0
281
           1
  0
CLASS
  1
DICTIONARYVAR
  2
AcDbDictionaryVar
  3
"AutoCAD"
 90
        0
280
           0
281
           0
  0
CLASS
  1
RASTERVARIABLES
  2
AcDbRasterVariables
  3
ISM
 90
        0
280
           0
281
           0
  0
CLASS
  1
IMAGEDEF
  2
AcDbRasterImageDef
  3
ISM
 90
        0
280
           0
281
           0
  0
CLASS
  1
IMAGEDEF_REACTOR
  2
AcDbRasterImageDefReactor
  3
ISM
 90
        1
280
           0
281
           0
  0
CLASS
  1
IDBUFFER
  2
AcDbIdBuffer
  3
"Acad"
 90
        0
280
           0
281
           0
  0
CLASS
  1
SPATIAL_FILTER
  2
AcDbSpatialFilter
  3
"Acad"
 90
        0
280
           0
281
           0
  0
CLASS
  1
XRECORD
  2
AcDbXrecord
  3
"<Built In>"
 90
        0
280
           0
281
           0
  0
CLASS
  1
SORTENTSTABLE
  2
AcDbSortentsTable
  3
"AutoCAD"
 90
        0
280
           0
281
           0
  0
CLASS
  1
LAYER_INDEX
  2
AcDbLayerIndex
  3
"Acad"
 90
        0
280
           0
281
           0
  0
CLASS
  1
SPATIAL_INDEX
  2
AcDbSpatialIndex
  3
"Acad"
 90
        0
280
           0
281
           0
  0
CLASS
  1
OBJECT_PTR
  2
CAseDLPNTableRecord
  3
"ASE-LPNTableRecord"
 90
        1
280
           0
281
           0
  0
CLASS
  1
LAYOUT
  2
AcDbLayout
  3
"AutoCAD 2000"
 90
        1
280
           0
281
           0
  0
CLASS
  1
PLOTSETTINGS
  2
AcDbPlotSettings
  3
"AutoCAD 2000"
 90
        1
280
           0
281
           0
  0
CLASS
  1
ACDBDICTIONARYWDFLT
  2
AcDbDictionaryWithDefault
  3
"AutoCAD 2000"
 90
        1
280
           0
281
           0
  0
CLASS
  1
ACDBPLACEHOLDER
  2
AcDbPlaceHolder
  3
"AutoCAD 2000"
 90
        1
280
           0
281
           0
  0
CLASS
  1
VBA_PROJECT
  2
AcDbVbaProject
  3
"acadvba"
 90
        1
280
           0
281
           0
  0
CLASS
  1
WIPEOUT
  2
AcDbWipeout
  3
WipeOut|AutoCAD Express Tool|expresstools@autodesk.com
 90
      127
280
           0
281
           1
  0
CLASS
  1
WIPEOUTVARIABLES
  2
AcDbWipeoutVariables
  3
WipeOut|AutoCAD Express Tool|expresstools@autodesk.com
 90
        0
280
           0
281
           0
  0
CLASS
  1
RTEXT
  2
RText
  3
RText|AutoCAD Express Tool|expresstools@autodesk.com
 90
        0
280
           0
281
           1
  0
CLASS
  1
ARCALIGNEDTEXT
  2
AcDbArcAlignedText
  3
ATEXT|AutoCAD Express Tool|expresstools@autodesk.com
 90
        0
280
           0
281
           1
  0
ENDSEC
  0
SECTION
  2
TABLES
  0
TABLE
  2
VPORT
  5
7
100
AcDbSymbolTable
 70
           1
  0
VPORT
  5
15
100
AcDbSymbolTableRecord
100
AcDbViewportTableRecord
  2
*ACTIVE
 70
           0
 10
0.0
 20
0.0
 11
1.0
 21
1.0
 12
6.591288
 22
4.579184
 13
0.0
 23
0.0
 14
1.0
 24
1.0
 15
0.0
 25
0.0
 16
0.0
 26
0.0
 36
1.0
 17
0.0
 27
0.0
 37
0.0
 40
9.158369
 41
0.688564
 42
50.0
 43
0.0
 44
0.0
 50
0.0
 51
0.0
 71
           0
 72
         100
 73
           1
 74
           1
 75
           0
 76
           0
 77
           0
 78
           0
  0
ENDTAB
  0
TABLE
  2
LTYPE
  5
4
100
AcDbSymbolTable
 70
          10
  0
LTYPE
  5
11
100
AcDbSymbolTableRecord
100
AcDbLinetypeTableRecord
  2
BYBLOCK
 70
          64
  3

 72
          65
 73
           0
 40
0.0
  0
LTYPE
  5
12
100
AcDbSymbolTableRecord
100
AcDbLinetypeTableRecord
  2
BYLAYER
 70
          64
  3

 72
          65
 73
           0
 40
0.0
  0
LTYPE
  5
13
100
AcDbSymbolTableRecord
100
AcDbLinetypeTableRecord
  2
CONTINUOUS
 70
          64
  3
Solid line
 72
          65
 73
           0
 40
0.0
  0
LTYPE
  5
1D
100
AcDbSymbolTableRecord
100
AcDbLinetypeTableRecord
  2
DASHED
 70
          64
  3
Dashed
 72
          65
 73
           2
 40
15.0
 49
12.0
 74
           0
 49
-3.0
 74
           0
  0
LTYPE
  5
1E
100
AcDbSymbolTableRecord
100
AcDbLinetypeTableRecord
  2
DOTTED
 70
          64
  3
Dotted
 72
          65
 73
           2
 40
3.5
 49
0.5
 74
           0
 49
-3.0
 74
           0
  0
LTYPE
  5
1F
100
AcDbSymbolTableRecord
100
AcDbLinetypeTableRecord
  2
DOT_CENTER
 70
          64
  3
Dot_Center
 72
          65
 73
           4
 40
2.0
 49
1.25
 74
           0
 49
-0.25
 74
           0
 49
0.25
 74
           0
 49
-0.25
 74
           0
  0
LTYPE
  5
20
100
AcDbSymbolTableRecord
100
AcDbLinetypeTableRecord
  2
LONG_DASHED
 70
          64
  3
Long_Dashed
 72
          65
 73
           2
 40
2.0
 49
1.5
 74
           0
 49
-0.5
 74
           0
  0
LTYPE
  5
21
100
AcDbSymbolTableRecord
100
AcDbLinetypeTableRecord
  2
DASH_CENTER
 70
          64
  3
Dash_Center
 72
          65
 73
           4
 40
36.0
 49
24.0
 74
           0
 49
-3.0
 74
           0
 49
6.0
 74
           0
 49
-3.0
 74
           0
  0
LTYPE
  5
22
100
AcDbSymbolTableRecord
100
AcDbLinetypeTableRecord
  2
PHANTOM
 70
          64
  3
Phantom
 72
          65
 73
           6
 40
2.5
 49
1.25
 74
           0
 49
-0.25
 74
           0
 49
0.25
 74
           0
 49
-0.25
 74
           0
 49
0.25
 74
           0
 49
-0.25
 74
           0
  0
LTYPE
  5
23
100
AcDbSymbolTableRecord
100
AcDbLinetypeTableRecord
  2
CENTER_DASH_DASH
 70
          64
  3
Center_Dash_Dash
 72
          65
 73
           6
 40
22.0
 49
12.0
 74
           0
 49
-3.0
 74
           0
 49
0.5
 74
           0
 49
-3.0
 74
           0
 49
0.5
 74
           0
 49
-3.0
 74
           0
  0
ENDTAB
  0
TABLE
  2
LAYER
  5
2
100
AcDbSymbolTable
 70
           2
  0
LAYER
  5
14
100
AcDbSymbolTableRecord
100
AcDbLayerTableRecord
  2
0
 70
           0
 62
           7
  6
CONTINUOUS
  0
LAYER
  5
24
100
AcDbSymbolTableRecord
100
AcDbLayerTableRecord
  2
1
 70
           0
 62
           7
  6
CONTINUOUS
  0
ENDTAB
  0
TABLE
  2
STYLE
  5
3
100
AcDbSymbolTable
 70
           4
  0
STYLE
  5
17
100
AcDbSymbolTableRecord
100
AcDbTextStyleTableRecord
  2
STANDARD
 70
           0
 40
0.0
 41
1.0
 50
0.0
 71
           0
 42
0.0
  3
txt
  4

  0
STYLE
  5
2A1
100
AcDbSymbolTableRecord
100
AcDbTextStyleTableRecord
  2
CONVERTER_1
 70
           0
 40
0.0
 41
0.9
 50
0.0
 71
           0
 42
0.0
  3
txt.shx
  4

  0
STYLE
  5
2A3
100
AcDbSymbolTableRecord
100
AcDbTextStyleTableRecord
  2
CONVERTER_2
 70
           0
 40
0.0
 41
0.765
 50
0.0
 71
           0
 42
0.0
  3
txt.shx
  4

  0
STYLE
  5
2A5
100
AcDbSymbolTableRecord
100
AcDbTextStyleTableRecord
  2
CONVERTER_3
 70
           0
 40
0.0
 41
0.81
 50
0.0
 71
           0
 42
0.0
  3
txt.shx
  4

  0
ENDTAB
  0
TABLE
  2
VIEW
  5
5
100
AcDbSymbolTable
 70
           0
  0
ENDTAB
  0
TABLE
  2
UCS
  5
6
100
AcDbSymbolTable
 70
           0
  0
ENDTAB
  0
TABLE
  2
APPID
  5
8
100
AcDbSymbolTable
 70
           1
  0
APPID
  5
16
100
AcDbSymbolTableRecord
100
AcDbRegAppTableRecord
  2
ACAD
 70
           0
  0
ENDTAB
  0
TABLE
  2
DIMSTYLE
  5
9
100
AcDbSymbolTable
 70
           1
  0
DIMSTYLE
105
18
100
AcDbSymbolTableRecord
100
AcDbDimStyleTableRecord
  2
STANDARD
 70
           0
  3

  4

  5

  6

  7

 40
1.0
 41
0.18
 42
0.0625
 43
0.38
 44
0.18
 45
0.0
 46
0.0
 47
0.0
 48
0.0
 71
           0
 72
           0
 73
           1
 74
           1
 75
           0
 76
           0
 77
           0
 78
           0
140
0.18
141
0.09
142
0.0
143
25.4
144
1.0
145
0.0
146
1.0
147
0.09
170
           0
171
           2
172
           0
173
           0
174
           0
175
           0
176
           0
177
           0
178
           0
270
           2
271
           4
272
           4
273
           2
274
           2
275
           0
280
           0
281
           0
282
           0
283
           1
284
           0
285
           0
286
           0
287
           0
288
           0
340
17
  0
ENDTAB
  0
TABLE
  2
BLOCK_RECORD
  5
1
100
AcDbSymbolTable
 70
           2
  0
BLOCK_RECORD
  5
A
100
AcDbSymbolTableRecord
100
AcDbBlockTableRecord
  2
*MODEL_SPACE
  0
BLOCK_RECORD
  5
B
100
AcDbSymbolTableRecord
100
AcDbBlockTableRecord
  2
*PAPER_SPACE
  0
BLOCK_RECORD
  5
25
100
AcDbSymbolTableRecord
100
AcDbBlockTableRecord
  2
RETAINER
  0
BLOCK_RECORD
  5
27
100
AcDbSymbolTableRecord
100
AcDbBlockTableRecord
  2
WBG_025_F
  0
ENDTAB
  0
ENDSEC
  0
SECTION
  2
BLOCKS
  0
BLOCK
  5
D
100
AcDbEntity
  8
0
100
AcDbBlockBegin
  2
*MODEL_SPACE
 70
           0
 10
0.0
 20
0.0
 30
0.0
  3
*MODEL_SPACE
  1

  0
ENDBLK
  5
E
100
AcDbEntity
  8
0
100
AcDbBlockEnd
  0
BLOCK
  5
F
100
AcDbEntity
 67
           1
  8
0
100
AcDbBlockBegin
  2
*PAPER_SPACE
 70
           0
 10
0.0
 20
0.0
 30
0.0
  3
*PAPER_SPACE
  1

  0
ENDBLK
  5
10
100
AcDbEntity
 67
           1
  8
0
100
AcDbBlockEnd
  0
BLOCK
  5
26
100
AcDbEntity
  8
0
100
AcDbBlockBegin
  2
RETAINER
 70
           0
 10
0.0
 20
0.0
 30
0.0
  3
RETAINER
  1

  0
ENDBLK
  5
2D
100
AcDbEntity
  8
0
100
AcDbBlockEnd
  0
BLOCK
  5
28
100
AcDbEntity
  8
0
100
AcDbBlockBegin
  2
WBG_025_F
 70
           0
 10
0.0
 20
0.0
 30
0.0
  3
WBG_025_F
  1

  0
INSERT
  5
29
100
AcDbEntity
  8
0
100
AcDbBlockReference
  2
RETAINER
 10
0.0
 20
0.0
  0
ENDBLK
  5
2E
100
AcDbEntity
  8
0
100
AcDbBlockEnd
  0
ENDSEC
  0
SECTION
  2
ENTITIES
  0
TEXT
  5
2AE
100
AcDbEntity
  8
1
 62
           7
100
AcDbText
 10
-474.813214124662
 20
311.577818596133
 40
5.0
  1
The reference drawing
 41
0.81
  7
CONVERTER_3
100
AcDbText
  0
TEXT
  5
2AD
100
AcDbEntity
  8
1
 62
           3
100
AcDbText
 10
-476.324414931926
 20
303.558542922429
 40
3.5
  1
All speciffcations and dimensions mentioned in the drawing are
 41
0.81
  7
CONVERTER_3
100
AcDbText
  0
TEXT
  5
2AC
100
AcDbEntity
  8
1
 62
           3
100
AcDbText
 10
-476.324414931926
 20
296.598542922429
 40
3.5
  1
subject to change without notification.
 41
0.81
  7
CONVERTER_3
100
AcDbText
  0
TEXT
  5
2AB
100
AcDbEntity
  8
1
 62
           3
100
AcDbText
 10
-476.324414931926
 20
289.638542922429
 40
3.5
  1
This drawing itself is also a property of Harmonic Drive Systems,Ins.
 41
0.81
  7
CONVERTER_3
100
AcDbText
  0
TEXT
  5
2AA
100
AcDbEntity
  8
1
 62
           3
100
AcDbText
 10
-476.324414931926
 20
278.718542922429
 40
3.5
  1
Harmonic Drive Systems,Inc.
 41
0.81
  7
CONVERTER_3
100
AcDbText
  0
TEXT
  5
2A9
100
AcDbEntity
  8
1
 62
           3
100
AcDbText
 10
-476.324414931926
 20
271.758542922429
 40
3.5
  1
Ichigo Omori Bldg.,4F 6-25-3 Minami-Oi, Shinagawa-ku, Tokyo 140-0013
 41
0.81
  7
CONVERTER_3
100
AcDbText
  0
TEXT
  5
2A8
100
AcDbEntity
  8
1
 62
           3
100
AcDbText
 10
-476.324414931926
 20
264.798542922429
 40
3.5
  1
JAPAN
 41
0.81
  7
CONVERTER_3
100
AcDbText
  0
TEXT
  5
2A7
100
AcDbEntity
  8
1
 62
           3
100
AcDbText
 10
-476.324414931926
 20
257.838542922429
 40
3.5
  1
Tel.03-5471-7800 Fax.03-5471-7811
 41
0.81
  7
CONVERTER_3
100
AcDbText
  0
TEXT
  5
2A6
100
AcDbEntity
  8
1
 62
           3
100
AcDbText
 10
-476.324414931926
 20
250.878542922429
 40
3.5
  1
http://www.hds.co.jp
 41
0.81
  7
CONVERTER_3
100
AcDbText
  0
MTEXT
  5
2A4
100
AcDbEntity
  8
1
 62
           3
100
AcDbMText
 10
-243.887946954713
 20
322.71756310146
 30
0.0
 40
3.5
 41
0.0
 71
           5
 72
           1
  1
CSG-32-160-2UH-LW-SP-A
  7
CONVERTER_2
  0
MTEXT
  5
2A2
100
AcDbEntity
  8
1
 62
           3
100
AcDbMText
 10
-246.137946954713
 20
316.09256310146
 30
0.0
 40
4.5
 41
0.0
 71
           6
 72
           1
  1
C007703
  7
CONVERTER_1
  0
LEADER
  5
2A0
100
AcDbEntity
  8
1
  6
CONTINUOUS
 62
           7
100
AcDbLeader
  3
Standard
 71
           0
 73
           3
 74
           0
 75
           0
 40
0.0
 76
           2
 10
-409.74581136698
 20
402.360359406202
 30
0.0
 10
-409.720299138156
 20
402.298767437369
 30
0.0
 77
           7
  0
LEADER
  5
29D
100
AcDbEntity
  8
1
  6
CONTINUOUS
 62
           7
100
AcDbLeader
  3
Standard
 71
           0
 73
           3
 74
           0
 75
           0
 40
0.0
 76
           2
 10
-423.887946990711
 20
396.502495029933
 30
0.0
 10
-423.913459219536
 20
396.4409030611
 30
0.0
 77
           7
  0
LEADER
  5
29A
100
AcDbEntity
  8
1
  6
CONTINUOUS
 62
           7
100
AcDbLeader
  3
Standard
 71
           0
 73
           3
 74
           0
 75
           0
 40
0.0
 76
           2
 10
-438.030082614443
 20
402.360359406202
 30
0.0
 10
-438.091674583276
 20
402.334847177378
 30
0.0
 77
           7
  0
LEADER
  5
297
100
AcDbEntity
  8
1
  6
CONTINUOUS
 62
           7
100
AcDbLeader
  3
Standard
 71
           0
 73
           3
 74
           0
 75
           0
 40
0.0
 76
           2
 10
-443.887946990712
 20
416.502495029933
 30
0.0
 10
-443.949538959545
 20
416.528007258758
 30
0.0
 77
           7
  0
LEADER
  5
294
100
AcDbEntity
  8
1
  6
CONTINUOUS
 62
           7
100
AcDbLeader
  3
Standard
 71
           0
 73
           3
 74
           0
 75
           0
 40
0.0
 76
           2
 10
-403.887946990711
 20
416.502495029933
 30
0.0
 10
-403.826355021877
 20
416.476982801109
 30
0.0
 77
           7
  0
LEADER
  5
291
100
AcDbEntity
  8
1
  6
CONTINUOUS
 62
           7
100
AcDbLeader
  3
Standard
 71
           0
 73
           3
 74
           0
 75
           0
 40
0.0
 76
           2
 10
-409.745811366981
 20
430.644630653664
 30
0.0
 10
-409.684219398147
 20
430.670142882489
 30
0.0
 77
           7
  0
LEADER
  5
28E
100
AcDbEntity
  8
1
  6
CONTINUOUS
 62
           7
100
AcDbLeader
  3
Standard
 71
           0
 73
           3
 74
           0
 75
           0
 40
0.0
 76
           2
 10
-423.887946990712
 20
436.502495029933
 30
0.0
 10
-423.862434761887
 20
436.564086998767
 30
0.0
 77
           7
  0
LEADER
  5
28B
100
AcDbEntity
  8
1
  6
CONTINUOUS
 62
           7
100
AcDbLeader
  3
Standard
 71
           0
 73
           3
 74
           0
 75
           0
 40
0.0
 76
           2
 10
-438.030082614443
 20
430.644630653664
 30
0.0
 10
-438.055594843267
 20
430.706222622498
 30
0.0
 77
           7
  0
LEADER
  5
288
100
AcDbEntity
  8
1
  6
CONTINUOUS
 62
           7
100
AcDbLeader
  3
Standard
 71
           0
 73
           3
 74
           0
 75
           0
 40
0.0
 76
           2
 10
-439.593899043403
 20
423.00811338014
 30
0.0
 10
-439.619411272228
 20
423.069705348974
 30
0.0
 77
           7
  0
LEADER
  5
285
100
AcDbEntity
  8
1
  6
CONTINUOUS
 62
           7
100
AcDbLeader
  3
Standard
 71
           0
 73
           3
 74
           0
 75
           0
 40
0.0
 76
           2
 10
-439.593899043403
 20
409.996876679727
 30
0.0
 10
-439.655491012238
 20
410.022388908551
 30
0.0
 77
           7
  0
LEADER
  5
282
100
AcDbEntity
  8
1
  6
CONTINUOUS
 62
           7
100
AcDbLeader
  3
Standard
 71
           0
 73
           3
 74
           0
 75
           0
 40
0.0
 76
           2
 10
-430.393565340918
 20
400.796542977242
 30
0.0
 10
-430.455157309752
 20
400.771030748418
 30
0.0
 77
           7
  0
LEADER
  5
27F
100
AcDbEntity
  8
1
  6
CONTINUOUS
 62
           7
100
AcDbLeader
  3
Standard
 71
           0
 73
           3
 74
           0
 75
           0
 40
0.0
 76
           2
 10
-417.382328640505
 20
400.796542977242
 30
0.0
 10
-417.407840869329
 20
400.734951008408
 30
0.0
 77
           7
  0
LEADER
  5
27C
100
AcDbEntity
  8
1
  6
CONTINUOUS
 62
           7
100
AcDbLeader
  3
Standard
 71
           0
 73
           3
 74
           0
 75
           0
 40
0.0
 76
           2
 10
-408.18199493802
 20
409.996876679727
 30
0.0
 10
-408.156482709195
 20
409.935284710893
 30
0.0
 77
           7
  0
LEADER
  5
279
100
AcDbEntity
  8
1
  6
CONTINUOUS
 62
           7
100
AcDbLeader
  3
Standard
 71
           0
 73
           3
 74
           0
 75
           0
 40
0.0
 76
           2
 10
-408.18199493802
 20
423.00811338014
 30
0.0
 10
-408.120402969186
 20
422.982601151316
 30
0.0
 77
           7
  0
LEADER
  5
276
100
AcDbEntity
  8
1
  6
CONTINUOUS
 62
           7
100
AcDbLeader
  3
Standard
 71
           0
 73
           3
 74
           0
 75
           0
 40
0.0
 76
           2
 10
-417.382328640505
 20
432.208447082625
 30
0.0
 10
-417.320736671671
 20
432.23395931145
 30
0.0
 77
           7
  0
LEADER
  5
273
100
AcDbEntity
  8
1
  6
CONTINUOUS
 62
           7
100
AcDbLeader
  3
Standard
 71
           0
 73
           3
 74
           0
 75
           0
 40
0.0
 76
           2
 10
-430.393565340918
 20
432.208447082625
 30
0.0
 10
-430.368053112094
 20
432.270039051459
 30
0.0
 77
           7
  0
ARC
  5
270
100
AcDbEntity
  8
1
  6
CONTINUOUS
 62
           7
100
AcDbCircle
 10
-288.937946990711
 20
362.702495029933
 40
0.2
100
AcDbArc
 50
180.0
 51
-90.0
  0
ARC
  5
26F
100
AcDbEntity
  8
1
  6
CONTINUOUS
 62
           7
100
AcDbCircle
 10
-288.937946990711
 20
365.002495029933
 40
0.2
100
AcDbArc
 50
90.0
 51
180.0
  0
ARC
  5
26E
100
AcDbEntity
  8
1
  6
CONTINUOUS
 62
           7
100
AcDbCircle
 10
-287.237946990711
 20
371.102495029933
 40
0.4
100
AcDbArc
 50
90.0
 51
180.0
  0
ARC
  5
26D
100
AcDbEntity
  8
1
  6
CONTINUOUS
 62
           7
100
AcDbCircle
 10
-287.237946990711
 20
461.902495029933
 40
0.4
100
AcDbArc
 50
180.0
 51
-90.0
  0
ARC
  5
26C
100
AcDbEntity
  8
1
  6
CONTINUOUS
 62
           7
100
AcDbCircle
 10
-300.037946990711
 20
359.602495029933
 40
0.4
100
AcDbArc
 50
0.0
 51
90.0
  0
ARC
  5
26B
100
AcDbEntity
  8
1
  6
CONTINUOUS
 62
           7
100
AcDbCircle
 10
-300.037946990711
 20
473.402495029933
 40
0.4
100
AcDbArc
 50
-90.0
 51
0.0
  0
ARC
  5
26A
100
AcDbEntity
  8
1
  6
CONTINUOUS
 62
           7
100
AcDbCircle
 10
-324.577946860945
 20
390.002495420442
 40
0.5
100
AcDbArc
 50
0.0
 51
90.0
  0
ARC
  5
269
100
AcDbEntity
  8
1
  6
CONTINUOUS
 62
           7
100
AcDbCircle
 10
-270.887951391729
 20
350.752495029933
 40
0.25
100
AcDbArc
 50
0.0
 51
90.0
  0
ARC
  5
268
100
AcDbEntity
  8
1
  6
CONTINUOUS
 62
           7
100
AcDbCircle
 10
-316.037946024013
 20
432.102495029933
 40
0.4
100
AcDbArc
 50
0.0
 51
90.0
  0
ARC
  5
267
100
AcDbEntity
  8
1
  6
CONTINUOUS
 62
           7
100
AcDbCircle
 10
-342.037946860945
 20
371.752495029934
 40
0.8
100
AcDbArc
 50
179.999999999983
 51
-138.590377890751
  0
ARC
  5
266
100
AcDbEntity
  8
1
  6
CONTINUOUS
 62
           7
100
AcDbCircle
 10
-342.037946860945
 20
461.252495029933
 40
0.8
100
AcDbArc
 50
138.590377890757
 51
-179.999999999991
  0
SPLINE
  5
265
100
AcDbEntity
  8
1
  6
CONTINUOUS
 62
           3
100
AcDbSpline
210
0.0
220
0.0
230
1.0
 70
           0
 71
           3
 72
          41
 73
          38
 74
          77
 42
0.00000000001
 43
0.00000000001
 44
0.00000000001
 40
-0.1374154984636036
 40
-0.0018581129533288
 40
0.1336992725569448
 40
0.2730127531728249
 40
0.4227687322574483
 40
0.5875418154220682
 40
0.7693296890086373
 40
0.9678075846704369
 40
1.1808739872833105
 40
1.4051735791062028
 40
1.6365253816108023
 40
1.8702787801681655
 40
2.1016305826728874
 40
2.3259301744956629
 40
2.5389965771085992
 40
2.7374744727704767
 40
2.9192623463567671
 40
3.0840354295213528
 40
3.2337914086061641
 40
3.3731048892221072
 40
3.5086622747325129
 40
3.6479757553485115
 40
3.7977317344332211
 40
3.9625048175978028
 40
4.1442926911841633
 40
4.3427705868459627
 40
4.5558369894588973
 40
4.780136581281714
 40
5.011488383786423
 40
5.2452417823437774
 40
5.4765935848483736
 40
5.7008931766713014
 40
5.9139595792841586
 40
6.1124374749458985
 40
6.2942253485324509
 40
6.4589984316970197
 40
6.608754410781625
 40
6.7480678913975769
 40
6.8836252769078978
 40
7.0191826624181726
 40
7.1547400479284464
 10
-343.88794686094502
 20
379.49717690618951
 30
0.0
 10
-344.0217707309078
 20
379.51878654743052
 30
0.0
 10
-344.15008223848992
 20
379.5820720949049
 30
0.0
 10
-344.26899295631023
 20
379.68373064207822
 30
0.0
 10
-344.37561019077441
 20
379.8201039727162
 30
0.0
 10
-344.46726092332813
 20
379.9870761620848
 30
0.0
 10
-344.54145795048231
 20
380.17976859162007
 30
0.0
 10
-344.59607907690082
 20
380.39251775314852
 30
0.0
 10
-344.62951758307372
 20
380.61901292603159
 30
0.0
 10
-344.6407762905805
 20
380.85249502993321
 30
0.0
 10
-344.62951758307372
 20
381.08597713383512
 30
0.0
 10
-344.59607907690071
 20
381.31247230671812
 30
0.0
 10
-344.54145795048231
 20
381.5252214682464
 30
0.0
 10
-344.46726092332813
 20
381.71791389778201
 30
0.0
 10
-344.37561019077413
 20
381.88488608715028
 30
0.0
 10
-344.26899295631051
 20
382.0212594177882
 30
0.0
 10
-344.15008223848992
 20
382.12291796496169
 30
0.0
 10
-344.02177073090792
 20
382.18620351243641
 30
0.0
 10
-343.88794686094502
 20
382.20781315367719
 30
0.0
 10
-343.75412299098201
 20
382.18620351243641
 30
0.0
 10
-343.62581148340001
 20
382.12291796496169
 30
0.0
 10
-343.50690076557959
 20
382.02125941778831
 30
0.0
 10
-343.4002835311158
 20
381.88488608715028
 30
0.0
 10
-343.30863279856192
 20
381.71791389778201
 30
0.0
 10
-343.23443577140802
 20
381.5252214682464
 30
0.0
 10
-343.17981464498922
 20
381.31247230671812
 30
0.0
 10
-343.14637613881632
 20
381.08597713383512
 30
0.0
 10
-343.13511743130971
 20
380.85249502993321
 30
0.0
 10
-343.14637613881632
 20
380.61901292603159
 30
0.0
 10
-343.17981464498922
 20
380.39251775314852
 30
0.0
 10
-343.23443577140802
 20
380.17976859162007
 30
0.0
 10
-343.30863279856192
 20
379.9870761620848
 30
0.0
 10
-343.4002835311158
 20
379.82010397271631
 30
0.0
 10
-343.50690076557981
 20
379.68373064207822
 30
0.0
 10
-343.62581148340001
 20
379.5820720949049
 30
0.0
 10
-343.75412299098213
 20
379.51878654743041
 30
0.0
 10
-343.88794686094502
 20
379.49717690618951
 30
0.0
 10
-344.0217707309078
 20
379.51878654743052
 30
0.0
 11
-343.95394444805453
 21
379.50783407953691
 31
0.0
 11
-344.02027369952361
 21
379.52367335380643
 31
0.0
 11
-344.08360888822426
 21
379.54928624082766
 31
0.0
 11
-344.14761807068726
 21
379.58597624233977
 31
0.0
 11
-344.20669891754494
 21
379.63047453872167
 31
0.0
 11
-344.26609228966345
 21
379.68662635778156
 31
0.0
 11
-344.31968432848851
 21
379.74856960824826
 31
0.0
 11
-344.3725822431968
 21
379.82217584545373
 31
0.0
 11
-344.41942426274971
 21
379.89992582813431
 31
0.0
 11
-344.46424761764251
 21
379.98852130717859
 31
0.0
 11
-344.5030443611638
 21
380.08000707641031
 31
0.0
 11
-344.53850683468613
 21
380.18073883406078
 31
0.0
 11
-344.56806707661627
 21
380.28341107659253
 31
0.0
 11
-344.59319119826853
 21
380.39311479155219
 31
0.0
 11
-344.6125395626562
 21
380.50401258331908
 31
0.0
 11
-344.62667314953893
 21
380.61929740364519
 31
0.0
 11
-344.63511786935226
 21
380.73515117919857
 31
0.0
 11
-344.63794707996641
 21
380.85249502993327
 31
0.0
 11
-344.63511786935226
 21
380.96983888066802
 31
0.0
 11
-344.62667314953899
 21
381.08569265622145
 31
0.0
 11
-344.61253956265614
 21
381.20097747654768
 31
0.0
 11
-344.59319119826847
 21
381.31187526831445
 31
0.0
 11
-344.56806707661622
 21
381.421578983274
 31
0.0
 11
-344.53850683468613
 21
381.52425122580576
 31
0.0
 11
-344.5030443611638
 21
381.62498298345633
 31
0.0
 11
-344.46424761764246
 21
381.71646875268817
 31
0.0
 11
-344.41942426274954
 21
381.80506423173239
 31
0.0
 11
-344.37258224319658
 21
381.88281421441275
 31
0.0
 11
-344.31968432848862
 21
381.95642045161816
 31
0.0
 11
-344.26609228966373
 21
382.01836370208486
 31
0.0
 11
-344.20669891754505
 21
382.0745155211448
 31
0.0
 11
-344.14761807068737
 21
382.11901381752682
 31
0.0
 11
-344.08360888822426
 21
382.15570381903916
 31
0.0
 11
-344.02027369952367
 21
382.1813167060605
 31
0.0
 11
-343.95394444805459
 21
382.19715598032997
 31
0.0
 11
-343.88794686094502
 21
382.20248456700358
 31
0.0
 11
-343.8219492738354
 21
382.19715598032997
 31
0.0
 11
-343.75562002236626
 21
382.1813167060605
 31
0.0
 11
-343.69228483366567
 21
382.1557038190391
 31
0.0
 11
-343.62827565120256
 21
382.11901381752682
 31
0.0
 11
-343.56919480434493
 21
382.07451552114492
 31
0.0
 11
-343.50980143222637
 21
382.01836370208491
 31
0.0
 11
-343.45620939340142
 21
381.95642045161821
 31
0.0
 11
-343.40331147869335
 21
381.88281421441275
 31
0.0
 11
-343.35646945914044
 21
381.80506423173233
 31
0.0
 11
-343.31164610424764
 21
381.71646875268823
 31
0.0
 11
-343.27284936072641
 21
381.62498298345633
 31
0.0
 11
-343.23738688720402
 21
381.52425122580576
 31
0.0
 11
-343.20782664527388
 21
381.421578983274
 31
0.0
 11
-343.18270252362157
 21
381.31187526831451
 31
0.0
 11
-343.16335415923385
 21
381.20097747654762
 31
0.0
 11
-343.14922057235111
 21
381.08569265622145
 31
0.0
 11
-343.1407758525379
 21
380.96983888066796
 31
0.0
 11
-343.1379466419238
 21
380.85249502993327
 31
0.0
 11
-343.1407758525379
 21
380.73515117919851
 31
0.0
 11
-343.14922057235111
 21
380.61929740364519
 31
0.0
 11
-343.16335415923385
 21
380.50401258331914
 31
0.0
 11
-343.18270252362157
 21
380.39311479155214
 31
0.0
 11
-343.20782664527394
 21
380.28341107659253
 31
0.0
 11
-343.23738688720408
 21
380.18073883406072
 31
0.0
 11
-343.27284936072647
 21
380.08000707641031
 31
0.0
 11
-343.31164610424764
 21
379.98852130717859
 31
0.0
 11
-343.35646945914038
 21
379.89992582813443
 31
0.0
 11
-343.40331147869341
 21
379.82217584545384
 31
0.0
 11
-343.45620939340159
 21
379.74856960824832
 31
0.0
 11
-343.5098014322266
 21
379.68662635778162
 31
0.0
 11
-343.56919480434505
 21
379.63047453872167
 31
0.0
 11
-343.62827565120267
 21
379.58597624233977
 31
0.0
 11
-343.69228483366567
 21
379.5492862408276
 31
0.0
 11
-343.75562002236632
 21
379.52367335380637
 31
0.0
 11
-343.82194927383551
 21
379.50783407953679
 31
0.0
 11
-343.888175447913
 21
379.50254240468149
 31
0.0
 11
-343.95485879592644
 21
379.50798172681004
 31
0.0
 11
-343.98831476341712
 21
379.51338413712028
 31
0.0
 11
-343.95485879592638
 21
379.50798172681004
 31
0.0
 11
-343.92117424146778
 21
379.50254240468155
 31
0.0
 11
-343.95394444805447
 21
379.50783407953691
 31
0.0
  0
CIRCLE
  5
264
100
AcDbEntity
  8
1
  6
CONTINUOUS
 62
           7
100
AcDbCircle
 10
-149.05031561938
 20
470.629082766461
 40
3.3
  0
CIRCLE
  5
263
100
AcDbEntity
  8
1
  6
CONTINUOUS
 62
           7
100
AcDbCircle
 10
-126.173727882852
 20
447.752495029933
 40
3.3
  0
CIRCLE
  5
262
100
AcDbEntity
  8
1
  6
CONTINUOUS
 62
           7
100
AcDbCircle
 10
-117.80031561938
 20
416.502495029933
 40
3.3
  0
CIRCLE
  5
261
100
AcDbEntity
  8
1
  6
CONTINUOUS
 62
           7
100
AcDbCircle
 10
-126.173727882852
 20
385.252495029933
 40
3.3
  0
CIRCLE
  5
260
100
AcDbEntity
  8
1
  6
CONTINUOUS
 62
           7
100
AcDbCircle
 10
-149.05031561938
 20
362.375907293406
 40
3.3
  0
CIRCLE
  5
25F
100
AcDbEntity
  8
1
  6
CONTINUOUS
 62
           7
100
AcDbCircle
 10
-180.30031561938
 20
354.002495029933
 40
3.3
  0
CIRCLE
  5
25E
100
AcDbEntity
  8
1
  6
CONTINUOUS
 62
           7
100
AcDbCircle
 10
-211.55031561938
 20
362.375907293406
 40
3.3
  0
CIRCLE
  5
25D
100
AcDbEntity
  8
1
  6
CONTINUOUS
 62
           7
100
AcDbCircle
 10
-234.426903355907
 20
385.252495029933
 40
3.3
  0
CIRCLE
  5
25C
100
AcDbEntity
  8
1
  6
CONTINUOUS
 62
           7
100
AcDbCircle
 10
-242.80031561938
 20
416.502495029934
 40
3.3
  0
CIRCLE
  5
25B
100
AcDbEntity
  8
1
  6
CONTINUOUS
 62
           7
100
AcDbCircle
 10
-234.426903355907
 20
447.752495029934
 40
3.3
  0
CIRCLE
  5
25A
100
AcDbEntity
  8
1
  6
CONTINUOUS
 62
           7
100
AcDbCircle
 10
-211.55031561938
 20
470.629082766461
 40
3.3
  0
CIRCLE
  5
259
100
AcDbEntity
  8
1
  6
CONTINUOUS
 62
           7
100
AcDbCircle
 10
-180.300315619379
 20
479.002495029933
 40
3.3
  0
CIRCLE
  5
258
100
AcDbEntity
  8
1
  6
DASH_CENTER
 62
           3
100
AcDbCircle
 10
-180.30031561938
 20
416.502495029933
 40
62.5
  0
CIRCLE
  5
257
100
AcDbEntity
  8
1
  6
CONTINUOUS
 62
           7
100
AcDbCircle
 10
-180.300314839654
 20
416.502494835668
 40
68.999999805734
  0
CIRCLE
  5
256
100
AcDbEntity
  8
1
  6
CONTINUOUS
 62
           7
100
AcDbCircle
 10
-423.887946990711
 20
416.502495029933
 40
34.3
  0
CIRCLE
  5
255
100
AcDbEntity
  8
1
  6
CONTINUOUS
 62
           7
100
AcDbCircle
 10
-423.887946990711
 20
416.502495029933
 40
37.0
  0
CIRCLE
  5
254
100
AcDbEntity
  8
1
  6
CONTINUOUS
 62
           7
100
AcDbCircle
 10
-423.887946990711
 20
416.502495029933
 40
39.0
  0
CIRCLE
  5
253
100
AcDbEntity
  8
1
  6
CONTINUOUS
 62
           7
100
AcDbCircle
 10
-423.887946990711
 20
416.502495029933
 40
45.55
  0
CIRCLE
  5
252
100
AcDbEntity
  8
1
  6
DASH_CENTER
 62
           3
100
AcDbCircle
 10
-423.887946990711
 20
416.502495029933
 40
50.5
  0
CIRCLE
  5
251
100
AcDbEntity
  8
1
  6
CONTINUOUS
 62
           7
100
AcDbCircle
 10
-423.887946990711
 20
416.502495029933
 40
55.0
  0
CIRCLE
  5
250
100
AcDbEntity
  8
1
  6
CONTINUOUS
 62
           7
100
AcDbCircle
 10
-423.887946990711
 20
416.502495029933
 40
55.749976160464
  0
CIRCLE
  5
24F
100
AcDbEntity
  8
1
  6
CONTINUOUS
 62
           7
100
AcDbCircle
 10
-423.887946990711
 20
416.502495029933
 40
56.5
  0
CIRCLE
  5
24E
100
AcDbEntity
  8
1
  6
DASH_CENTER
 62
           3
100
AcDbCircle
 10
-423.887946990711
 20
416.502495029933
 40
20.0
  0
CIRCLE
  5
24D
100
AcDbEntity
  8
1
  6
DASH_CENTER
 62
           3
100
AcDbCircle
 10
-423.887946990711
 20
416.502495029933
 40
17.0
  0
CIRCLE
  5
24C
100
AcDbEntity
  8
1
  6
CONTINUOUS
 62
           3
100
AcDbCircle
 10
-449.294634134772
 20
427.026289419973
 40
5.0
  0
CIRCLE
  5
24B
100
AcDbEntity
  8
1
  6
CONTINUOUS
 62
           7
100
AcDbCircle
 10
-449.294634134772
 20
427.026289419973
 40
4.0
  0
CIRCLE
  5
24A
100
AcDbEntity
  8
1
  6
CONTINUOUS
 62
           3
100
AcDbCircle
 10
-449.294634134772
 20
405.978700639893
 40
5.0
  0
CIRCLE
  5
249
100
AcDbEntity
  8
1
  6
CONTINUOUS
 62
           7
100
AcDbCircle
 10
-449.294634134772
 20
405.978700639893
 40
4.0
  0
CIRCLE
  5
248
100
AcDbEntity
  8
1
  6
DASH_CENTER
 62
           3
100
AcDbCircle
 10
-423.887946990711
 20
416.502495029933
 40
27.5
  0
CIRCLE
  5
247
100
AcDbEntity
  8
1
  6
CONTINUOUS
 62
           7
100
AcDbCircle
 10
-423.887946990711
 20
416.502495029933
 40
9.999999804762
  0
CIRCLE
  5
246
100
AcDbEntity
  8
1
  6
CONTINUOUS
 62
           3
100
AcDbCircle
 10
-398.481259846651
 20
427.026289419973
 40
5.0
  0
CIRCLE
  5
245
100
AcDbEntity
  8
1
  6
CONTINUOUS
 62
           7
100
AcDbCircle
 10
-398.481259846651
 20
427.026289419973
 40
4.0
  0
CIRCLE
  5
244
100
AcDbEntity
  8
1
  6
CONTINUOUS
 62
           3
100
AcDbCircle
 10
-413.364152600672
 20
441.909182173993
 40
5.0
  0
CIRCLE
  5
243
100
AcDbEntity
  8
1
  6
CONTINUOUS
 62
           7
100
AcDbCircle
 10
-413.364152600672
 20
441.909182173993
 40
4.0
  0
CIRCLE
  5
242
100
AcDbEntity
  8
1
  6
CONTINUOUS
 62
           3
100
AcDbCircle
 10
-434.411741380751
 20
441.909182173993
 40
5.0
  0
CIRCLE
  5
241
100
AcDbEntity
  8
1
  6
CONTINUOUS
 62
           7
100
AcDbCircle
 10
-434.411741380751
 20
441.909182173993
 40
4.0
  0
CIRCLE
  5
240
100
AcDbEntity
  8
1
  6
CONTINUOUS
 62
           3
100
AcDbCircle
 10
-434.411741380751
 20
391.095807885873
 40
5.0
  0
CIRCLE
  5
23F
100
AcDbEntity
  8
1
  6
CONTINUOUS
 62
           7
100
AcDbCircle
 10
-434.411741380751
 20
391.095807885873
 40
4.0
  0
CIRCLE
  5
23E
100
AcDbEntity
  8
1
  6
CONTINUOUS
 62
           3
100
AcDbCircle
 10
-413.364152600672
 20
391.095807885873
 40
5.0
  0
CIRCLE
  5
23D
100
AcDbEntity
  8
1
  6
CONTINUOUS
 62
           7
100
AcDbCircle
 10
-413.364152600672
 20
391.095807885873
 40
4.0
  0
CIRCLE
  5
23C
100
AcDbEntity
  8
1
  6
CONTINUOUS
 62
           3
100
AcDbCircle
 10
-398.481259846651
 20
405.978700639893
 40
5.0
  0
CIRCLE
  5
23B
100
AcDbEntity
  8
1
  6
CONTINUOUS
 62
           7
100
AcDbCircle
 10
-398.481259846651
 20
405.978700639893
 40
4.0
  0
CIRCLE
  5
23A
100
AcDbEntity
  8
1
  6
CONTINUOUS
 62
           7
100
AcDbCircle
 10
-423.887946990711
 20
416.502495029933
 40
12.999999804762
  0
CIRCLE
  5
239
100
AcDbEntity
  8
1
  6
CONTINUOUS
 62
           7
100
AcDbCircle
 10
-180.30031561938
 20
416.502495029933
 40
19.800013721828
  0
CIRCLE
  5
238
100
AcDbEntity
  8
1
  6
CONTINUOUS
 62
           7
100
AcDbCircle
 10
-180.30031561938
 20
416.502495029933
 40
22.500013721828
  0
CIRCLE
  5
237
100
AcDbEntity
  8
1
  6
CONTINUOUS
 62
           7
100
AcDbCircle
 10
-180.300315150511
 20
416.502494835668
 40
7.000013527562
  0
CIRCLE
  5
236
100
AcDbEntity
  8
1
  6
CONTINUOUS
 62
           7
100
AcDbCircle
 10
-180.300315150511
 20
416.502494835668
 40
18.000012752712
  0
CIRCLE
  5
235
100
AcDbEntity
  8
1
  6
DASH_CENTER
 62
           3
100
AcDbCircle
 10
-180.300315150511
 20
416.502494835668
 40
35.355339059327
  0
CIRCLE
  5
234
100
AcDbEntity
  8
1
  6
CONTINUOUS
 62
           7
100
AcDbCircle
 10
-197.977984677516
 20
447.121116579882
 40
1.6
  0
CIRCLE
  5
233
100
AcDbEntity
  8
1
  6
CONTINUOUS
 62
           3
100
AcDbCircle
 10
-197.977984677516
 20
447.121116579882
 40
2.0
  0
CIRCLE
  5
232
100
AcDbEntity
  8
1
  6
CONTINUOUS
 62
           7
100
AcDbCircle
 10
-149.681693363062
 20
434.180164324757
 40
1.6
  0
CIRCLE
  5
231
100
AcDbEntity
  8
1
  6
CONTINUOUS
 62
           3
100
AcDbCircle
 10
-149.681693363062
 20
434.180164324757
 40
2.0
  0
CIRCLE
  5
230
100
AcDbEntity
  8
1
  6
CONTINUOUS
 62
           7
100
AcDbCircle
 10
-162.622645618187
 20
385.883873010303
 40
1.6
  0
CIRCLE
  5
22F
100
AcDbEntity
  8
1
  6
CONTINUOUS
 62
           3
100
AcDbCircle
 10
-162.622645618187
 20
385.883873010303
 40
2.0
  0
CIRCLE
  5
22E
100
AcDbEntity
  8
1
  6
CONTINUOUS
 62
           7
100
AcDbCircle
 10
-210.918936932641
 20
398.824825265428
 40
1.6
  0
CIRCLE
  5
22D
100
AcDbEntity
  8
1
  6
CONTINUOUS
 62
           3
100
AcDbCircle
 10
-210.918936932641
 20
398.824825265428
 40
2.0
  0
CIRCLE
  5
22C
100
AcDbEntity
  8
1
  6
CONTINUOUS
 62
           7
100
AcDbCircle
 10
-180.300314839654
 20
416.502494835668
 40
4.999999805734
  0
CIRCLE
  5
22B
100
AcDbEntity
  8
1
  6
CONTINUOUS
 62
           7
100
AcDbCircle
 10
-136.106140821229
 20
372.308321791234
 40
5.0
  0
CIRCLE
  5
22A
100
AcDbEntity
  8
1
  6
CONTINUOUS
 62
           7
100
AcDbCircle
 10
-136.106140821229
 20
372.308321791234
 40
4.307179676972
  0
CIRCLE
  5
229
100
AcDbEntity
  8
1
  6
CONTINUOUS
 62
           7
100
AcDbCircle
 10
-136.10614179522
 20
460.696668854092
 40
4.307179676972
  0
CIRCLE
  5
228
100
AcDbEntity
  8
1
  6
CONTINUOUS
 62
           7
100
AcDbCircle
 10
-136.10614179522
 20
460.696668854092
 40
5.0
  0
CIRCLE
  5
227
100
AcDbEntity
  8
1
  6
CONTINUOUS
 62
           7
100
AcDbCircle
 10
-224.494488858079
 20
460.696667880101
 40
5.0
  0
CIRCLE
  5
226
100
AcDbEntity
  8
1
  6
CONTINUOUS
 62
           7
100
AcDbCircle
 10
-224.494488858079
 20
460.696667880101
 40
4.307179676972
  0
CIRCLE
  5
225
100
AcDbEntity
  8
1
  6
CONTINUOUS
 62
           7
100
AcDbCircle
 10
-224.494487884087
 20
372.308320817242
 40
5.0
  0
CIRCLE
  5
224
100
AcDbEntity
  8
1
  6
CONTINUOUS
 62
           7
100
AcDbCircle
 10
-224.494487884087
 20
372.308320817242
 40
4.307179676972
  0
CIRCLE
  5
223
100
AcDbEntity
  8
1
  6
CONTINUOUS
 62
           3
100
AcDbCircle
 10
-279.137946954713
 20
416.502495029933
 40
2.0
  0
CIRCLE
  5
222
100
AcDbEntity
  8
1
  6
CONTINUOUS
 62
           7
100
AcDbCircle
 10
-279.137946954713
 20
416.502495029933
 40
1.6
  0
CIRCLE
  5
221
100
AcDbEntity
  8
1
  6
CONTINUOUS
 62
           7
100
AcDbCircle
 10
-380.153664099597
 20
391.252495029933
 40
2.980384757729
  0
CIRCLE
  5
220
100
AcDbEntity
  8
1
  6
CONTINUOUS
 62
           7
100
AcDbCircle
 10
-380.153664099597
 20
391.252495029933
 40
3.5
  0
CIRCLE
  5
21F
100
AcDbEntity
  8
1
  6
CONTINUOUS
 62
           7
100
AcDbCircle
 10
-373.387946990712
 20
416.502495029933
 40
3.5
  0
CIRCLE
  5
21E
100
AcDbEntity
  8
1
  6
CONTINUOUS
 62
           7
100
AcDbCircle
 10
-373.387946990712
 20
416.502495029933
 40
2.980384757729
  0
CIRCLE
  5
21D
100
AcDbEntity
  8
1
  6
CONTINUOUS
 62
           7
100
AcDbCircle
 10
-380.153664099597
 20
441.752495029933
 40
3.5
  0
CIRCLE
  5
21C
100
AcDbEntity
  8
1
  6
CONTINUOUS
 62
           7
100
AcDbCircle
 10
-380.153664099597
 20
441.752495029933
 40
2.980384757729
  0
CIRCLE
  5
21B
100
AcDbEntity
  8
1
  6
CONTINUOUS
 62
           7
100
AcDbCircle
 10
-398.637946990712
 20
460.236777921047
 40
2.980384757729
  0
CIRCLE
  5
21A
100
AcDbEntity
  8
1
  6
CONTINUOUS
 62
           7
100
AcDbCircle
 10
-398.637946990712
 20
460.236777921047
 40
3.5
  0
CIRCLE
  5
219
100
AcDbEntity
  8
1
  6
CONTINUOUS
 62
           7
100
AcDbCircle
 10
-423.887946990711
 20
467.002495029933
 40
3.5
  0
CIRCLE
  5
218
100
AcDbEntity
  8
1
  6
CONTINUOUS
 62
           7
100
AcDbCircle
 10
-423.887946990711
 20
467.002495029933
 40
2.980384757729
  0
CIRCLE
  5
217
100
AcDbEntity
  8
1
  6
CONTINUOUS
 62
           7
100
AcDbCircle
 10
-449.137946990711
 20
460.236777921047
 40
3.5
  0
CIRCLE
  5
216
100
AcDbEntity
  8
1
  6
CONTINUOUS
 62
           7
100
AcDbCircle
 10
-449.137946990711
 20
460.236777921047
 40
2.980384757729
  0
CIRCLE
  5
215
100
AcDbEntity
  8
1
  6
CONTINUOUS
 62
           7
100
AcDbCircle
 10
-467.622229881826
 20
441.752495029933
 40
2.980384757729
  0
CIRCLE
  5
214
100
AcDbEntity
  8
1
  6
CONTINUOUS
 62
           7
100
AcDbCircle
 10
-467.622229881826
 20
441.752495029933
 40
3.5
  0
CIRCLE
  5
213
100
AcDbEntity
  8
1
  6
CONTINUOUS
 62
           7
100
AcDbCircle
 10
-474.387946990711
 20
416.502495029933
 40
2.980384757729
  0
CIRCLE
  5
212
100
AcDbEntity
  8
1
  6
CONTINUOUS
 62
           7
100
AcDbCircle
 10
-474.387946990711
 20
416.502495029933
 40
3.5
  0
CIRCLE
  5
211
100
AcDbEntity
  8
1
  6
CONTINUOUS
 62
           7
100
AcDbCircle
 10
-467.622229881826
 20
391.252495029933
 40
3.5
  0
CIRCLE
  5
210
100
AcDbEntity
  8
1
  6
CONTINUOUS
 62
           7
100
AcDbCircle
 10
-467.622229881826
 20
391.252495029933
 40
2.980384757729
  0
CIRCLE
  5
20F
100
AcDbEntity
  8
1
  6
CONTINUOUS
 62
           7
100
AcDbCircle
 10
-449.137946990711
 20
372.768212138819
 40
2.980384757729
  0
CIRCLE
  5
20E
100
AcDbEntity
  8
1
  6
CONTINUOUS
 62
           7
100
AcDbCircle
 10
-449.137946990711
 20
372.768212138819
 40
3.5
  0
CIRCLE
  5
20D
100
AcDbEntity
  8
1
  6
CONTINUOUS
 62
           7
100
AcDbCircle
 10
-423.887946990712
 20
366.002495029933
 40
3.5
  0
CIRCLE
  5
20C
100
AcDbEntity
  8
1
  6
CONTINUOUS
 62
           7
100
AcDbCircle
 10
-423.887946990712
 20
366.002495029933
 40
2.980384757729
  0
CIRCLE
  5
20B
100
AcDbEntity
  8
1
  6
CONTINUOUS
 62
           7
100
AcDbCircle
 10
-398.637946990712
 20
372.768212138819
 40
3.5
  0
CIRCLE
  5
20A
100
AcDbEntity
  8
1
  6
CONTINUOUS
 62
           7
100
AcDbCircle
 10
-398.637946990712
 20
372.768212138819
 40
2.980384757729
  0
ARC
  5
209
100
AcDbEntity
  8
1
  6
PHANTOM
 62
           7
100
AcDbCircle
 10
-300.324414931926
 20
252.890248337061
 40
12.0
100
AcDbArc
 50
-90.0
 51
0.0
  0
ARC
  5
208
100
AcDbEntity
  8
1
  6
PHANTOM
 62
           7
100
AcDbCircle
 10
-300.324414931926
 20
312.890248337061
 40
12.0
100
AcDbArc
 50
0.0
 51
90.0
  0
ARC
  5
207
100
AcDbEntity
  8
1
  6
PHANTOM
 62
           7
100
AcDbCircle
 10
-472.324414931926
 20
312.890248337061
 40
12.0
100
AcDbArc
 50
90.0
 51
180.0
  0
ARC
  5
206
100
AcDbEntity
  8
1
  6
PHANTOM
 62
           7
100
AcDbCircle
 10
-472.324414931926
 20
252.890248337061
 40
12.0
100
AcDbArc
 50
180.0
 51
-90.0
  0
ARC
  5
205
100
AcDbEntity
  8
1
  6
CONTINUOUS
 62
           3
100
AcDbCircle
 10
-314.136892715572
 20
363.816360908541
 40
25.192571626082
100
AcDbArc
 50
102.947225842581
 51
135.150502434013
  0
ARC
  5
204
100
AcDbEntity
  8
1
  6
CONTINUOUS
 62
           3
100
AcDbCircle
 10
-343.169223430935
 20
394.757810078775
 40
17.27352829143
100
AcDbArc
 50
-67.612681669542
 51
-49.702523741561
  0
ARC
  5
203
100
AcDbEntity
  8
1
  6
CONTINUOUS
 62
           3
100
AcDbCircle
 10
-293.733367921579
 20
457.53395944597
 40
11.0
100
AcDbArc
 50
-95.574528482828
 51
-56.349244517401
  0
ARC
  5
202
100
AcDbEntity
  8
1
  6
CONTINUOUS
 62
           3
100
AcDbCircle
 10
-293.733367921579
 20
457.53395944597
 40
11.0
100
AcDbArc
 50
-56.349244517401
 51
-34.222839511863
  0
ARC
  5
201
100
AcDbEntity
  8
1
  6
CONTINUOUS
 62
           3
100
AcDbCircle
 10
-298.260679174895
 20
417.792980425152
 40
29.0
100
AcDbArc
 50
83.150152661406
 51
102.295916967741
  0
ARC
  5
200
100
AcDbEntity
  8
1
  6
CONTINUOUS
 62
           3
100
AcDbCircle
 10
-302.802312521304
 20
438.296439902037
 40
8.000000000003
100
AcDbArc
 50
101.787271289667
 51
162.903834881885
  0
ARC
  5
1FF
100
AcDbEntity
  8
1
  6
CONTINUOUS
 62
           3
100
AcDbCircle
 10
-322.448633402929
 20
445.57110818833
 40
12.970358120344
100
AcDbArc
 50
-77.580882018595
 51
-22.30561108836
  0
ARC
  5
1FE
100
AcDbEntity
  8
1
  6
CONTINUOUS
 62
           3
100
AcDbCircle
 10
-323.933651083608
 20
451.447573634434
 40
19.029600950985
100
AcDbArc
 50
-107.531736155361
 51
-77.019436721323
  0
ARC
  5
1FD
100
AcDbEntity
  8
1
  6
CONTINUOUS
 62
           3
100
AcDbCircle
 10
-335.227986905812
 20
420.323909398236
 40
14.119617516922
100
AcDbArc
 50
66.801485214798
 51
131.793339935074
  0
ARC
  5
1FC
100
AcDbEntity
  8
1
  6
CONTINUOUS
 62
           3
100
AcDbCircle
 10
-285.339421815747
 20
351.47214036883
 40
15.999999999998
100
AcDbArc
 50
107.968831157409
 51
153.336548505532
  0
ARC
  5
1FB
100
AcDbEntity
  8
1
  6
CONTINUOUS
 62
           3
100
AcDbCircle
 10
-291.545937249047
 20
370.484590246853
 40
3.999999999996
100
AcDbArc
 50
-71.480308526862
 51
-12.312905866213
  0
ARC
  5
1FA
100
AcDbEntity
  8
1
  6
CONTINUOUS
 62
           3
100
AcDbCircle
 10
-340.640794381193
 20
389.499299255718
 40
11.45326010292
100
AcDbArc
 50
-110.425974428162
 51
-69.289161736135
  0
ARC
  5
1F9
100
AcDbEntity
  8
1
  6
CONTINUOUS
 62
           7
100
AcDbCircle
 10
-321.437946024013
 20
391.549455354247
 40
2.0
100
AcDbArc
 50
180.0
 51
-90.0
  0
ARC
  5
1F8
100
AcDbEntity
  8
1
  6
DASHED
 62
           4
100
AcDbCircle
 10
-180.300315320224
 20
416.502494998852
 40
14.999986278172
100
AcDbArc
 50
90.907679481584
 51
121.527455738959
  0
ARC
  5
1F7
100
AcDbEntity
  8
1
  6
CONTINUOUS
 62
           7
100
AcDbCircle
 10
-337.637946860945
 20
362.502495029933
 40
1.0
100
AcDbArc
 50
180.0
 51
-90.0
  0
ARC
  5
1F6
100
AcDbEntity
  8
1
  6
CONTINUOUS
 62
           7
100
AcDbCircle
 10
-337.637946860945
 20
470.502495029933
 40
1.0
100
AcDbArc
 50
90.0
 51
179.999999999977
  0
ARC
  5
1F5
100
AcDbEntity
  8
1
  6
CONTINUOUS
 62
           3
100
AcDbCircle
 10
-305.757624755603
 20
334.152829292389
 40
56.0
100
AcDbArc
 50
67.843539421204
 51
104.502611543718
  0
LINE
  5
1F4
100
AcDbEntity
  8
1
  6
PHANTOM
 62
           7
100
AcDbLine
 10
-300.324414931926
 20
324.890248337061
 11
-472.324414931926
 21
324.890248337061
  0
LINE
  5
1F3
100
AcDbEntity
  8
1
  6
PHANTOM
 62
           7
100
AcDbLine
 10
-288.324414931926
 20
252.890248337061
 11
-288.324414931926
 21
312.890248337061
  0
LINE
  5
1F2
100
AcDbEntity
  8
1
  6
PHANTOM
 62
           7
100
AcDbLine
 10
-472.324414931926
 20
240.890248337061
 11
-300.324414931926
 21
240.890248337061
  0
LINE
  5
1F1
100
AcDbEntity
  8
1
  6
PHANTOM
 62
           7
100
AcDbLine
 10
-484.324414931926
 20
312.890248337061
 11
-484.324414931926
 21
252.890248337061
  0
LINE
  5
1F0
100
AcDbEntity
  8
1
  6
DASH_CENTER
 62
           3
100
AcDbLine
 10
-140.912367227993
 20
377.114548197998
 11
-131.509946588153
 21
367.712127558158
  0
LINE
  5
1EF
100
AcDbEntity
  8
1
  6
DASH_CENTER
 62
           3
100
AcDbLine
 10
-219.688261477323
 20
377.114547224007
 11
-229.090682117163
 21
367.712126584167
  0
LINE
  5
1EE
100
AcDbEntity
  8
1
  6
DASH_CENTER
 62
           3
100
AcDbLine
 10
-219.688262451314
 20
455.890441473336
 11
-229.090683091154
 21
465.292862113177
  0
LINE
  5
1ED
100
AcDbEntity
  8
1
  6
DASH_CENTER
 62
           3
100
AcDbLine
 10
-140.912368201985
 20
455.890442447328
 11
-131.509947562144
 21
465.292863087168
  0
LINE
  5
1EC
100
AcDbEntity
  8
1
  6
DASH_CENTER
 62
           3
100
AcDbLine
 10
-146.57531561938
 20
474.915908515194
 11
-151.52531561938
 21
466.342257017728
  0
LINE
  5
1EB
100
AcDbEntity
  8
1
  6
DASH_CENTER
 62
           3
100
AcDbLine
 10
-121.886902134119
 20
450.227495029933
 11
-130.460553631585
 21
445.277495029933
  0
LINE
  5
1EA
100
AcDbEntity
  8
1
  6
DASH_CENTER
 62
           3
100
AcDbLine
 10
-121.886902134119
 20
382.777495029933
 11
-130.460553631585
 21
387.727495029933
  0
LINE
  5
1E9
100
AcDbEntity
  8
1
  6
DASH_CENTER
 62
           3
100
AcDbLine
 10
-214.02531561938
 20
358.089081544673
 11
-209.07531561938
 21
366.662733042139
  0
LINE
  5
1E8
100
AcDbEntity
  8
1
  6
DASH_CENTER
 62
           3
100
AcDbLine
 10
-238.71372910464
 20
382.777495029933
 11
-230.140077607174
 21
387.727495029933
  0
LINE
  5
1E7
100
AcDbEntity
  8
1
  6
DASH_CENTER
 62
           3
100
AcDbLine
 10
-238.71372910464
 20
450.227495029934
 11
-230.140077607174
 21
445.277495029934
  0
LINE
  5
1E6
100
AcDbEntity
  8
1
  6
DASH_CENTER
 62
           3
100
AcDbLine
 10
-214.02531561938
 20
474.915908515194
 11
-209.07531561938
 21
466.342257017728
  0
LINE
  5
1E5
100
AcDbEntity
  8
1
  6
DASH_CENTER
 62
           3
100
AcDbLine
 10
-313.175530084551
 20
436.502495029933
 11
-306.613482519016
 21
436.502495029933
  0
LINE
  5
1E4
100
AcDbEntity
  8
1
  6
CONTINUOUS
 62
           7
100
AcDbLine
 10
-287.637946990711
 20
462.002495029934
 11
-287.637946990711
 21
485.002495029933
  0
LINE
  5
1E3
100
AcDbEntity
  8
1
  6
CONTINUOUS
 62
           7
100
AcDbLine
 10
-287.637946990711
 20
462.002495029934
 11
-287.637946990711
 21
448.377221835034
  0
LINE
  5
1E2
100
AcDbEntity
  8
1
  6
CONTINUOUS
 62
           7
100
AcDbLine
 10
-299.637946990711
 20
358.652124896727
 11
-299.637946990711
 21
359.602495029933
  0
LINE
  5
1E1
100
AcDbEntity
  8
1
  6
CONTINUOUS
 62
           7
100
AcDbLine
 10
-299.637946990711
 20
359.602495029933
 11
-299.637946990711
 21
389.817445917799
  0
LINE
  5
1E0
100
AcDbEntity
  8
1
  6
CONTINUOUS
 62
           3
100
AcDbLine
 10
-299.287906191434
 20
357.309694511589
 11
-299.287906191434
 21
354.002495029933
  0
LINE
  5
1DF
100
AcDbEntity
  8
1
  6
CONTINUOUS
 62
           3
100
AcDbLine
 10
-287.987935020436
 20
357.445295548277
 11
-287.987935020436
 21
354.002495029933
  0
LINE
  5
1DE
100
AcDbEntity
  8
1
  6
CONTINUOUS
 62
           7
100
AcDbLine
 10
-287.987935020436
 20
357.445295548277
 11
-287.637946990711
 21
357.801010824439
  0
LINE
  5
1DD
100
AcDbEntity
  8
1
  6
CONTINUOUS
 62
           7
100
AcDbLine
 10
-299.287906191434
 20
357.309694511589
 11
-299.637946990711
 21
357.654007200903
  0
LINE
  5
1DC
100
AcDbEntity
  8
1
  6
CONTINUOUS
 62
           7
100
AcDbLine
 10
-299.287906191434
 20
357.309694511589
 11
-287.987935020436
 21
357.445295548277
  0
LINE
  5
1DB
100
AcDbEntity
  8
1
  6
CONTINUOUS
 62
           7
100
AcDbLine
 10
-287.637946990711
 20
351.802495029933
 11
-299.637946990711
 21
351.802495029933
  0
LINE
  5
1DA
100
AcDbEntity
  8
1
  6
CONTINUOUS
 62
           3
100
AcDbLine
 10
-287.637946990711
 20
351.002495029933
 11
-299.637946990711
 21
351.002495029933
  0
LINE
  5
1D9
100
AcDbEntity
  8
1
  6
CONTINUOUS
 62
           7
100
AcDbLine
 10
-325.387935020436
 20
472.252471190398
 11
-304.887906191434
 21
472.752495029934
  0
LINE
  5
1D8
100
AcDbEntity
  8
1
  6
CONTINUOUS
 62
           7
100
AcDbLine
 10
-299.637946990711
 20
348.002535829211
 11
-299.637946990711
 21
358.652124896727
  0
LINE
  5
1D7
100
AcDbEntity
  8
1
  6
DASH_CENTER
 62
           3
100
AcDbLine
 10
-375.303921838405
 20
388.452495029933
 11
-385.003406360791
 21
394.052495029933
  0
LINE
  5
1D6
100
AcDbEntity
  8
1
  6
DASH_CENTER
 62
           3
100
AcDbLine
 10
-385.003406360791
 20
438.952495029933
 11
-375.303921838405
 21
444.552495029933
  0
LINE
  5
1D5
100
AcDbEntity
  8
1
  6
DASH_CENTER
 62
           3
100
AcDbLine
 10
-405.503170679861
 20
398.117718719083
 11
-413.9884520541
 21
406.603000093322
  0
LINE
  5
1D4
100
AcDbEntity
  8
1
  6
DASH_CENTER
 62
           3
100
AcDbLine
 10
-442.272723301562
 20
398.117718719083
 11
-433.787441927323
 21
406.603000093322
  0
LINE
  5
1D3
100
AcDbEntity
  8
1
  6
DASH_CENTER
 62
           3
100
AcDbLine
 10
-405.503170679861
 20
434.887271340784
 11
-413.9884520541
 21
426.401989966545
  0
LINE
  5
1D2
100
AcDbEntity
  8
1
  6
DASH_CENTER
 62
           3
100
AcDbLine
 10
-442.272723301562
 20
434.887271340783
 11
-433.787441927323
 21
426.401989966545
  0
LINE
  5
1D1
100
AcDbEntity
  8
1
  6
DASH_CENTER
 62
           3
100
AcDbLine
 10
-410.494026857933
 20
384.166711392038
 11
-418.702586482165
 21
403.983927364405
  0
LINE
  5
1D0
100
AcDbEntity
  8
1
  6
DASH_CENTER
 62
           3
100
AcDbLine
 10
-451.937946990711
 20
465.08652018224
 11
-446.337946990711
 21
455.387035659854
  0
LINE
  5
1CF
100
AcDbEntity
  8
1
  6
DASH_CENTER
 62
           3
100
AcDbLine
 10
-391.552163352816
 20
429.896415162711
 11
-411.369379325184
 21
421.68785553848
  0
LINE
  5
1CE
100
AcDbEntity
  8
1
  6
DASH_CENTER
 62
           3
100
AcDbLine
 10
-437.28186712349
 20
448.838278667828
 11
-429.073307499258
 21
429.021062695461
  0
LINE
  5
1CD
100
AcDbEntity
  8
1
  6
DASH_CENTER
 62
           3
100
AcDbLine
 10
-456.223730628607
 20
403.108574897155
 11
-436.406514656239
 21
411.317134521386
  0
LINE
  5
1CC
100
AcDbEntity
  8
1
  6
DASH_CENTER
 62
           3
100
AcDbLine
 10
-472.471972143018
 20
444.552495029933
 11
-462.772487620632
 21
438.952495029933
  0
LINE
  5
1CB
100
AcDbEntity
  8
1
  6
DASH_CENTER
 62
           3
100
AcDbLine
 10
-462.772487620632
 20
394.052495029933
 11
-472.471972143018
 21
388.452495029933
  0
LINE
  5
1CA
100
AcDbEntity
  8
1
  6
DASH_CENTER
 62
           3
100
AcDbLine
 10
-446.337946990711
 20
377.617954400012
 11
-451.937946990711
 21
367.918469877626
  0
LINE
  5
1C9
100
AcDbEntity
  8
1
  6
DASH_CENTER
 62
           3
100
AcDbLine
 10
-401.437946990712
 20
455.387035659854
 11
-395.837946990711
 21
465.08652018224
  0
LINE
  5
1C8
100
AcDbEntity
  8
1
  6
DASH_CENTER
 62
           3
100
AcDbLine
 10
-395.837946990711
 20
367.918469877626
 11
-401.437946990712
 21
377.617954400012
  0
LINE
  5
1C7
100
AcDbEntity
  8
1
  6
DASH_CENTER
 62
           3
100
AcDbLine
 10
-436.40651465624
 20
421.68785553848
 11
-456.223730628606
 21
429.896415162711
  0
LINE
  5
1C6
100
AcDbEntity
  8
1
  6
DASH_CENTER
 62
           3
100
AcDbLine
 10
-429.073307499259
 20
403.983927364405
 11
-437.28186712349
 21
384.166711392038
  0
LINE
  5
1C5
100
AcDbEntity
  8
1
  6
CONTINUOUS
 62
           7
100
AcDbLine
 10
-326.637946990711
 20
402.00249522522
 11
-326.637946990711
 21
403.002495232706
  0
LINE
  5
1C4
100
AcDbEntity
  8
1
  6
CONTINUOUS
 62
           7
100
AcDbLine
 10
-326.637946990711
 20
390.502495420442
 11
-326.637946990711
 21
397.002495225219
  0
LINE
  5
1C3
100
AcDbEntity
  8
1
  6
DASH_CENTER
 62
           3
100
AcDbLine
 10
-346.137946860945
 20
389.002495029933
 11
-322.828545784186
 21
389.002495029933
  0
LINE
  5
1C2
100
AcDbEntity
  8
1
  6
DASH_CENTER
 62
           3
100
AcDbLine
 10
-322.437946990711
 20
399.502495029933
 11
-346.631288081042
 21
399.502495029933
  0
LINE
  5
1C1
100
AcDbEntity
  8
1
  6
CONTINUOUS
 62
           7
100
AcDbLine
 10
-327.937946990711
 20
360.752518869469
 11
-328.137946990711
 21
360.952518869469
  0
LINE
  5
1C0
100
AcDbEntity
  8
1
  6
CONTINUOUS
 62
           7
100
AcDbLine
 10
-325.387935020436
 20
360.752518869469
 11
-327.937946990711
 21
360.752518869469
  0
LINE
  5
1BF
100
AcDbEntity
  8
1
  6
CONTINUOUS
 62
           7
100
AcDbLine
 10
-327.937946990711
 20
472.252471190398
 11
-328.137946990711
 21
472.052471190398
  0
LINE
  5
1BE
100
AcDbEntity
  8
1
  6
CONTINUOUS
 62
           7
100
AcDbLine
 10
-327.937946990711
 20
472.252471190398
 11
-325.387935020436
 21
472.252471190398
  0
LINE
  5
1BD
100
AcDbEntity
  8
1
  6
CONTINUOUS
 62
           7
100
AcDbLine
 10
-288.137946990711
 20
485.502495029934
 11
-287.637946990711
 21
485.002495029933
  0
LINE
  5
1BC
100
AcDbEntity
  8
1
  6
CONTINUOUS
 62
           7
100
AcDbLine
 10
-288.137946990711
 20
347.502495029933
 11
-287.637946990711
 21
348.002495029933
  0
LINE
  5
1BB
100
AcDbEntity
  8
1
  6
CONTINUOUS
 62
           7
100
AcDbLine
 10
-284.637946990711
 20
461.002495029934
 11
-285.137946990711
 21
461.502495029934
  0
LINE
  5
1BA
100
AcDbEntity
  8
1
  6
CONTINUOUS
 62
           7
100
AcDbLine
 10
-285.137946990711
 20
371.502495029933
 11
-284.637946990711
 21
372.002495029933
  0
LINE
  5
1B9
100
AcDbEntity
  8
1
  6
CONTINUOUS
 62
           7
100
AcDbLine
 10
-304.887906191434
 20
472.752495029934
 11
-304.637906191434
 21
473.002495029934
  0
LINE
  5
1B8
100
AcDbEntity
  8
1
  6
CONTINUOUS
 62
           7
100
AcDbLine
 10
-304.637906191434
 20
360.002495029933
 11
-304.887906191434
 21
360.252495029933
  0
LINE
  5
1B7
100
AcDbEntity
  8
1
  6
CONTINUOUS
 62
           7
100
AcDbLine
 10
-304.887906191434
 20
360.252495029933
 11
-325.387935020436
 21
360.752518869469
  0
LINE
  5
1B6
100
AcDbEntity
  8
1
  6
CONTINUOUS
 62
           7
100
AcDbLine
 10
-299.137906191434
 20
347.502495029933
 11
-299.637946990711
 21
348.002535829211
  0
LINE
  5
1B5
100
AcDbEntity
  8
1
  6
CONTINUOUS
 62
           7
100
AcDbLine
 10
-299.637946990711
 20
485.002454230656
 11
-299.137906191434
 21
485.502495029934
  0
LINE
  5
1B4
100
AcDbEntity
  8
1
  6
CONTINUOUS
 62
           7
100
AcDbLine
 10
-288.137946990711
 20
347.502495029933
 11
-299.137906191434
 21
347.502495029933
  0
LINE
  5
1B3
100
AcDbEntity
  8
1
  6
CONTINUOUS
 62
           7
100
AcDbLine
 10
-285.137946990711
 20
371.502495029933
 11
-287.237946990711
 21
371.502495029933
  0
LINE
  5
1B2
100
AcDbEntity
  8
1
  6
CONTINUOUS
 62
           7
100
AcDbLine
 10
-299.637946990711
 20
485.002454230656
 11
-299.637946990711
 21
473.402495029933
  0
LINE
  5
1B1
100
AcDbEntity
  8
1
  6
CONTINUOUS
 62
           7
100
AcDbLine
 10
-288.137946990711
 20
485.502495029934
 11
-299.137906191434
 21
485.502495029934
  0
LINE
  5
1B0
100
AcDbEntity
  8
1
  6
CONTINUOUS
 62
           7
100
AcDbLine
 10
-287.637946990711
 20
461.902495029933
 11
-287.637946990711
 21
462.002495029934
  0
LINE
  5
1AF
100
AcDbEntity
  8
1
  6
CONTINUOUS
 62
           7
100
AcDbLine
 10
-285.137946990711
 20
461.502495029934
 11
-287.237946990711
 21
461.502495029934
  0
LINE
  5
1AE
100
AcDbEntity
  8
1
  6
CONTINUOUS
 62
           7
100
AcDbLine
 10
-304.637906191434
 20
473.002495029934
 11
-300.037946990711
 21
473.002495029934
  0
LINE
  5
1AD
100
AcDbEntity
  8
1
  6
CONTINUOUS
 62
           7
100
AcDbLine
 10
-304.637906191434
 20
360.002495029933
 11
-300.037946990711
 21
360.002495029933
  0
LINE
  5
1AC
100
AcDbEntity
  8
1
  6
CONTINUOUS
 62
           7
100
AcDbLine
 10
-287.637946990711
 20
365.402495029933
 11
-287.837946990711
 21
365.202495029933
  0
LINE
  5
1AB
100
AcDbEntity
  8
1
  6
CONTINUOUS
 62
           7
100
AcDbLine
 10
-287.837946990711
 20
365.202495029933
 11
-288.937946990711
 21
365.202495029933
  0
LINE
  5
1AA
100
AcDbEntity
  8
1
  6
CONTINUOUS
 62
           7
100
AcDbLine
 10
-287.837946990711
 20
362.502495029933
 11
-287.637946990711
 21
362.302495029933
  0
LINE
  5
1A9
100
AcDbEntity
  8
1
  6
CONTINUOUS
 62
           7
100
AcDbLine
 10
-288.937946990711
 20
362.502495029933
 11
-287.837946990711
 21
362.502495029933
  0
LINE
  5
1A8
100
AcDbEntity
  8
1
  6
CONTINUOUS
 62
           7
100
AcDbLine
 10
-289.137946990711
 20
365.002495029933
 11
-289.137946990711
 21
362.702495029933
  0
LINE
  5
1A7
100
AcDbEntity
  8
1
  6
CONTINUOUS
 62
           7
100
AcDbLine
 10
-328.137946990711
 20
472.052471190398
 11
-328.137946990711
 21
432.888219974373
  0
LINE
  5
1A6
100
AcDbEntity
  8
1
  6
CONTINUOUS
 62
           7
100
AcDbLine
 10
-328.137946990711
 20
384.760003006321
 11
-328.137946990711
 21
375.926143608715
  0
LINE
  5
1A5
100
AcDbEntity
  8
0
  6
CONTINUOUS
 62
           7
100
AcDbLine
 10
-323.437946990711
 20
403.002495232729
 11
-323.937946983164
 21
403.502495225231
  0
LINE
  5
1A4
100
AcDbEntity
  8
0
  6
CONTINUOUS
 62
           7
100
AcDbLine
 10
-323.437946990711
 20
403.502495225252
 11
-329.137947185786
 21
403.502495225008
  0
LINE
  5
1A3
100
AcDbEntity
  8
0
  6
CONTINUOUS
 62
           7
100
AcDbLine
 10
-326.137946998241
 20
403.502495225137
 11
-326.637946990711
 21
403.002495232706
  0
LINE
  5
1A2
100
AcDbEntity
  8
0
  6
CONTINUOUS
 62
           7
100
AcDbLine
 10
-324.577946860945
 20
390.502495420442
 11
-326.637946990711
 21
390.502495420442
  0
LINE
  5
1A1
100
AcDbEntity
  8
1
  6
CONTINUOUS
 62
           7
100
AcDbLine
 10
-324.077946860945
 20
386.964602906888
 11
-324.077946860945
 21
390.002495420442
  0
LINE
  5
1A0
100
AcDbEntity
  8
0
  6
CONTINUOUS
 62
           7
100
AcDbLine
 10
-323.937946983164
 20
429.502494834636
 11
-323.437946990688
 21
430.00249482716
  0
LINE
  5
19F
100
AcDbEntity
  8
0
  6
CONTINUOUS
 62
           7
100
AcDbLine
 10
-329.137946990549
 20
429.502494834858
 11
-323.437946990711
 21
429.502494834614
  0
LINE
  5
19E
100
AcDbEntity
  8
0
  6
CONTINUOUS
 62
           7
100
AcDbLine
 10
-326.637946990711
 20
430.002494827128
 11
-326.137946998241
 21
429.50249483473
  0
LINE
  5
19D
100
AcDbEntity
  8
1
  6
CONTINUOUS
 62
           7
100
AcDbLine
 10
-321.437946024013
 20
389.549455354247
 11
-315.637946990711
 21
389.549455354247
  0
LINE
  5
19C
100
AcDbEntity
  8
1
  6
CONTINUOUS
 62
           7
100
AcDbLine
 10
-326.637946990711
 20
432.002495029933
 11
-315.637946990711
 21
432.002495029933
  0
LINE
  5
19B
100
AcDbEntity
  8
1
  6
CONTINUOUS
 62
           7
100
AcDbLine
 10
-323.437946990711
 20
432.002495029933
 11
-323.437946990711
 21
429.502494834614
  0
LINE
  5
19A
100
AcDbEntity
  8
1
  6
CONTINUOUS
 62
           7
100
AcDbLine
 10
-323.437946990711
 20
403.502495225252
 11
-323.437946990711
 21
387.229093651777
  0
LINE
  5
199
100
AcDbEntity
  8
1
  6
CONTINUOUS
 62
           7
100
AcDbLine
 10
-329.637946990711
 20
426.502494834696
 11
-315.637946990711
 21
426.502494834696
  0
LINE
  5
198
100
AcDbEntity
  8
1
  6
CONTINUOUS
 62
           7
100
AcDbLine
 10
-329.637946990711
 20
406.50249522517
 11
-315.637946990711
 21
406.50249522517
  0
LINE
  5
197
100
AcDbEntity
  8
1
  6
CONTINUOUS
 62
           7
100
AcDbLine
 10
-329.137946990549
 20
429.502494834858
 11
-329.637946990711
 21
429.002494834695
  0
LINE
  5
196
100
AcDbEntity
  8
1
  6
CONTINUOUS
 62
           7
100
AcDbLine
 10
-329.637946990711
 20
429.002494834695
 11
-329.637946990711
 21
426.502494834696
  0
LINE
  5
195
100
AcDbEntity
  8
1
  6
CONTINUOUS
 62
           7
100
AcDbLine
 10
-329.637946990711
 20
404.002495029933
 11
-329.137947185786
 21
403.502495225008
  0
LINE
  5
194
100
AcDbEntity
  8
1
  6
CONTINUOUS
 62
           7
100
AcDbLine
 10
-329.637946990711
 20
426.502494834696
 11
-329.637946990711
 21
404.002495029933
  0
LINE
  5
193
100
AcDbEntity
  8
1
  6
CONTINUOUS
 62
           7
100
AcDbLine
 10
-315.637946990711
 20
434.583538415838
 11
-315.637946990711
 21
389.549455354247
  0
LINE
  5
192
100
AcDbEntity
  8
1
  6
CONTINUOUS
 62
           7
100
AcDbLine
 10
-326.637946990711
 20
432.502495029933
 11
-326.637946990711
 21
430.002494827128
  0
LINE
  5
191
100
AcDbEntity
  8
1
  6
DASH_CENTER
 62
           3
100
AcDbLine
 10
-418.702586482165
 20
429.021062695461
 11
-410.494026857934
 21
448.838278667828
  0
LINE
  5
190
100
AcDbEntity
  8
1
  6
DASH_CENTER
 62
           3
100
AcDbLine
 10
-411.369379325184
 20
411.317134521386
 11
-391.552163352816
 21
403.108574897155
  0
LINE
  5
18F
100
AcDbEntity
  8
1
  6
CONTINUOUS
 62
           7
100
AcDbLine
 10
-299.637946990711
 20
473.402495029933
 11
-299.637946990711
 21
446.760257365926
  0
LINE
  5
18E
100
AcDbEntity
  8
1
  6
CONTINUOUS
 62
           7
100
AcDbLine
 10
-304.887906191434
 20
472.752495029934
 11
-304.887906191434
 21
446.01980050757
  0
LINE
  5
18D
100
AcDbEntity
  8
1
  6
CONTINUOUS
 62
           3
100
AcDbLine
 10
-304.637906191434
 20
473.002495029934
 11
-304.637906191434
 21
446.1277422622
  0
LINE
  5
18C
100
AcDbEntity
  8
1
  6
CONTINUOUS
 62
           7
100
AcDbLine
 10
-300.037946990711
 20
473.002495029934
 11
-304.637906191434
 21
473.002495029934
  0
LINE
  5
18B
100
AcDbEntity
  8
1
  6
CONTINUOUS
 62
           3
100
AcDbLine
 10
-327.937946990711
 20
360.752518869469
 11
-327.937946990711
 21
374.148488640639
  0
LINE
  5
18A
100
AcDbEntity
  8
1
  6
CONTINUOUS
 62
           7
100
AcDbLine
 10
-304.887906191434
 20
360.252495029933
 11
-304.887906191434
 21
390.146075220975
  0
LINE
  5
189
100
AcDbEntity
  8
1
  6
CONTINUOUS
 62
           3
100
AcDbLine
 10
-304.637906191434
 20
360.002495029933
 11
-304.637906191434
 21
390.1416338013
  0
LINE
  5
188
100
AcDbEntity
  8
1
  6
CONTINUOUS
 62
           7
100
AcDbLine
 10
-287.137946877681
 20
461.502495029934
 11
-287.137946877644
 21
461.502495029934
  0
LINE
  5
187
100
AcDbEntity
  8
1
  6
CONTINUOUS
 62
           7
100
AcDbLine
 10
-272.137951391729
 20
396.702495029933
 11
-270.637951391729
 21
396.702495029933
  0
LINE
  5
186
100
AcDbEntity
  8
1
  6
CONTINUOUS
 62
           7
100
AcDbLine
 10
-272.137951391729
 20
394.002495029933
 11
-272.137951391729
 21
396.702495029933
  0
LINE
  5
185
100
AcDbEntity
  8
1
  6
CONTINUOUS
 62
           7
100
AcDbLine
 10
-270.637951391729
 20
394.002495029933
 11
-272.137951391729
 21
394.002495029933
  0
LINE
  5
184
100
AcDbEntity
  8
1
  6
CONTINUOUS
 62
           7
100
AcDbLine
 10
-272.137951391729
 20
436.302495029933
 11
-270.637951391729
 21
436.302495029933
  0
LINE
  5
183
100
AcDbEntity
  8
1
  6
CONTINUOUS
 62
           7
100
AcDbLine
 10
-272.137951391729
 20
439.002495029933
 11
-272.137951391729
 21
436.302495029933
  0
LINE
  5
182
100
AcDbEntity
  8
1
  6
CONTINUOUS
 62
           7
100
AcDbLine
 10
-270.637951391729
 20
439.002495029933
 11
-272.137951391729
 21
439.002495029933
  0
LINE
  5
181
100
AcDbEntity
  8
1
  6
DASH_CENTER
 62
           3
100
AcDbLine
 10
-146.758857625289
 20
435.867664324757
 11
-152.604529100834
 21
432.492664324757
  0
LINE
  5
180
100
AcDbEntity
  8
1
  6
DASH_CENTER
 62
           3
100
AcDbLine
 10
-213.841772670414
 20
397.137325265428
 11
-207.996101194869
 21
400.512325265428
  0
LINE
  5
17F
100
AcDbEntity
  8
1
  6
DASH_CENTER
 62
           3
100
AcDbLine
 10
-199.665484677516
 20
450.043952317654
 11
-196.290484677516
 21
444.19828084211
  0
LINE
  5
17E
100
AcDbEntity
  8
1
  6
CONTINUOUS
 62
           7
100
AcDbLine
 10
-281.137946990693
 20
477.203456924257
 11
-280.588922606845
 21
477.203456924257
  0
LINE
  5
17D
100
AcDbEntity
  8
1
  6
CONTINUOUS
 62
           3
100
AcDbLine
 10
-281.137946990693
 20
477.203456924257
 11
-281.887946990693
 21
478.502495029934
  0
LINE
  5
17C
100
AcDbEntity
  8
1
  6
CONTINUOUS
 62
           3
100
AcDbLine
 10
-275.887946990693
 20
478.502495029934
 11
-276.637946990693
 21
477.203456924257
  0
LINE
  5
17B
100
AcDbEntity
  8
1
  6
CONTINUOUS
 62
           7
100
AcDbLine
 10
-281.137946990693
 20
431.502495029933
 11
-281.137946990693
 21
477.203456924257
  0
LINE
  5
17A
100
AcDbEntity
  8
1
  6
CONTINUOUS
 62
           7
100
AcDbLine
 10
-281.287946990693
 20
477.502495128447
 11
-281.287946990693
 21
477.902481308105
  0
LINE
  5
179
100
AcDbEntity
  8
1
  6
CONTINUOUS
 62
           7
100
AcDbLine
 10
-281.287946990693
 20
477.463264545392
 11
-281.287946990693
 21
477.502495128447
  0
LINE
  5
178
100
AcDbEntity
  8
1
  6
DASH_CENTER
 62
           3
100
AcDbLine
 10
-278.887946990693
 20
428.352495069858
 11
-278.887946990693
 21
488.016854383879
  0
LINE
  5
177
100
AcDbEntity
  8
1
  6
CONTINUOUS
 62
           7
100
AcDbLine
 10
-281.287946990693
 20
485.502495029934
 11
-281.887946990693
 21
485.502495029934
  0
LINE
  5
176
100
AcDbEntity
  8
1
  6
CONTINUOUS
 62
           7
100
AcDbLine
 10
-276.487946990693
 20
485.502495029934
 11
-281.287946990693
 21
485.502495029934
  0
LINE
  5
175
100
AcDbEntity
  8
1
  6
CONTINUOUS
 62
           7
100
AcDbLine
 10
-276.487946990693
 20
485.502495029934
 11
-276.487946990693
 21
482.002481308106
  0
LINE
  5
174
100
AcDbEntity
  8
1
  6
CONTINUOUS
 62
           7
100
AcDbLine
 10
-281.887946990693
 20
485.502495029934
 11
-287.137946990711
 21
485.502495029934
  0
LINE
  5
173
100
AcDbEntity
  8
1
  6
CONTINUOUS
 62
           3
100
AcDbLine
 10
-281.887946990693
 20
478.502495029934
 11
-281.887946990693
 21
485.502495029934
  0
LINE
  5
172
100
AcDbEntity
  8
1
  6
CONTINUOUS
 62
           7
100
AcDbLine
 10
-275.887946990693
 20
478.502495029934
 11
-281.887946990693
 21
478.502495029934
  0
LINE
  5
171
100
AcDbEntity
  8
1
  6
CONTINUOUS
 62
           7
100
AcDbLine
 10
-275.887946990693
 20
485.502495029934
 11
-276.487946990693
 21
485.502495029934
  0
LINE
  5
170
100
AcDbEntity
  8
1
  6
CONTINUOUS
 62
           3
100
AcDbLine
 10
-275.887946990693
 20
485.502495029934
 11
-275.887946990693
 21
478.502495029934
  0
LINE
  5
16F
100
AcDbEntity
  8
1
  6
CONTINUOUS
 62
           7
100
AcDbLine
 10
-283.137946990693
 20
461.502495029934
 11
-283.137946990693
 21
431.502495029933
  0
LINE
  5
16E
100
AcDbEntity
  8
1
  6
CONTINUOUS
 62
           7
100
AcDbLine
 10
-287.637946990711
 20
485.002495029933
 11
-287.137946990711
 21
485.502495029934
  0
LINE
  5
16D
100
AcDbEntity
  8
1
  6
CONTINUOUS
 62
           7
100
AcDbLine
 10
-287.637946990711
 20
348.002495029933
 11
-287.137946990711
 21
347.502495029933
  0
LINE
  5
16C
100
AcDbEntity
  8
1
  6
CONTINUOUS
 62
           7
100
AcDbLine
 10
-271.137951391729
 20
347.502495029933
 11
-270.637951391729
 21
348.002495029933
  0
LINE
  5
16B
100
AcDbEntity
  8
1
  6
CONTINUOUS
 62
           7
100
AcDbLine
 10
-271.137951391729
 20
485.502495029934
 11
-270.637951391729
 21
485.002495029933
  0
LINE
  5
16A
100
AcDbEntity
  8
1
  6
CONTINUOUS
 62
           7
100
AcDbLine
 10
-287.637946990711
 20
371.002495029959
 11
-287.137946990711
 21
371.502495029959
  0
LINE
  5
169
100
AcDbEntity
  8
1
  6
CONTINUOUS
 62
           7
100
AcDbLine
 10
-287.637946990711
 20
462.002495029934
 11
-287.137946990711
 21
461.502495029934
  0
LINE
  5
168
100
AcDbEntity
  8
1
  6
CONTINUOUS
 62
           7
100
AcDbLine
 10
-270.637951391729
 20
398.002495804783
 11
-271.137951391729
 21
398.502495804783
  0
LINE
  5
167
100
AcDbEntity
  8
1
  6
CONTINUOUS
 62
           7
100
AcDbLine
 10
-271.137951391729
 20
434.502494255083
 11
-270.637951391729
 21
435.002494255083
  0
LINE
  5
166
100
AcDbEntity
  8
1
  6
CONTINUOUS
 62
           7
100
AcDbLine
 10
-287.637946990711
 20
485.002495029933
 11
-287.637946990711
 21
462.002495029934
  0
LINE
  5
165
100
AcDbEntity
  8
1
  6
CONTINUOUS
 62
           7
100
AcDbLine
 10
-287.137946990711
 20
347.502495029933
 11
-271.137951391729
 21
347.502495029933
  0
LINE
  5
164
100
AcDbEntity
  8
1
  6
CONTINUOUS
 62
           7
100
AcDbLine
 10
-283.137946990693
 20
371.502495029959
 11
-287.137946990711
 21
371.502495029959
  0
LINE
  5
163
100
AcDbEntity
  8
1
  6
CONTINUOUS
 62
           7
100
AcDbLine
 10
-287.137946990711
 20
461.502495029934
 11
-283.137946990693
 21
461.502495029934
  0
LINE
  5
162
100
AcDbEntity
  8
1
  6
CONTINUOUS
 62
           7
100
AcDbLine
 10
-271.137951391729
 20
485.502495029934
 11
-275.887946990693
 21
485.502495029934
  0
LINE
  5
161
100
AcDbEntity
  8
1
  6
CONTINUOUS
 62
           7
100
AcDbLine
 10
-271.137951391729
 20
398.502495804783
 11
-273.137951486729
 21
398.502495804783
  0
LINE
  5
160
100
AcDbEntity
  8
1
  6
CONTINUOUS
 62
           7
100
AcDbLine
 10
-273.137951486729
 20
409.502495029934
 11
-274.637946990711
 21
409.502495029933
  0
LINE
  5
15F
100
AcDbEntity
  8
1
  6
CONTINUOUS
 62
           7
100
AcDbLine
 10
-274.637946990711
 20
423.502495029933
 11
-273.137951486729
 21
423.502495029933
  0
LINE
  5
15E
100
AcDbEntity
  8
1
  6
CONTINUOUS
 62
           7
100
AcDbLine
 10
-273.137951486729
 20
434.502494255083
 11
-271.137951391729
 21
434.502494255083
  0
LINE
  5
15D
100
AcDbEntity
  8
1
  6
CONTINUOUS
 62
           7
100
AcDbLine
 10
-283.137946990693
 20
401.502495029933
 11
-283.137946990693
 21
371.502495029959
  0
LINE
  5
15C
100
AcDbEntity
  8
1
  6
CONTINUOUS
 62
           7
100
AcDbLine
 10
-274.637946990711
 20
401.502495029933
 11
-283.137946990693
 21
401.502495029933
  0
LINE
  5
15B
100
AcDbEntity
  8
1
  6
CONTINUOUS
 62
           7
100
AcDbLine
 10
-276.637946990693
 20
431.502495029933
 11
-276.637946990693
 21
477.203456924257
  0
LINE
  5
15A
100
AcDbEntity
  8
1
  6
CONTINUOUS
 62
           7
100
AcDbLine
 10
-274.637946990711
 20
431.502495029933
 11
-283.137946990693
 21
431.502495029933
  0
LINE
  5
159
100
AcDbEntity
  8
1
  6
CONTINUOUS
 62
           7
100
AcDbLine
 10
-270.637951391729
 20
357.302495029933
 11
-287.637946990711
 21
357.302495029933
  0
LINE
  5
158
100
AcDbEntity
  8
1
  6
CONTINUOUS
 62
           7
100
AcDbLine
 10
-287.637946990711
 20
350.502494630688
 11
-287.637946990711
 21
350.702495029933
  0
LINE
  5
157
100
AcDbEntity
  8
1
  6
CONTINUOUS
 62
           7
100
AcDbLine
 10
-287.637946990711
 20
350.702495029933
 11
-270.637951391729
 21
350.702495029933
  0
LINE
  5
156
100
AcDbEntity
  8
1
  6
CONTINUOUS
 62
           7
100
AcDbLine
 10
-281.287946990693
 20
482.002481308106
 11
-281.287946990693
 21
485.502495029934
  0
LINE
  5
155
100
AcDbEntity
  8
1
  6
CONTINUOUS
 62
           7
100
AcDbLine
 10
-277.186971374542
 20
477.203456924257
 11
-276.637946990693
 21
477.203456924257
  0
LINE
  5
154
100
AcDbEntity
  8
1
  6
CONTINUOUS
 62
           7
100
AcDbLine
 10
-276.487946990693
 20
477.902481308106
 11
-276.487946990693
 21
477.463264545392
  0
LINE
  5
153
100
AcDbEntity
  8
1
  6
PHANTOM
 62
           3
100
AcDbLine
 10
-331.387946860945
 20
378.438028935866
 11
-327.852412955012
 21
374.902495029933
  0
LINE
  5
152
100
AcDbEntity
  8
1
  6
PHANTOM
 62
           3
100
AcDbLine
 10
-327.852412955012
 20
374.902495029933
 11
-331.387946860945
 21
371.366961124001
  0
LINE
  5
151
100
AcDbEntity
  8
1
  6
PHANTOM
 62
           3
100
AcDbLine
 10
-331.387946860945
 20
371.366961124001
 11
-334.923480766878
 21
374.902495029933
  0
LINE
  5
150
100
AcDbEntity
  8
1
  6
PHANTOM
 62
           3
100
AcDbLine
 10
-334.923480766878
 20
374.902495029933
 11
-331.387946860945
 21
378.438028935866
  0
LINE
  5
14F
100
AcDbEntity
  8
1
  6
DASH_CENTER
 62
           3
100
AcDbLine
 10
-335.754056461825
 20
374.902495029933
 11
-327.007638628711
 21
374.902495029933
  0
LINE
  5
14E
100
AcDbEntity
  8
1
  6
DASH_CENTER
 62
           3
100
AcDbLine
 10
-331.387946860945
 20
379.165309107631
 11
-331.387946860945
 21
370.511938272744
  0
LINE
  5
14D
100
AcDbEntity
  8
1
  6
CONTINUOUS
 62
           3
100
AcDbLine
 10
-327.937946990711
 20
375.64663811059
 11
-327.937946990711
 21
384.892332203595
  0
LINE
  5
14C
100
AcDbEntity
  8
1
  6
CONTINUOUS
 62
           7
100
AcDbLine
 10
-328.137946990711
 20
373.757180943263
 11
-328.137946990711
 21
360.952518869469
  0
LINE
  5
14B
100
AcDbEntity
  8
1
  6
DASH_CENTER
 62
           3
100
AcDbLine
 10
-160.935146561243
 20
382.961037742212
 11
-164.310146561244
 21
388.806709217757
  0
LINE
  5
14A
100
AcDbEntity
  8
1
  6
CONTINUOUS
 62
           7
100
AcDbLine
 10
-133.317753142103
 20
371.561175564427
 11
-134.064899368909
 21
374.349563243553
  0
LINE
  5
149
100
AcDbEntity
  8
1
  6
CONTINUOUS
 62
           7
100
AcDbLine
 10
-134.064899368909
 20
374.349563243553
 11
-136.853287048036
 21
375.09670947036
  0
LINE
  5
148
100
AcDbEntity
  8
1
  6
CONTINUOUS
 62
           7
100
AcDbLine
 10
-136.853287048036
 20
375.09670947036
 11
-138.894528500355
 21
373.05546801804
  0
LINE
  5
147
100
AcDbEntity
  8
1
  6
CONTINUOUS
 62
           7
100
AcDbLine
 10
-138.894528500355
 20
373.05546801804
 11
-138.147382273548
 21
370.267080338914
  0
LINE
  5
146
100
AcDbEntity
  8
1
  6
CONTINUOUS
 62
           7
100
AcDbLine
 10
-138.147382273548
 20
370.267080338914
 11
-135.358994594422
 21
369.519934112108
  0
LINE
  5
145
100
AcDbEntity
  8
1
  6
CONTINUOUS
 62
           7
100
AcDbLine
 10
-135.358994594422
 20
369.519934112108
 11
-133.317753142103
 21
371.561175564427
  0
LINE
  5
144
100
AcDbEntity
  8
1
  6
CONTINUOUS
 62
           7
100
AcDbLine
 10
-133.317754116094
 20
461.443815080899
 11
-135.358995568414
 21
463.485056533218
  0
LINE
  5
143
100
AcDbEntity
  8
1
  6
CONTINUOUS
 62
           7
100
AcDbLine
 10
-134.064900342901
 20
458.655427401773
 11
-133.317754116094
 21
461.443815080899
  0
LINE
  5
142
100
AcDbEntity
  8
1
  6
CONTINUOUS
 62
           7
100
AcDbLine
 10
-136.853288022027
 20
457.908281174966
 11
-134.064900342901
 21
458.655427401773
  0
LINE
  5
141
100
AcDbEntity
  8
1
  6
CONTINUOUS
 62
           7
100
AcDbLine
 10
-138.894529474346
 20
459.949522627286
 11
-136.853288022027
 21
457.908281174966
  0
LINE
  5
140
100
AcDbEntity
  8
1
  6
CONTINUOUS
 62
           7
100
AcDbLine
 10
-138.14738324754
 20
462.737910306412
 11
-138.894529474346
 21
459.949522627286
  0
LINE
  5
13F
100
AcDbEntity
  8
1
  6
CONTINUOUS
 62
           7
100
AcDbLine
 10
-135.358995568414
 20
463.485056533218
 11
-138.14738324754
 21
462.737910306412
  0
LINE
  5
13E
100
AcDbEntity
  8
1
  6
DASHED
 62
           4
100
AcDbLine
 10
-181.985417586984
 20
431.484715483627
 11
-193.820659403812
 21
475.654439263892
  0
LINE
  5
13D
100
AcDbEntity
  8
1
  6
CONTINUOUS
 62
           7
100
AcDbLine
 10
-184.384139347045
 20
444.300570270483
 11
-184.384139347028
 21
444.300570270487
  0
LINE
  5
13C
100
AcDbEntity
  8
1
  6
DASHED
 62
           3
100
AcDbLine
 10
-195.244164151875
 20
483.864808787349
 11
-193.432430836158
 21
477.103328003326
  0
LINE
  5
13B
100
AcDbEntity
  8
1
  6
DASHED
 62
           4
100
AcDbLine
 10
-193.432430836158
 20
477.103328003326
 11
-194.011986331931
 21
476.948036576264
  0
LINE
  5
13A
100
AcDbEntity
  8
1
  6
DASHED
 62
           3
100
AcDbLine
 10
-199.227985793892
 20
475.550413732711
 11
-201.03971910961
 21
482.311894516734
  0
LINE
  5
139
100
AcDbEntity
  8
1
  6
DASHED
 62
           4
100
AcDbLine
 10
-195.829800983463
 20
483.732213214525
 11
-194.011986331931
 21
476.948036576264
  0
LINE
  5
138
100
AcDbEntity
  8
1
  6
DASHED
 62
           4
100
AcDbLine
 10
-194.011986331931
 20
476.948036576264
 11
-198.648430298119
 21
475.705705159772
  0
LINE
  5
137
100
AcDbEntity
  8
1
  6
DASHED
 62
           4
100
AcDbLine
 10
-194.011986331931
 20
476.948036576264
 11
-193.743013690281
 21
475.944217011779
  0
LINE
  5
136
100
AcDbEntity
  8
1
  6
DASHED
 62
           4
100
AcDbLine
 10
-198.648430298119
 20
475.705705159772
 11
-199.227985793892
 21
475.550413732711
  0
LINE
  5
135
100
AcDbEntity
  8
1
  6
DASHED
 62
           4
100
AcDbLine
 10
-198.648430298119
 20
475.705705159772
 11
-200.466244949651
 21
482.489881798033
  0
LINE
  5
134
100
AcDbEntity
  8
1
  6
DASH_CENTER
 62
           3
100
AcDbLine
 10
-183.343470714395
 20
427.8597063179
 11
-198.792705717776
 21
485.517036288588
  0
LINE
  5
133
100
AcDbEntity
  8
1
  6
CONTINUOUS
 62
           7
100
AcDbLine
 10
-198.379457656468
 20
474.701885595287
 11
-198.389611278513
 21
474.73977942864
  0
LINE
  5
132
100
AcDbEntity
  8
1
  6
DASHED
 62
           4
100
AcDbLine
 10
-198.389611278513
 20
474.73977942864
 11
-198.648430298119
 21
475.705705159772
  0
LINE
  5
131
100
AcDbEntity
  8
1
  6
DASHED
 62
           4
100
AcDbLine
 10
-186.332083805285
 20
430.320029780666
 11
-198.167325622112
 21
474.489753560931
  0
LINE
  5
130
100
AcDbEntity
  8
1
  6
DASHED
 62
           3
100
AcDbLine
 10
-193.432430836158
 20
477.103328003326
 11
-193.820659403812
 21
475.654439263892
  0
LINE
  5
12F
100
AcDbEntity
  8
1
  6
DASHED
 62
           3
100
AcDbLine
 10
-198.167325622112
 20
474.489753560931
 11
-199.227985793892
 21
475.550413732711
  0
LINE
  5
12E
100
AcDbEntity
  8
1
  6
DASHED
 62
           4
100
AcDbLine
 10
-198.167325622112
 20
474.489753560931
 11
-193.820659403812
 21
475.654439263892
  0
LINE
  5
12D
100
AcDbEntity
  8
1
  6
CONTINUOUS
 62
           7
100
AcDbLine
 10
-227.282876537205
 20
461.443814106908
 11
-226.535730310398
 21
458.655426427782
  0
LINE
  5
12C
100
AcDbEntity
  8
1
  6
CONTINUOUS
 62
           7
100
AcDbLine
 10
-226.535730310398
 20
458.655426427782
 11
-223.747342631272
 21
457.908280200975
  0
LINE
  5
12B
100
AcDbEntity
  8
1
  6
CONTINUOUS
 62
           7
100
AcDbLine
 10
-223.747342631272
 20
457.908280200975
 11
-221.706101178953
 21
459.949521653294
  0
LINE
  5
12A
100
AcDbEntity
  8
1
  6
CONTINUOUS
 62
           7
100
AcDbLine
 10
-221.706101178953
 20
459.949521653294
 11
-222.453247405759
 21
462.73790933242
  0
LINE
  5
129
100
AcDbEntity
  8
1
  6
CONTINUOUS
 62
           7
100
AcDbLine
 10
-222.453247405759
 20
462.73790933242
 11
-225.241635084885
 21
463.485055559227
  0
LINE
  5
128
100
AcDbEntity
  8
1
  6
CONTINUOUS
 62
           7
100
AcDbLine
 10
-225.241635084885
 20
463.485055559227
 11
-227.282876537205
 21
461.443814106908
  0
LINE
  5
127
100
AcDbEntity
  8
1
  6
CONTINUOUS
 62
           7
100
AcDbLine
 10
-225.241634110894
 20
369.519933138116
 11
-222.453246431768
 21
370.267079364923
  0
LINE
  5
126
100
AcDbEntity
  8
1
  6
CONTINUOUS
 62
           7
100
AcDbLine
 10
-222.453246431768
 20
370.267079364923
 11
-221.706100204961
 21
373.055467044049
  0
LINE
  5
125
100
AcDbEntity
  8
1
  6
CONTINUOUS
 62
           7
100
AcDbLine
 10
-221.706100204961
 20
373.055467044049
 11
-223.74734165728
 21
375.096708496368
  0
LINE
  5
124
100
AcDbEntity
  8
1
  6
CONTINUOUS
 62
           7
100
AcDbLine
 10
-223.74734165728
 20
375.096708496368
 11
-226.535729336406
 21
374.349562269562
  0
LINE
  5
123
100
AcDbEntity
  8
1
  6
CONTINUOUS
 62
           7
100
AcDbLine
 10
-226.535729336406
 20
374.349562269562
 11
-227.282875563213
 21
371.561174590436
  0
LINE
  5
122
100
AcDbEntity
  8
1
  6
CONTINUOUS
 62
           7
100
AcDbLine
 10
-227.282875563213
 20
371.561174590436
 11
-225.241634110894
 21
369.519933138116
  0
LINE
  5
121
100
AcDbEntity
  8
1
  6
CONTINUOUS
 62
           7
100
AcDbLine
 10
-295.637951391729
 20
354.002495029933
 11
-295.637951391729
 21
351.802495029933
  0
LINE
  5
120
100
AcDbEntity
  8
1
  6
CONTINUOUS
 62
           7
100
AcDbLine
 10
-294.837951391729
 20
354.002495029933
 11
-294.837951391729
 21
351.002495029933
  0
LINE
  5
11F
100
AcDbEntity
  8
1
  6
CONTINUOUS
 62
           7
100
AcDbLine
 10
-265.037951391729
 20
349.002495029933
 11
-265.037951391729
 21
354.002495029933
  0
LINE
  5
11E
100
AcDbEntity
  8
1
  6
CONTINUOUS
 62
           7
100
AcDbLine
 10
-272.637951391729
 20
351.002495029933
 11
-270.887951391729
 21
351.002495029933
  0
LINE
  5
11D
100
AcDbEntity
  8
1
  6
CONTINUOUS
 62
           7
100
AcDbLine
 10
-272.637951391729
 20
351.002495029933
 11
-272.637951391729
 21
354.002495029933
  0
LINE
  5
11C
100
AcDbEntity
  8
1
  6
CONTINUOUS
 62
           7
100
AcDbLine
 10
-294.837951391729
 20
351.002495029933
 11
-287.637946990711
 21
351.002495029933
  0
LINE
  5
11B
100
AcDbEntity
  8
1
  6
CONTINUOUS
 62
           7
100
AcDbLine
 10
-295.637951391729
 20
351.802495029933
 11
-294.837951391729
 21
351.002495029933
  0
LINE
  5
11A
100
AcDbEntity
  8
1
  6
CONTINUOUS
 62
           7
100
AcDbLine
 10
-264.637951391729
 20
349.402495029933
 11
-264.637951391729
 21
354.002495029933
  0
LINE
  5
119
100
AcDbEntity
  8
1
  6
CONTINUOUS
 62
           7
100
AcDbLine
 10
-265.037951391729
 20
349.002495029933
 11
-264.637951391729
 21
349.402495029933
  0
LINE
  5
118
100
AcDbEntity
  8
1
  6
CONTINUOUS
 62
           7
100
AcDbLine
 10
-270.637951391729
 20
349.002495029933
 11
-265.037951391729
 21
349.002495029933
  0
LINE
  5
117
100
AcDbEntity
  8
1
  6
CONTINUOUS
 62
           3
100
AcDbLine
 10
-272.637951391729
 20
351.802495029933
 11
-271.252310745674
 21
351.002495029933
  0
LINE
  5
116
100
AcDbEntity
  8
1
  6
CONTINUOUS
 62
           3
100
AcDbLine
 10
-272.637951391729
 20
351.802495029933
 11
-295.637951391729
 21
351.802495029933
  0
LINE
  5
115
100
AcDbEntity
  8
1
  6
DASH_CENTER
 62
           3
100
AcDbLine
 10
-279.137946954713
 20
413.302495029933
 11
-279.137946954713
 21
419.702495029933
  0
LINE
  5
114
100
AcDbEntity
  8
1
  6
CONTINUOUS
 62
           7
100
AcDbLine
 10
-280.737946954713
 20
421.502495029933
 11
-280.737946954713
 21
426.502495029933
  0
LINE
  5
113
100
AcDbEntity
  8
1
  6
CONTINUOUS
 62
           7
100
AcDbLine
 10
-277.537946954713
 20
426.502495029933
 11
-280.737946954713
 21
426.502495029933
  0
LINE
  5
112
100
AcDbEntity
  8
1
  6
CONTINUOUS
 62
           7
100
AcDbLine
 10
-277.537946954713
 20
421.502495029933
 11
-277.537946954713
 21
426.502495029933
  0
LINE
  5
111
100
AcDbEntity
  8
1
  6
DASH_CENTER
 62
           3
100
AcDbLine
 10
-279.137946954713
 20
419.702495029933
 11
-279.137946954713
 21
427.502495029933
  0
LINE
  5
110
100
AcDbEntity
  8
1
  6
CONTINUOUS
 62
           7
100
AcDbLine
 10
-280.737946954713
 20
426.502495029933
 11
-288.837946954713
 21
426.502495029934
  0
LINE
  5
10F
100
AcDbEntity
  8
1
  6
CONTINUOUS
 62
           7
100
AcDbLine
 10
-277.137946954713
 20
426.502495029933
 11
-277.537946954713
 21
426.502495029933
  0
LINE
  5
10E
100
AcDbEntity
  8
1
  6
CONTINUOUS
 62
           3
100
AcDbLine
 10
-277.137946954713
 20
421.502495029933
 11
-277.137946954713
 21
426.502495029933
  0
LINE
  5
10D
100
AcDbEntity
  8
1
  6
CONTINUOUS
 62
           7
100
AcDbLine
 10
-276.037946954713
 20
411.502495029933
 11
-275.637946954713
 21
411.102495029933
  0
LINE
  5
10C
100
AcDbEntity
  8
1
  6
CONTINUOUS
 62
           7
100
AcDbLine
 10
-297.237946954713
 20
411.502495029933
 11
-297.637946954713
 21
411.102495029933
  0
LINE
  5
10B
100
AcDbEntity
  8
1
  6
CONTINUOUS
 62
           7
100
AcDbLine
 10
-297.237946954713
 20
421.502495029933
 11
-297.637946954713
 21
421.902495029933
  0
LINE
  5
10A
100
AcDbEntity
  8
1
  6
CONTINUOUS
 62
           7
100
AcDbLine
 10
-275.637946954713
 20
421.902495029933
 11
-276.037946954713
 21
421.502495029933
  0
LINE
  5
109
100
AcDbEntity
  8
1
  6
CONTINUOUS
 62
           7
100
AcDbLine
 10
-276.037946954713
 20
411.502495029933
 11
-297.237946954713
 21
411.502495029933
  0
LINE
  5
108
100
AcDbEntity
  8
0
  6
CONTINUOUS
 62
           7
100
AcDbLine
 10
-297.637946954713
 20
445.966495029934
 11
-288.837946954713
 21
445.966495029934
  0
LINE
  5
107
100
AcDbEntity
  8
0
  6
CONTINUOUS
 62
           7
100
AcDbLine
 10
-288.837946954713
 20
445.966495029934
 11
-288.837946954713
 21
426.502495029934
  0
LINE
  5
106
100
AcDbEntity
  8
1
  6
CONTINUOUS
 62
           7
100
AcDbLine
 10
-275.637946954713
 20
426.502495029933
 11
-277.137946954713
 21
426.502495029933
  0
LINE
  5
105
100
AcDbEntity
  8
1
  6
CONTINUOUS
 62
           7
100
AcDbLine
 10
-288.837946954713
 20
406.502495029933
 11
-275.637946954713
 21
406.502495029933
  0
LINE
  5
104
100
AcDbEntity
  8
0
  6
CONTINUOUS
 62
           7
100
AcDbLine
 10
-288.837946954713
 20
406.502495029933
 11
-288.837946954713
 21
387.535640225442
  0
LINE
  5
103
100
AcDbEntity
  8
0
  6
CONTINUOUS
 62
           7
100
AcDbLine
 10
-281.887946990694
 20
478.502481308106
 11
-280.387946990694
 21
477.002481308105
  0
LINE
  5
102
100
AcDbEntity
  8
0
  6
CONTINUOUS
 62
           7
100
AcDbLine
 10
-277.387946990694
 20
477.002481308105
 11
-275.887946990694
 21
478.502481308105
  0
LINE
  5
101
100
AcDbEntity
  8
0
  6
CONTINUOUS
 62
           7
100
AcDbLine
 10
-281.887946990694
 20
481.627481308106
 11
-281.887946990694
 21
478.502481308106
  0
LINE
  5
100
100
AcDbEntity
  8
0
  6
CONTINUOUS
 62
           7
100
AcDbLine
 10
-275.887946990694
 20
478.502481308105
 11
-275.887946990694
 21
481.627481308105
  0
LINE
  5
FF
100
AcDbEntity
  8
0
  6
CONTINUOUS
 62
           7
100
AcDbLine
 10
-275.887946990694
 20
481.627481308105
 11
-276.262946990694
 21
482.002481308106
  0
LINE
  5
FE
100
AcDbEntity
  8
0
  6
CONTINUOUS
 62
           7
100
AcDbLine
 10
-281.512946990694
 20
482.002481308106
 11
-281.887946990694
 21
481.627481308106
  0
LINE
  5
FD
100
AcDbEntity
  8
0
  6
CONTINUOUS
 62
           7
100
AcDbLine
 10
-278.887946990694
 20
477.002481308105
 11
-277.387946990694
 21
477.002481308105
  0
LINE
  5
FC
100
AcDbEntity
  8
0
  6
CONTINUOUS
 62
           7
100
AcDbLine
 10
-280.387946990694
 20
477.002481308105
 11
-278.887946990694
 21
477.002481308105
  0
LINE
  5
FB
100
AcDbEntity
  8
0
  6
CONTINUOUS
 62
           7
100
AcDbLine
 10
-278.887946990694
 20
478.502481308106
 11
-275.887946990694
 21
478.502481308105
  0
LINE
  5
FA
100
AcDbEntity
  8
0
  6
CONTINUOUS
 62
           7
100
AcDbLine
 10
-281.887946990694
 20
478.502481308106
 11
-278.887946990694
 21
478.502481308106
  0
LINE
  5
F9
100
AcDbEntity
  8
0
  6
CONTINUOUS
 62
           7
100
AcDbLine
 10
-275.887946990694
 20
481.627481308105
 11
-281.887946990694
 21
481.627481308106
  0
LINE
  5
F8
100
AcDbEntity
  8
0
  6
CONTINUOUS
 62
           7
100
AcDbLine
 10
-281.512946990694
 20
482.002481308106
 11
-276.262946990694
 21
482.002481308106
  0
LINE
  5
F7
100
AcDbEntity
  8
0
  6
CONTINUOUS
 62
           3
100
AcDbLine
 10
-276.262946990694
 20
482.002481308106
 11
-276.262946990694
 21
478.127481308106
  0
LINE
  5
F6
100
AcDbEntity
  8
0
  6
CONTINUOUS
 62
           3
100
AcDbLine
 10
-281.512946990694
 20
482.002481308106
 11
-281.512946990694
 21
478.127481308106
  0
LINE
  5
F5
100
AcDbEntity
  8
1
  6
CONTINUOUS
 62
           7
100
AcDbLine
 10
-322.137210403801
 20
432.502495029933
 11
-317.137946024013
 21
432.502495029933
  0
LINE
  5
F4
100
AcDbEntity
  8
1
  6
CONTINUOUS
 62
           7
100
AcDbLine
 10
-315.637946024013
 20
434.532778265595
 11
-315.637946024013
 21
430.002495029933
  0
LINE
  5
F3
100
AcDbEntity
  8
1
  6
CONTINUOUS
 62
           7
100
AcDbLine
 10
-308.137946024013
 20
430.002495029933
 11
-308.137946024013
 21
443.002495029933
  0
LINE
  5
F2
100
AcDbEntity
  8
1
  6
CONTINUOUS
 62
           7
100
AcDbLine
 10
-307.637946024013
 20
430.502495029933
 11
-307.637946024013
 21
442.502495029933
  0
LINE
  5
F1
100
AcDbEntity
  8
1
  6
CONTINUOUS
 62
           7
100
AcDbLine
 10
-340.541168413157
 20
433.405717419077
 11
-339.637946024013
 21
432.502495029933
  0
LINE
  5
F0
100
AcDbEntity
  8
1
  6
CONTINUOUS
 62
           7
100
AcDbLine
 10
-339.637946024013
 20
433.723689850574
 11
-339.637946024013
 21
432.502495029933
  0
LINE
  5
EF
100
AcDbEntity
  8
1
  6
CONTINUOUS
 62
           7
100
AcDbLine
 10
-339.637946024013
 20
432.502495029933
 11
-325.725217164719
 21
432.502495029933
  0
LINE
  5
EE
100
AcDbEntity
  8
1
  6
CONTINUOUS
 62
           3
100
AcDbLine
 10
-330.159606536093
 20
433.502495029933
 11
-340.29636727553
 21
433.502495029933
  0
LINE
  5
ED
100
AcDbEntity
  8
1
  6
CONTINUOUS
 62
           7
100
AcDbLine
 10
-318.137946024013
 20
432.502495029933
 11
-318.137946024013
 21
433.338031547876
  0
LINE
  5
EC
100
AcDbEntity
  8
1
  6
CONTINUOUS
 62
           3
100
AcDbLine
 10
-317.962579859195
 20
433.401247327469
 11
-316.405895216444
 21
432.502495029933
  0
LINE
  5
EB
100
AcDbEntity
  8
1
  6
CONTINUOUS
 62
           7
100
AcDbLine
 10
-318.137946024013
 20
432.502495029933
 11
-316.037946024013
 21
432.502495029933
  0
LINE
  5
EA
100
AcDbEntity
  8
1
  6
CONTINUOUS
 62
           7
100
AcDbLine
 10
-315.637946024013
 20
430.002495029933
 11
-308.137946024013
 21
430.002495029933
  0
LINE
  5
E9
100
AcDbEntity
  8
1
  6
CONTINUOUS
 62
           7
100
AcDbLine
 10
-308.137946024013
 20
430.002495029933
 11
-307.637946024013
 21
430.502495029933
  0
LINE
  5
E8
100
AcDbEntity
  8
1
  6
CONTINUOUS
 62
           7
100
AcDbLine
 10
-307.637946024013
 20
442.502495029933
 11
-308.137946024013
 21
443.002495029933
  0
LINE
  5
E7
100
AcDbEntity
  8
1
  6
CONTINUOUS
 62
           7
100
AcDbLine
 10
-308.137946024013
 20
443.002495029933
 11
-309.271705470662
 21
443.002495029933
  0
LINE
  5
E6
100
AcDbEntity
  8
1
  6
CONTINUOUS
 62
           7
100
AcDbLine
 10
-296.977946954713
 20
445.966495029934
 11
-293.157946954713
 21
445.966495029934
  0
LINE
  5
E5
100
AcDbEntity
  8
1
  6
CONTINUOUS
 62
           7
100
AcDbLine
 10
-297.477946954713
 20
446.466495029934
 11
-296.977946954713
 21
445.966495029934
  0
LINE
  5
E4
100
AcDbEntity
  8
1
  6
CONTINUOUS
 62
           7
100
AcDbLine
 10
-297.477946954713
 20
446.466495029934
 11
-297.477946954713
 21
446.78241522943
  0
LINE
  5
E3
100
AcDbEntity
  8
1
  6
CONTINUOUS
 62
           7
100
AcDbLine
 10
-288.837946954713
 20
447.522495029934
 11
-288.837946954713
 21
446.466495029934
  0
LINE
  5
E2
100
AcDbEntity
  8
1
  6
CONTINUOUS
 62
           7
100
AcDbLine
 10
-293.157946954713
 20
445.966495029934
 11
-289.337946954713
 21
445.966495029934
  0
LINE
  5
E1
100
AcDbEntity
  8
1
  6
CONTINUOUS
 62
           7
100
AcDbLine
 10
-288.837946954713
 20
447.522495029934
 11
-288.945879122276
 21
447.630427197497
  0
LINE
  5
E0
100
AcDbEntity
  8
1
  6
CONTINUOUS
 62
           7
100
AcDbLine
 10
-289.337946954713
 20
445.966495029934
 11
-288.837946954713
 21
446.466495029934
  0
LINE
  5
DF
100
AcDbEntity
  8
1
  6
CONTINUOUS
 62
           3
100
AcDbLine
 10
-329.209571786277
 20
384.002495029933
 11
-344.637946860945
 21
384.002495029933
  0
LINE
  5
DE
100
AcDbEntity
  8
1
  6
CONTINUOUS
 62
           7
100
AcDbLine
 10
-327.768231099079
 20
385.002495029933
 11
-344.637946860945
 21
385.002495029933
  0
LINE
  5
DD
100
AcDbEntity
  8
1
  6
CONTINUOUS
 62
           3
100
AcDbLine
 10
-344.137946860945
 20
377.502495029933
 11
-344.137946860945
 21
378.594877981895
  0
LINE
  5
DC
100
AcDbEntity
  8
1
  6
CONTINUOUS
 62
           3
100
AcDbLine
 10
-344.137946860945
 20
455.502495029934
 11
-344.137946860945
 21
431.280531321579
  0
LINE
  5
DB
100
AcDbEntity
  8
1
  6
CONTINUOUS
 62
           7
100
AcDbLine
 10
-331.637946860945
 20
362.502495029933
 11
-328.137946990711
 21
362.502495029933
  0
LINE
  5
DA
100
AcDbEntity
  8
1
  6
CONTINUOUS
 62
           7
100
AcDbLine
 10
-326.637946990711
 20
430.00249483473
 11
-326.637946990711
 21
432.502495029933
  0
LINE
  5
D9
100
AcDbEntity
  8
1
  6
CONTINUOUS
 62
           7
100
AcDbLine
 10
-326.637946990711
 20
403.002495225171
 11
-326.637946990711
 21
385.688473452722
  0
LINE
  5
D8
100
AcDbEntity
  8
1
  6
CONTINUOUS
 62
           7
100
AcDbLine
 10
-325.137946990711
 20
390.502495420442
 11
-325.137946990711
 21
386.48004264763
  0
LINE
  5
D7
100
AcDbEntity
  8
1
  6
CONTINUOUS
 62
           7
100
AcDbLine
 10
-337.637946990711
 20
429.502494834652
 11
-327.137946990742
 21
429.502494834695
  0
LINE
  5
D6
100
AcDbEntity
  8
1
  6
CONTINUOUS
 62
           7
100
AcDbLine
 10
-344.637946860945
 20
455.213819895339
 11
-344.137946860945
 21
455.50249502989
  0
LINE
  5
D5
100
AcDbEntity
  8
1
  6
CONTINUOUS
 62
           7
100
AcDbLine
 10
-344.637946860945
 20
455.213819895339
 11
-344.137946860945
 21
455.502495029934
  0
LINE
  5
D4
100
AcDbEntity
  8
1
  6
CONTINUOUS
 62
           7
100
AcDbLine
 10
-344.137946860945
 20
455.502495029934
 11
-343.437946860945
 21
455.502495029934
  0
LINE
  5
D3
100
AcDbEntity
  8
1
  6
CONTINUOUS
 62
           7
100
AcDbLine
 10
-328.137946990711
 20
470.502495029934
 11
-331.637946860945
 21
470.502495029934
  0
LINE
  5
D2
100
AcDbEntity
  8
1
  6
CONTINUOUS
 62
           7
100
AcDbLine
 10
-326.637946990711
 20
430.00249483473
 11
-327.137946990742
 21
429.502494834695
  0
LINE
  5
D1
100
AcDbEntity
  8
1
  6
CONTINUOUS
 62
           7
100
AcDbLine
 10
-326.637946990711
 20
403.002495225171
 11
-327.137946990711
 21
403.502495225171
  0
LINE
  5
D0
100
AcDbEntity
  8
1
  6
CONTINUOUS
 62
           7
100
AcDbLine
 10
-344.637946860945
 20
430.002494834652
 11
-344.137946860945
 21
429.502494834652
  0
LINE
  5
CF
100
AcDbEntity
  8
1
  6
CONTINUOUS
 62
           7
100
AcDbLine
 10
-344.137946860945
 20
403.502495225171
 11
-344.637946860945
 21
403.002495225171
  0
LINE
  5
CE
100
AcDbEntity
  8
1
  6
CONTINUOUS
 62
           7
100
AcDbLine
 10
-337.737946990711
 20
403.502495225171
 11
-327.137946990711
 21
403.502495225171
  0
LINE
  5
CD
100
AcDbEntity
  8
1
  6
CONTINUOUS
 62
           3
100
AcDbLine
 10
-344.637946860945
 20
394.002495029933
 11
-326.637946990711
 21
394.002495029933
  0
LINE
  5
CC
100
AcDbEntity
  8
1
  6
CONTINUOUS
 62
           7
100
AcDbLine
 10
-344.637946860945
 20
455.213819895339
 11
-344.637946860945
 21
378.002495029933
  0
LINE
  5
CB
100
AcDbEntity
  8
1
  6
CONTINUOUS
 62
           7
100
AcDbLine
 10
-344.637946860945
 20
393.002495029933
 11
-326.637946990711
 21
393.002495029933
  0
LINE
  5
CA
100
AcDbEntity
  8
1
  6
CONTINUOUS
 62
           7
100
AcDbLine
 10
-344.637946860945
 20
385.002495029933
 11
-344.637946860945
 21
377.791170164571
  0
LINE
  5
C9
100
AcDbEntity
  8
1
  6
CONTINUOUS
 62
           7
100
AcDbLine
 10
-344.637946860945
 20
382.202495029933
 11
-343.137946860945
 21
382.202495029933
  0
LINE
  5
C8
100
AcDbEntity
  8
1
  6
CONTINUOUS
 62
           7
100
AcDbLine
 10
-343.137946860945
 20
382.202495029933
 11
-343.137946860945
 21
379.502495029933
  0
LINE
  5
C7
100
AcDbEntity
  8
1
  6
CONTINUOUS
 62
           7
100
AcDbLine
 10
-344.637946860945
 20
379.502495029933
 11
-343.137946860945
 21
379.502495029933
  0
LINE
  5
C6
100
AcDbEntity
  8
1
  6
CONTINUOUS
 62
           7
100
AcDbLine
 10
-344.137946860945
 20
403.502495225171
 11
-337.637946990711
 21
403.502495225171
  0
LINE
  5
C5
100
AcDbEntity
  8
1
  6
CONTINUOUS
 62
           7
100
AcDbLine
 10
-344.137946860945
 20
429.502494834652
 11
-337.637946990711
 21
429.502494834652
  0
LINE
  5
C4
100
AcDbEntity
  8
0
  6
CONTINUOUS
 62
           7
100
AcDbLine
 10
-326.637946990744
 20
430.00249482716
 11
-326.637946990711
 21
430.00249482716
  0
LINE
  5
C3
100
AcDbEntity
  8
1
  6
CONTINUOUS
 62
           7
100
AcDbLine
 10
-327.137946990711
 20
429.502494834695
 11
-326.637946990711
 21
430.002494834695
  0
LINE
  5
C2
100
AcDbEntity
  8
1
  6
CONTINUOUS
 62
           7
100
AcDbLine
 10
-327.137946990711
 20
429.502494834695
 11
-326.637946990711
 21
430.002494834695
  0
LINE
  5
C1
100
AcDbEntity
  8
1
  6
CONTINUOUS
 62
           7
100
AcDbLine
 10
-344.137946860945
 20
377.502495029933
 11
-344.637946860945
 21
377.791170164528
  0
LINE
  5
C0
100
AcDbEntity
  8
1
  6
CONTINUOUS
 62
           7
100
AcDbLine
 10
-344.137946860945
 20
377.502495029933
 11
-343.437946860945
 21
377.502495029933
  0
LINE
  5
BF
100
AcDbEntity
  8
1
  6
CONTINUOUS
 62
           7
100
AcDbLine
 10
-344.637946860945
 20
455.213819895339
 11
-344.137946860945
 21
455.502495029934
  0
LINE
  5
BE
100
AcDbEntity
  8
1
  6
CONTINUOUS
 62
           7
100
AcDbLine
 10
-344.637946860945
 20
455.213819895339
 11
-344.137946860945
 21
455.502495029934
  0
LINE
  5
BD
100
AcDbEntity
  8
1
  6
CONTINUOUS
 62
           7
100
AcDbLine
 10
-344.637946860945
 20
455.213819895339
 11
-344.137946860945
 21
455.502495029934
  0
LINE
  5
BC
100
AcDbEntity
  8
1
  6
CONTINUOUS
 62
           3
100
AcDbLine
 10
-339.637946024013
 20
432.502495029933
 11
-342.372610817226
 21
432.502495029933
  0
LINE
  5
BB
100
AcDbEntity
  8
1
  6
CONTINUOUS
 62
           3
100
AcDbLine
 10
-343.437946860945
 20
377.502495029933
 11
-343.437946860945
 21
378.394012225342
  0
LINE
  5
BA
100
AcDbEntity
  8
1
  6
CONTINUOUS
 62
           3
100
AcDbLine
 10
-343.437946860945
 20
455.502495029934
 11
-343.437946860945
 21
431.808087443009
  0
LINE
  5
B9
100
AcDbEntity
  8
1
  6
CONTINUOUS
 62
           7
100
AcDbLine
 10
-343.437946860945
 20
377.502495029933
 11
-343.137946860945
 21
376.802495029933
  0
LINE
  5
B8
100
AcDbEntity
  8
1
  6
CONTINUOUS
 62
           7
100
AcDbLine
 10
-338.637946860945
 20
362.502495029933
 11
-338.637946860945
 21
378.222519183563
  0
LINE
  5
B7
100
AcDbEntity
  8
1
  6
CONTINUOUS
 62
           7
100
AcDbLine
 10
-342.837946860945
 20
373.502495029933
 11
-343.137946860945
 21
373.702495029933
  0
LINE
  5
B6
100
AcDbEntity
  8
1
  6
CONTINUOUS
 62
           7
100
AcDbLine
 10
-342.837946860945
 20
378.260283978788
 11
-342.837946860945
 21
371.752495029934
  0
LINE
  5
B5
100
AcDbEntity
  8
1
  6
CONTINUOUS
 62
           7
100
AcDbLine
 10
-343.137946860945
 20
373.702495029933
 11
-343.137946860945
 21
378.321337943314
  0
LINE
  5
B4
100
AcDbEntity
  8
1
  6
CONTINUOUS
 62
           7
100
AcDbLine
 10
-331.637946860945
 20
381.875240272288
 11
-331.637946860945
 21
379.600291660853
  0
LINE
  5
B3
100
AcDbEntity
  8
1
  6
CONTINUOUS
 62
           7
100
AcDbLine
 10
-337.637946860945
 20
361.502495029933
 11
-331.637946860945
 21
361.502495029933
  0
LINE
  5
B2
100
AcDbEntity
  8
1
  6
CONTINUOUS
 62
           7
100
AcDbLine
 10
-331.637946860945
 20
471.502495029934
 11
-337.637946860945
 21
471.502495029934
  0
LINE
  5
B1
100
AcDbEntity
  8
1
  6
CONTINUOUS
 62
           7
100
AcDbLine
 10
-331.637946860945
 20
471.502495029934
 11
-331.637946860945
 21
433.979502073048
  0
LINE
  5
B0
100
AcDbEntity
  8
1
  6
CONTINUOUS
 62
           7
100
AcDbLine
 10
-343.137946860945
 20
432.019897271533
 11
-343.137946860945
 21
459.302495029933
  0
LINE
  5
AF
100
AcDbEntity
  8
1
  6
CONTINUOUS
 62
           7
100
AcDbLine
 10
-342.837946860945
 20
461.252495029933
 11
-342.837946860945
 21
432.216002133746
  0
LINE
  5
AE
100
AcDbEntity
  8
1
  6
CONTINUOUS
 62
           7
100
AcDbLine
 10
-343.137946860945
 20
459.302495029933
 11
-342.837946860945
 21
459.502495029933
  0
LINE
  5
AD
100
AcDbEntity
  8
1
  6
CONTINUOUS
 62
           7
100
AcDbLine
 10
-338.637946860945
 20
434.022466939326
 11
-338.637946860945
 21
470.502495029934
  0
LINE
  5
AC
100
AcDbEntity
  8
1
  6
CONTINUOUS
 62
           7
100
AcDbLine
 10
-343.137946860945
 20
456.202495029933
 11
-343.437946860945
 21
455.502495029934
  0
LINE
  5
AB
100
AcDbEntity
  8
1
  6
CONTINUOUS
 62
           7
100
AcDbLine
 10
-331.637946860945
 20
369.813204116767
 11
-331.637946860945
 21
361.502495029933
  0
LINE
  5
AA
100
AcDbEntity
  8
1
  6
CONTINUOUS
 62
           7
100
AcDbLine
 10
-342.337946860945
 20
470.502495029933
 11
-342.337946860945
 21
463.736777921047
  0
LINE
  5
A9
100
AcDbEntity
  8
1
  6
CONTINUOUS
 62
           7
100
AcDbLine
 10
-342.637946860945
 20
463.802495029933
 11
-342.455088306502
 21
463.61963647549
  0
LINE
  5
A8
100
AcDbEntity
  8
1
  6
CONTINUOUS
 62
           7
100
AcDbLine
 10
-342.637946860945
 20
470.202495029933
 11
-342.637946860945
 21
463.802495029933
  0
LINE
  5
A7
100
AcDbEntity
  8
1
  6
CONTINUOUS
 62
           7
100
AcDbLine
 10
-342.337946860945
 20
470.502495029933
 11
-342.637946860945
 21
470.202495029933
  0
LINE
  5
A6
100
AcDbEntity
  8
1
  6
CONTINUOUS
 62
           7
100
AcDbLine
 10
-338.637946860945
 20
470.502495029934
 11
-342.337946860945
 21
470.502495029933
  0
LINE
  5
A5
100
AcDbEntity
  8
1
  6
CONTINUOUS
 62
           7
100
AcDbLine
 10
-338.637946860945
 20
463.502495029933
 11
-338.637946860945
 21
470.502495029934
  0
LINE
  5
A4
100
AcDbEntity
  8
1
  6
CONTINUOUS
 62
           7
100
AcDbLine
 10
-338.637946860945
 20
456.736777921047
 11
-338.637946860945
 21
463.736777921047
  0
LINE
  5
A3
100
AcDbEntity
  8
1
  6
CONTINUOUS
 62
           7
100
AcDbLine
 10
-338.637946860945
 20
463.736777921047
 11
-342.337946860945
 21
463.736777921047
  0
LINE
  5
A2
100
AcDbEntity
  8
1
  6
CONTINUOUS
 62
           7
100
AcDbLine
 10
-342.337946860945
 20
463.736777921047
 11
-342.637946860945
 21
463.436777921047
  0
LINE
  5
A1
100
AcDbEntity
  8
1
  6
CONTINUOUS
 62
           7
100
AcDbLine
 10
-342.637946860945
 20
463.436777921047
 11
-342.637946860945
 21
457.036777921047
  0
LINE
  5
A0
100
AcDbEntity
  8
1
  6
CONTINUOUS
 62
           7
100
AcDbLine
 10
-342.637946860945
 20
457.036777921047
 11
-342.337946860945
 21
456.736777921047
  0
LINE
  5
9F
100
AcDbEntity
  8
1
  6
CONTINUOUS
 62
           7
100
AcDbLine
 10
-342.337946860945
 20
456.736777921047
 11
-338.637946860945
 21
456.736777921047
  0
LINE
  5
9E
100
AcDbEntity
  8
1
  6
CONTINUOUS
 62
           7
100
AcDbLine
 10
-342.337946860945
 20
463.736777921047
 11
-342.337946860945
 21
456.736777921047
  0
LINE
  5
9D
100
AcDbEntity
  8
1
  6
CONTINUOUS
 62
           7
100
AcDbLine
 10
-342.337946860945
 20
445.252495029933
 11
-342.337946860945
 21
438.252495029933
  0
LINE
  5
9C
100
AcDbEntity
  8
1
  6
CONTINUOUS
 62
           7
100
AcDbLine
 10
-342.337946860945
 20
438.252495029933
 11
-338.637946860945
 21
438.252495029933
  0
LINE
  5
9B
100
AcDbEntity
  8
1
  6
CONTINUOUS
 62
           7
100
AcDbLine
 10
-342.637946860945
 20
438.552495029933
 11
-342.337946860945
 21
438.252495029933
  0
LINE
  5
9A
100
AcDbEntity
  8
1
  6
CONTINUOUS
 62
           7
100
AcDbLine
 10
-342.637946860945
 20
444.952495029933
 11
-342.637946860945
 21
438.552495029933
  0
LINE
  5
99
100
AcDbEntity
  8
1
  6
CONTINUOUS
 62
           7
100
AcDbLine
 10
-342.337946860945
 20
445.252495029933
 11
-342.637946860945
 21
444.952495029933
  0
LINE
  5
98
100
AcDbEntity
  8
1
  6
CONTINUOUS
 62
           7
100
AcDbLine
 10
-338.637946860945
 20
445.252495029933
 11
-342.337946860945
 21
445.252495029933
  0
LINE
  5
97
100
AcDbEntity
  8
1
  6
CONTINUOUS
 62
           7
100
AcDbLine
 10
-338.637946860945
 20
438.252495029933
 11
-338.637946860945
 21
445.252495029933
  0
LINE
  5
96
100
AcDbEntity
  8
1
  6
CONTINUOUS
 62
           7
100
AcDbLine
 10
-342.337946860945
 20
376.268212138819
 11
-342.337946860945
 21
369.268212138819
  0
LINE
  5
95
100
AcDbEntity
  8
1
  6
CONTINUOUS
 62
           7
100
AcDbLine
 10
-338.637946860945
 20
376.268212138819
 11
-342.337946860945
 21
376.268212138819
  0
LINE
  5
94
100
AcDbEntity
  8
1
  6
CONTINUOUS
 62
           7
100
AcDbLine
 10
-342.337946860945
 20
376.268212138819
 11
-342.637946860945
 21
375.96821213882
  0
LINE
  5
93
100
AcDbEntity
  8
1
  6
CONTINUOUS
 62
           7
100
AcDbLine
 10
-342.637946860945
 20
375.96821213882
 11
-342.637946860945
 21
369.568212138819
  0
LINE
  5
92
100
AcDbEntity
  8
1
  6
CONTINUOUS
 62
           7
100
AcDbLine
 10
-342.637946860945
 20
369.568212138819
 11
-342.337946860945
 21
369.268212138819
  0
LINE
  5
91
100
AcDbEntity
  8
1
  6
CONTINUOUS
 62
           7
100
AcDbLine
 10
-342.337946860945
 20
369.268212138819
 11
-338.637946860945
 21
369.268212138819
  0
LINE
  5
90
100
AcDbEntity
  8
1
  6
CONTINUOUS
 62
           7
100
AcDbLine
 10
-338.637946860945
 20
369.268212138819
 11
-338.637946860945
 21
376.268212138819
  0
LINE
  5
8F
100
AcDbEntity
  8
1
  6
CONTINUOUS
 62
           7
100
AcDbLine
 10
-338.637946860945
 20
362.502495029933
 11
-338.637946860945
 21
369.502495029934
  0
LINE
  5
8E
100
AcDbEntity
  8
1
  6
CONTINUOUS
 62
           7
100
AcDbLine
 10
-342.337946860945
 20
362.502495029933
 11
-338.637946860945
 21
362.502495029933
  0
LINE
  5
8D
100
AcDbEntity
  8
1
  6
CONTINUOUS
 62
           7
100
AcDbLine
 10
-342.637946860945
 20
362.802495029934
 11
-342.337946860945
 21
362.502495029933
  0
LINE
  5
8C
100
AcDbEntity
  8
1
  6
CONTINUOUS
 62
           7
100
AcDbLine
 10
-342.637946860945
 20
369.202495029934
 11
-342.637946860945
 21
362.802495029934
  0
LINE
  5
8B
100
AcDbEntity
  8
1
  6
CONTINUOUS
 62
           7
100
AcDbLine
 10
-342.455088306502
 20
369.385353584377
 11
-342.637946860945
 21
369.202495029934
  0
LINE
  5
8A
100
AcDbEntity
  8
1
  6
CONTINUOUS
 62
           7
100
AcDbLine
 10
-342.337946860945
 20
369.268212138819
 11
-342.337946860945
 21
362.502495029933
  0
LINE
  5
89
100
AcDbEntity
  8
1
  6
CONTINUOUS
 62
           7
100
AcDbLine
 10
-381.653664099597
 20
390.386469626149
 11
-380.153664099598
 21
389.520444222364
  0
LINE
  5
88
100
AcDbEntity
  8
1
  6
CONTINUOUS
 62
           7
100
AcDbLine
 10
-381.653664099597
 20
392.118520433718
 11
-381.653664099597
 21
390.386469626149
  0
LINE
  5
87
100
AcDbEntity
  8
1
  6
CONTINUOUS
 62
           7
100
AcDbLine
 10
-380.153664099598
 20
392.984545837502
 11
-381.653664099597
 21
392.118520433718
  0
LINE
  5
86
100
AcDbEntity
  8
1
  6
CONTINUOUS
 62
           7
100
AcDbLine
 10
-378.653664099597
 20
392.118520433718
 11
-380.153664099598
 21
392.984545837502
  0
LINE
  5
85
100
AcDbEntity
  8
1
  6
CONTINUOUS
 62
           7
100
AcDbLine
 10
-378.653664099598
 20
390.386469626149
 11
-378.653664099597
 21
392.118520433718
  0
LINE
  5
84
100
AcDbEntity
  8
1
  6
CONTINUOUS
 62
           7
100
AcDbLine
 10
-380.153664099598
 20
389.520444222364
 11
-378.653664099598
 21
390.386469626149
  0
LINE
  5
83
100
AcDbEntity
  8
1
  6
CONTINUOUS
 62
           7
100
AcDbLine
 10
-371.655896183142
 20
416.502495029933
 11
-372.521921586927
 21
418.002495029933
  0
LINE
  5
82
100
AcDbEntity
  8
1
  6
CONTINUOUS
 62
           7
100
AcDbLine
 10
-372.521921586927
 20
415.002495029933
 11
-371.655896183142
 21
416.502495029933
  0
LINE
  5
81
100
AcDbEntity
  8
1
  6
CONTINUOUS
 62
           7
100
AcDbLine
 10
-374.253972394496
 20
415.002495029933
 11
-372.521921586927
 21
415.002495029933
  0
LINE
  5
80
100
AcDbEntity
  8
1
  6
CONTINUOUS
 62
           7
100
AcDbLine
 10
-375.11999779828
 20
416.502495029933
 11
-374.253972394496
 21
415.002495029933
  0
LINE
  5
7F
100
AcDbEntity
  8
1
  6
CONTINUOUS
 62
           7
100
AcDbLine
 10
-374.253972394496
 20
418.002495029933
 11
-375.11999779828
 21
416.502495029933
  0
LINE
  5
7E
100
AcDbEntity
  8
1
  6
CONTINUOUS
 62
           7
100
AcDbLine
 10
-372.521921586927
 20
418.002495029933
 11
-374.253972394496
 21
418.002495029933
  0
LINE
  5
7D
100
AcDbEntity
  8
1
  6
CONTINUOUS
 62
           7
100
AcDbLine
 10
-378.653664099598
 20
442.618520433718
 11
-380.153664099598
 21
443.484545837502
  0
LINE
  5
7C
100
AcDbEntity
  8
1
  6
CONTINUOUS
 62
           7
100
AcDbLine
 10
-378.653664099597
 20
440.886469626149
 11
-378.653664099598
 21
442.618520433718
  0
LINE
  5
7B
100
AcDbEntity
  8
1
  6
CONTINUOUS
 62
           7
100
AcDbLine
 10
-380.153664099598
 20
440.020444222364
 11
-378.653664099597
 21
440.886469626149
  0
LINE
  5
7A
100
AcDbEntity
  8
1
  6
CONTINUOUS
 62
           7
100
AcDbLine
 10
-381.653664099597
 20
440.886469626149
 11
-380.153664099598
 21
440.020444222364
  0
LINE
  5
79
100
AcDbEntity
  8
1
  6
CONTINUOUS
 62
           7
100
AcDbLine
 10
-381.653664099597
 20
442.618520433718
 11
-381.653664099597
 21
440.886469626149
  0
LINE
  5
78
100
AcDbEntity
  8
1
  6
CONTINUOUS
 62
           7
100
AcDbLine
 10
-380.153664099598
 20
443.484545837502
 11
-381.653664099597
 21
442.618520433718
  0
LINE
  5
77
100
AcDbEntity
  8
1
  6
CONTINUOUS
 62
           7
100
AcDbLine
 10
-399.503972394496
 20
461.736777921047
 11
-400.36999779828
 21
460.236777921047
  0
LINE
  5
76
100
AcDbEntity
  8
1
  6
CONTINUOUS
 62
           7
100
AcDbLine
 10
-400.36999779828
 20
460.236777921047
 11
-399.503972394496
 21
458.736777921047
  0
LINE
  5
75
100
AcDbEntity
  8
1
  6
CONTINUOUS
 62
           7
100
AcDbLine
 10
-399.503972394496
 20
458.736777921047
 11
-397.771921586927
 21
458.736777921047
  0
LINE
  5
74
100
AcDbEntity
  8
1
  6
CONTINUOUS
 62
           7
100
AcDbLine
 10
-397.771921586927
 20
458.736777921047
 11
-396.905896183143
 21
460.236777921047
  0
LINE
  5
73
100
AcDbEntity
  8
1
  6
CONTINUOUS
 62
           7
100
AcDbLine
 10
-396.905896183143
 20
460.236777921047
 11
-397.771921586927
 21
461.736777921047
  0
LINE
  5
72
100
AcDbEntity
  8
1
  6
CONTINUOUS
 62
           7
100
AcDbLine
 10
-397.771921586927
 20
461.736777921047
 11
-399.503972394496
 21
461.736777921047
  0
LINE
  5
71
100
AcDbEntity
  8
1
  6
CONTINUOUS
 62
           7
100
AcDbLine
 10
-422.387946990711
 20
467.868520433717
 11
-423.887946990711
 21
468.734545837502
  0
LINE
  5
70
100
AcDbEntity
  8
1
  6
CONTINUOUS
 62
           7
100
AcDbLine
 10
-423.887946990711
 20
468.734545837502
 11
-425.387946990711
 21
467.868520433717
  0
LINE
  5
6F
100
AcDbEntity
  8
1
  6
CONTINUOUS
 62
           7
100
AcDbLine
 10
-425.387946990711
 20
467.868520433717
 11
-425.387946990711
 21
466.136469626148
  0
LINE
  5
6E
100
AcDbEntity
  8
1
  6
CONTINUOUS
 62
           7
100
AcDbLine
 10
-425.387946990711
 20
466.136469626148
 11
-423.887946990711
 21
465.270444222364
  0
LINE
  5
6D
100
AcDbEntity
  8
1
  6
CONTINUOUS
 62
           7
100
AcDbLine
 10
-423.887946990711
 20
465.270444222364
 11
-422.387946990711
 21
466.136469626148
  0
LINE
  5
6C
100
AcDbEntity
  8
1
  6
CONTINUOUS
 62
           7
100
AcDbLine
 10
-422.387946990711
 20
466.136469626148
 11
-422.387946990711
 21
467.868520433717
  0
LINE
  5
6B
100
AcDbEntity
  8
1
  6
CONTINUOUS
 62
           7
100
AcDbLine
 10
-448.271921586927
 20
461.736777921047
 11
-450.003972394496
 21
461.736777921047
  0
LINE
  5
6A
100
AcDbEntity
  8
1
  6
CONTINUOUS
 62
           7
100
AcDbLine
 10
-450.003972394496
 20
461.736777921047
 11
-450.86999779828
 21
460.236777921047
  0
LINE
  5
69
100
AcDbEntity
  8
1
  6
CONTINUOUS
 62
           7
100
AcDbLine
 10
-450.86999779828
 20
460.236777921047
 11
-450.003972394496
 21
458.736777921047
  0
LINE
  5
68
100
AcDbEntity
  8
1
  6
CONTINUOUS
 62
           7
100
AcDbLine
 10
-450.003972394496
 20
458.736777921047
 11
-448.271921586927
 21
458.736777921047
  0
LINE
  5
67
100
AcDbEntity
  8
1
  6
CONTINUOUS
 62
           7
100
AcDbLine
 10
-448.271921586927
 20
458.736777921047
 11
-447.405896183142
 21
460.236777921047
  0
LINE
  5
66
100
AcDbEntity
  8
1
  6
CONTINUOUS
 62
           7
100
AcDbLine
 10
-447.405896183142
 20
460.236777921047
 11
-448.271921586927
 21
461.736777921047
  0
LINE
  5
65
100
AcDbEntity
  8
1
  6
CONTINUOUS
 62
           7
100
AcDbLine
 10
-466.122229881826
 20
442.618520433718
 11
-467.622229881825
 21
443.484545837502
  0
LINE
  5
64
100
AcDbEntity
  8
1
  6
CONTINUOUS
 62
           7
100
AcDbLine
 10
-466.122229881826
 20
440.886469626149
 11
-466.122229881826
 21
442.618520433718
  0
LINE
  5
63
100
AcDbEntity
  8
1
  6
CONTINUOUS
 62
           7
100
AcDbLine
 10
-467.622229881825
 20
440.020444222364
 11
-466.122229881826
 21
440.886469626149
  0
LINE
  5
62
100
AcDbEntity
  8
1
  6
CONTINUOUS
 62
           7
100
AcDbLine
 10
-469.122229881826
 20
440.886469626149
 11
-467.622229881825
 21
440.020444222364
  0
LINE
  5
61
100
AcDbEntity
  8
1
  6
CONTINUOUS
 62
           7
100
AcDbLine
 10
-469.122229881825
 20
442.618520433718
 11
-469.122229881826
 21
440.886469626149
  0
LINE
  5
60
100
AcDbEntity
  8
1
  6
CONTINUOUS
 62
           7
100
AcDbLine
 10
-467.622229881825
 20
443.484545837502
 11
-469.122229881825
 21
442.618520433718
  0
LINE
  5
5F
100
AcDbEntity
  8
1
  6
CONTINUOUS
 62
           7
100
AcDbLine
 10
-473.521921586927
 20
418.002495029933
 11
-475.253972394496
 21
418.002495029933
  0
LINE
  5
5E
100
AcDbEntity
  8
1
  6
CONTINUOUS
 62
           7
100
AcDbLine
 10
-472.655896183142
 20
416.502495029933
 11
-473.521921586927
 21
418.002495029933
  0
LINE
  5
5D
100
AcDbEntity
  8
1
  6
CONTINUOUS
 62
           7
100
AcDbLine
 10
-473.521921586927
 20
415.002495029933
 11
-472.655896183142
 21
416.502495029933
  0
LINE
  5
5C
100
AcDbEntity
  8
1
  6
CONTINUOUS
 62
           7
100
AcDbLine
 10
-475.253972394496
 20
415.002495029933
 11
-473.521921586927
 21
415.002495029933
  0
LINE
  5
5B
100
AcDbEntity
  8
1
  6
CONTINUOUS
 62
           7
100
AcDbLine
 10
-476.11999779828
 20
416.502495029933
 11
-475.253972394496
 21
415.002495029933
  0
LINE
  5
5A
100
AcDbEntity
  8
1
  6
CONTINUOUS
 62
           7
100
AcDbLine
 10
-475.253972394496
 20
418.002495029933
 11
-476.11999779828
 21
416.502495029933
  0
LINE
  5
59
100
AcDbEntity
  8
1
  6
CONTINUOUS
 62
           7
100
AcDbLine
 10
-469.122229881825
 20
390.386469626149
 11
-467.622229881825
 21
389.520444222364
  0
LINE
  5
58
100
AcDbEntity
  8
1
  6
CONTINUOUS
 62
           7
100
AcDbLine
 10
-469.122229881826
 20
392.118520433718
 11
-469.122229881825
 21
390.386469626149
  0
LINE
  5
57
100
AcDbEntity
  8
1
  6
CONTINUOUS
 62
           7
100
AcDbLine
 10
-467.622229881825
 20
392.984545837502
 11
-469.122229881826
 21
392.118520433718
  0
LINE
  5
56
100
AcDbEntity
  8
1
  6
CONTINUOUS
 62
           7
100
AcDbLine
 10
-466.122229881826
 20
392.118520433718
 11
-467.622229881825
 21
392.984545837502
  0
LINE
  5
55
100
AcDbEntity
  8
1
  6
CONTINUOUS
 62
           7
100
AcDbLine
 10
-466.122229881826
 20
390.386469626149
 11
-466.122229881826
 21
392.118520433718
  0
LINE
  5
54
100
AcDbEntity
  8
1
  6
CONTINUOUS
 62
           7
100
AcDbLine
 10
-467.622229881825
 20
389.520444222364
 11
-466.122229881826
 21
390.386469626149
  0
LINE
  5
53
100
AcDbEntity
  8
1
  6
CONTINUOUS
 62
           7
100
AcDbLine
 10
-448.271921586927
 20
371.268212138819
 11
-447.405896183142
 21
372.768212138819
  0
LINE
  5
52
100
AcDbEntity
  8
1
  6
CONTINUOUS
 62
           7
100
AcDbLine
 10
-447.405896183142
 20
372.768212138819
 11
-448.271921586927
 21
374.268212138819
  0
LINE
  5
51
100
AcDbEntity
  8
1
  6
CONTINUOUS
 62
           7
100
AcDbLine
 10
-448.271921586927
 20
374.268212138819
 11
-450.003972394496
 21
374.268212138819
  0
LINE
  5
50
100
AcDbEntity
  8
1
  6
CONTINUOUS
 62
           7
100
AcDbLine
 10
-450.003972394496
 20
374.268212138819
 11
-450.86999779828
 21
372.768212138819
  0
LINE
  5
4F
100
AcDbEntity
  8
1
  6
CONTINUOUS
 62
           7
100
AcDbLine
 10
-450.86999779828
 20
372.768212138819
 11
-450.003972394496
 21
371.268212138819
  0
LINE
  5
4E
100
AcDbEntity
  8
1
  6
CONTINUOUS
 62
           7
100
AcDbLine
 10
-450.003972394496
 20
371.268212138819
 11
-448.271921586927
 21
371.268212138819
  0
LINE
  5
4D
100
AcDbEntity
  8
1
  6
CONTINUOUS
 62
           7
100
AcDbLine
 10
-425.387946990712
 20
365.136469626149
 11
-423.887946990712
 21
364.270444222364
  0
LINE
  5
4C
100
AcDbEntity
  8
1
  6
CONTINUOUS
 62
           7
100
AcDbLine
 10
-423.887946990712
 20
364.270444222364
 11
-422.387946990712
 21
365.136469626149
  0
LINE
  5
4B
100
AcDbEntity
  8
1
  6
CONTINUOUS
 62
           7
100
AcDbLine
 10
-422.387946990712
 20
365.136469626149
 11
-422.387946990712
 21
366.868520433718
  0
LINE
  5
4A
100
AcDbEntity
  8
1
  6
CONTINUOUS
 62
           7
100
AcDbLine
 10
-422.387946990712
 20
366.868520433718
 11
-423.887946990712
 21
367.734545837502
  0
LINE
  5
49
100
AcDbEntity
  8
1
  6
CONTINUOUS
 62
           7
100
AcDbLine
 10
-423.887946990712
 20
367.734545837502
 11
-425.387946990712
 21
366.868520433718
  0
LINE
  5
48
100
AcDbEntity
  8
1
  6
CONTINUOUS
 62
           7
100
AcDbLine
 10
-425.387946990712
 20
366.868520433718
 11
-425.387946990712
 21
365.136469626149
  0
LINE
  5
47
100
AcDbEntity
  8
1
  6
CONTINUOUS
 62
           7
100
AcDbLine
 10
-399.503972394496
 20
371.268212138819
 11
-397.771921586927
 21
371.268212138819
  0
LINE
  5
46
100
AcDbEntity
  8
1
  6
CONTINUOUS
 62
           7
100
AcDbLine
 10
-397.771921586927
 20
371.268212138819
 11
-396.905896183143
 21
372.768212138819
  0
LINE
  5
45
100
AcDbEntity
  8
1
  6
CONTINUOUS
 62
           7
100
AcDbLine
 10
-396.905896183143
 20
372.768212138819
 11
-397.771921586927
 21
374.268212138819
  0
LINE
  5
44
100
AcDbEntity
  8
1
  6
CONTINUOUS
 62
           7
100
AcDbLine
 10
-397.771921586927
 20
374.268212138819
 11
-399.503972394496
 21
374.268212138819
  0
LINE
  5
43
100
AcDbEntity
  8
1
  6
CONTINUOUS
 62
           7
100
AcDbLine
 10
-399.503972394496
 20
374.268212138819
 11
-400.36999779828
 21
372.768212138819
  0
LINE
  5
42
100
AcDbEntity
  8
1
  6
CONTINUOUS
 62
           7
100
AcDbLine
 10
-400.36999779828
 20
372.768212138819
 11
-399.503972394496
 21
371.268212138819
  0
LINE
  5
41
100
AcDbEntity
  8
1
  6
DASH_CENTER
 62
           3
100
AcDbLine
 10
-267.050847943312
 20
416.502495029933
 11
-348.752963151109
 21
416.502495029933
  0
LINE
  5
40
100
AcDbEntity
  8
1
  6
DASH_CENTER
 62
           3
100
AcDbLine
 10
-107.192792855255
 20
416.502495029933
 11
-254.67200137147
 21
416.502495029933
  0
LINE
  5
3F
100
AcDbEntity
  8
1
  6
DASH_CENTER
 62
           3
100
AcDbLine
 10
-180.300315619379
 20
490.228060908032
 11
-180.300315619379
 21
342.589930830914
  0
LINE
  5
3E
100
AcDbEntity
  8
1
  6
DASH_CENTER
 62
           3
100
AcDbLine
 10
-423.887946990712
 20
354.502495029933
 11
-423.887946990712
 21
478.502495029933
  0
LINE
  5
3D
100
AcDbEntity
  8
1
  6
DASH_CENTER
 62
           3
100
AcDbLine
 10
-484.287946990711
 20
416.502495029934
 11
-361.887946990712
 21
416.502495029933
  0
LINE
  5
3C
100
AcDbEntity
  8
1
  6
CONTINUOUS
 62
           7
100
AcDbLine
 10
-270.637951391729
 20
485.002495029933
 11
-270.637951391729
 21
348.002495029933
  0
LINE
  5
3B
100
AcDbEntity
  8
1
  6
CONTINUOUS
 62
           7
100
AcDbLine
 10
-273.137951486729
 20
434.502494255083
 11
-273.137951486729
 21
398.502495804783
  0
LINE
  5
3A
100
AcDbEntity
  8
1
  6
CONTINUOUS
 62
           7
100
AcDbLine
 10
-274.637946990711
 20
431.502495029933
 11
-274.637946990711
 21
401.502495029933
  0
LINE
  5
39
100
AcDbEntity
  8
1
  6
CONTINUOUS
 62
           7
100
AcDbLine
 10
-275.637946954713
 20
426.502495029933
 11
-275.637946954713
 21
406.502495029933
  0
LINE
  5
38
100
AcDbEntity
  8
1
  6
CONTINUOUS
 62
           7
100
AcDbLine
 10
-276.037946954713
 20
421.502495029933
 11
-297.237946954713
 21
421.502495029933
  0
LINE
  5
37
100
AcDbEntity
  8
1
  6
CONTINUOUS
 62
           7
100
AcDbLine
 10
-297.637946954713
 20
445.966495029934
 11
-297.637946954713
 21
389.561049191694
  0
LINE
  5
36
100
AcDbEntity
  8
1
  6
CONTINUOUS
 62
           7
100
AcDbLine
 10
-287.637946990711
 20
348.002495029933
 11
-287.637946990711
 21
351.002495029933
  0
LINE
  5
35
100
AcDbEntity
  8
1
  6
CONTINUOUS
 62
           7
100
AcDbLine
 10
-287.637946990711
 20
351.002495029933
 11
-272.637951391729
 21
351.002495029933
  0
LINE
  5
34
100
AcDbEntity
  8
1
  6
CONTINUOUS
 62
           7
100
AcDbLine
 10
-287.637946990711
 20
371.102495029933
 11
-287.637946990711
 21
354.002495029933
  0
LINE
  5
33
100
AcDbEntity
  8
1
  6
DASH_CENTER
 62
           3
100
AcDbLine
 10
-301.853489148535
 20
354.002495029933
 11
-261.853489148535
 21
354.002495029933
  0
LINE
  5
32
100
AcDbEntity
  8
1
  6
CONTINUOUS
 62
           7
100
AcDbLine
 10
-284.637946990711
 20
386.017645990292
 11
-284.637946990711
 21
372.002495029933
  0
LINE
  5
31
100
AcDbEntity
  8
1
  6
CONTINUOUS
 62
           7
100
AcDbLine
 10
-284.637946990711
 20
461.002495029934
 11
-284.637946990711
 21
451.347416138895
  0
LINE
  5
30
100
AcDbEntity
  8
1
  6
CONTINUOUS
 62
           3
100
AcDbLine
 10
-281.137946954713
 20
426.502495029933
 11
-281.137946954713
 21
421.502495029933
  0
INSERT
  5
2C
100
AcDbEntity
  8
0
100
AcDbBlockReference
  2
WBG_025_F
 10
0.0
 20
0.0
  0
CIRCLE
  5
271
100
AcDbEntity
  8
0
 62
           7
100
AcDbCircle
 10
-430.393565340918
 20
432.208447082625
 40
0.5
  0
HATCH
  5
272
100
AcDbEntity
  8
0
 62
           7
100
AcDbHatch
 10
0.0
 20
0.0
 30
0.0
210
0.0
220
0.0
230
1.0
  2
SOLID
 70
           1
 71
           1
 91
        1
 92
        1
 93
        1
 72
           2
 10
-430.39356534091792
 20
432.20844708262479
 40
0.5
 50
-180.0
 51
180.0
 73
           1
 97
        1
330
271
 75
           0
 76
           1
 98
        1
 10
0.0
 20
0.0
  0
CIRCLE
  5
274
100
AcDbEntity
  8
0
 62
           7
100
AcDbCircle
 10
-417.382328640505
 20
432.208447082625
 40
0.5
  0
HATCH
  5
275
100
AcDbEntity
  8
0
 62
           7
100
AcDbHatch
 10
0.0
 20
0.0
 30
0.0
210
0.0
220
0.0
230
1.0
  2
SOLID
 70
           1
 71
           1
 91
        1
 92
        1
 93
        1
 72
           2
 10
-417.38232864050502
 20
432.20844708262479
 40
0.5
 50
-180.0
 51
180.0
 73
           1
 97
        1
330
274
 75
           0
 76
           1
 98
        1
 10
0.0
 20
0.0
  0
CIRCLE
  5
277
100
AcDbEntity
  8
0
 62
           7
100
AcDbCircle
 10
-408.18199493802
 20
423.00811338014
 40
0.5
  0
HATCH
  5
278
100
AcDbEntity
  8
0
 62
           7
100
AcDbHatch
 10
0.0
 20
0.0
 30
0.0
210
0.0
220
0.0
230
1.0
  2
SOLID
 70
           1
 71
           1
 91
        1
 92
        1
 93
        1
 72
           2
 10
-408.18199493801973
 20
423.00811338014
 40
0.5
 50
-180.0
 51
180.0
 73
           1
 97
        1
330
277
 75
           0
 76
           1
 98
        1
 10
0.0
 20
0.0
  0
CIRCLE
  5
27A
100
AcDbEntity
  8
0
 62
           7
100
AcDbCircle
 10
-408.18199493802
 20
409.996876679727
 40
0.5
  0
HATCH
  5
27B
100
AcDbEntity
  8
0
 62
           7
100
AcDbHatch
 10
0.0
 20
0.0
 30
0.0
210
0.0
220
0.0
230
1.0
  2
SOLID
 70
           1
 71
           1
 91
        1
 92
        1
 93
        1
 72
           2
 10
-408.18199493801973
 20
409.99687667972722
 40
0.5
 50
-180.0
 51
180.0
 73
           1
 97
        1
330
27A
 75
           0
 76
           1
 98
        1
 10
0.0
 20
0.0
  0
CIRCLE
  5
27D
100
AcDbEntity
  8
0
 62
           7
100
AcDbCircle
 10
-417.382328640505
 20
400.796542977242
 40
0.5
  0
HATCH
  5
27E
100
AcDbEntity
  8
0
 62
           7
100
AcDbHatch
 10
0.0
 20
0.0
 30
0.0
210
0.0
220
0.0
230
1.0
  2
SOLID
 70
           1
 71
           1
 91
        1
 92
        1
 93
        1
 72
           2
 10
-417.38232864050502
 20
400.79654297724159
 40
0.5
 50
-180.0
 51
180.0
 73
           1
 97
        1
330
27D
 75
           0
 76
           1
 98
        1
 10
0.0
 20
0.0
  0
CIRCLE
  5
280
100
AcDbEntity
  8
0
 62
           7
100
AcDbCircle
 10
-430.393565340918
 20
400.796542977242
 40
0.5
  0
HATCH
  5
281
100
AcDbEntity
  8
0
 62
           7
100
AcDbHatch
 10
0.0
 20
0.0
 30
0.0
210
0.0
220
0.0
230
1.0
  2
SOLID
 70
           1
 71
           1
 91
        1
 92
        1
 93
        1
 72
           2
 10
-430.39356534091792
 20
400.79654297724198
 40
0.5
 50
-180.0
 51
180.0
 73
           1
 97
        1
330
280
 75
           0
 76
           1
 98
        1
 10
0.0
 20
0.0
  0
CIRCLE
  5
283
100
AcDbEntity
  8
0
 62
           7
100
AcDbCircle
 10
-439.593899043403
 20
409.996876679727
 40
0.5
  0
HATCH
  5
284
100
AcDbEntity
  8
0
 62
           7
100
AcDbHatch
 10
0.0
 20
0.0
 30
0.0
210
0.0
220
0.0
230
1.0
  2
SOLID
 70
           1
 71
           1
 91
        1
 92
        1
 93
        1
 72
           2
 10
-439.59389904340321
 20
409.99687667972682
 40
0.5
 50
-180.0
 51
180.0
 73
           1
 97
        1
330
283
 75
           0
 76
           1
 98
        1
 10
0.0
 20
0.0
  0
CIRCLE
  5
286
100
AcDbEntity
  8
0
 62
           7
100
AcDbCircle
 10
-439.593899043403
 20
423.00811338014
 40
0.5
  0
HATCH
  5
287
100
AcDbEntity
  8
0
 62
           7
100
AcDbHatch
 10
0.0
 20
0.0
 30
0.0
210
0.0
220
0.0
230
1.0
  2
SOLID
 70
           1
 71
           1
 91
        1
 92
        1
 93
        1
 72
           2
 10
-439.5938990434031
 20
423.00811338013978
 40
0.5
 50
-180.0
 51
180.0
 73
           1
 97
        1
330
286
 75
           0
 76
           1
 98
        1
 10
0.0
 20
0.0
  0
CIRCLE
  5
289
100
AcDbEntity
  8
0
 62
           7
100
AcDbCircle
 10
-438.030082614443
 20
430.644630653664
 40
0.5
  0
HATCH
  5
28A
100
AcDbEntity
  8
0
 62
           7
100
AcDbHatch
 10
0.0
 20
0.0
 30
0.0
210
0.0
220
0.0
230
1.0
  2
SOLID
 70
           1
 71
           1
 91
        1
 92
        1
 93
        1
 72
           2
 10
-438.03008261444262
 20
430.64463065366408
 40
0.5
 50
-180.0
 51
180.0
 73
           1
 97
        1
330
289
 75
           0
 76
           1
 98
        1
 10
0.0
 20
0.0
  0
CIRCLE
  5
28C
100
AcDbEntity
  8
0
 62
           7
100
AcDbCircle
 10
-423.887946990712
 20
436.502495029933
 40
0.5
  0
HATCH
  5
28D
100
AcDbEntity
  8
0
 62
           7
100
AcDbHatch
 10
0.0
 20
0.0
 30
0.0
210
0.0
220
0.0
230
1.0
  2
SOLID
 70
           1
 71
           1
 91
        1
 92
        1
 93
        1
 72
           2
 10
-423.88794699071161
 20
436.50249502993319
 40
0.5
 50
-180.0
 51
180.0
 73
           1
 97
        1
330
28C
 75
           0
 76
           1
 98
        1
 10
0.0
 20
0.0
  0
CIRCLE
  5
28F
100
AcDbEntity
  8
0
 62
           7
100
AcDbCircle
 10
-409.745811366981
 20
430.644630653664
 40
0.5
  0
HATCH
  5
290
100
AcDbEntity
  8
0
 62
           7
100
AcDbHatch
 10
0.0
 20
0.0
 30
0.0
210
0.0
220
0.0
230
1.0
  2
SOLID
 70
           1
 71
           1
 91
        1
 92
        1
 93
        1
 72
           2
 10
-409.74581136698072
 20
430.64463065366448
 40
0.5
 50
-180.0
 51
180.0
 73
           1
 97
        1
330
28F
 75
           0
 76
           1
 98
        1
 10
0.0
 20
0.0
  0
CIRCLE
  5
292
100
AcDbEntity
  8
0
 62
           7
100
AcDbCircle
 10
-403.887946990711
 20
416.502495029933
 40
0.5
  0
HATCH
  5
293
100
AcDbEntity
  8
0
 62
           7
100
AcDbHatch
 10
0.0
 20
0.0
 30
0.0
210
0.0
220
0.0
230
1.0
  2
SOLID
 70
           1
 71
           1
 91
        1
 92
        1
 93
        1
 72
           2
 10
-403.88794699071133
 20
416.50249502993319
 40
0.5
 50
-180.0
 51
180.0
 73
           1
 97
        1
330
292
 75
           0
 76
           1
 98
        1
 10
0.0
 20
0.0
  0
CIRCLE
  5
295
100
AcDbEntity
  8
0
 62
           7
100
AcDbCircle
 10
-443.887946990712
 20
416.502495029933
 40
0.5
  0
HATCH
  5
296
100
AcDbEntity
  8
0
 62
           7
100
AcDbHatch
 10
0.0
 20
0.0
 30
0.0
210
0.0
220
0.0
230
1.0
  2
SOLID
 70
           1
 71
           1
 91
        1
 92
        1
 93
        1
 72
           2
 10
-443.8879469907115
 20
416.50249502993319
 40
0.5
 50
-180.0
 51
180.0
 73
           1
 97
        1
330
295
 75
           0
 76
           1
 98
        1
 10
0.0
 20
0.0
  0
CIRCLE
  5
298
100
AcDbEntity
  8
0
 62
           7
100
AcDbCircle
 10
-438.030082614443
 20
402.360359406202
 40
0.5
  0
HATCH
  5
299
100
AcDbEntity
  8
0
 62
           7
100
AcDbHatch
 10
0.0
 20
0.0
 30
0.0
210
0.0
220
0.0
230
1.0
  2
SOLID
 70
           1
 71
           1
 91
        1
 92
        1
 93
        1
 72
           2
 10
-438.03008261444262
 20
402.36035940620212
 40
0.5
 50
-180.0
 51
180.0
 73
           1
 97
        1
330
298
 75
           0
 76
           1
 98
        1
 10
0.0
 20
0.0
  0
CIRCLE
  5
29B
100
AcDbEntity
  8
0
 62
           7
100
AcDbCircle
 10
-423.887946990711
 20
396.502495029933
 40
0.5
  0
HATCH
  5
29C
100
AcDbEntity
  8
0
 62
           7
100
AcDbHatch
 10
0.0
 20
0.0
 30
0.0
210
0.0
220
0.0
230
1.0
  2
SOLID
 70
           1
 71
           1
 91
        1
 92
        1
 93
        1
 72
           2
 10
-423.88794699071138
 20
396.50249502993319
 40
0.5
 50
-180.0
 51
180.0
 73
           1
 97
        1
330
29B
 75
           0
 76
           1
 98
        1
 10
0.0
 20
0.0
  0
CIRCLE
  5
29E
100
AcDbEntity
  8
0
 62
           7
100
AcDbCircle
 10
-409.74581136698
 20
402.360359406202
 40
0.5
  0
HATCH
  5
29F
100
AcDbEntity
  8
0
 62
           7
100
AcDbHatch
 10
0.0
 20
0.0
 30
0.0
210
0.0
220
0.0
230
1.0
  2
SOLID
 70
           1
 71
           1
 91
        1
 92
        1
 93
        1
 72
           2
 10
-409.74581136698021
 20
402.36035940620212
 40
0.5
 50
-180.0
 51
180.0
 73
           1
 97
        1
330
29E
 75
           0
 76
           1
 98
        1
 10
0.0
 20
0.0
  0
ENDSEC
  0
SECTION
  2
OBJECTS
  0
DICTIONARY
  5
19
100
AcDbDictionary
  3
ACAD_GROUP
350
1A
  3
ACAD_MLINESTYLE
350
1B
  0
DICTIONARY
  5
1A
102
{ACAD_REACTORS
330
19
102
}
100
AcDbDictionary
  0
DICTIONARY
  5
1B
102
{ACAD_REACTORS
330
19
102
}
100
AcDbDictionary
  3
STANDARD
350
1C
  0
MLINESTYLE
  5
1C
102
{ACAD_REACTORS
330
1B
102
}
100
AcDbMlineStyle
  2
STANDARD
 70
           0
  3

 62
           0
 51
90.0
 52
90.0
 71
           2
 49
0.5
 62
         256
  6
BYLAYER
 49
-0.5
 62
         256
  6
BYLAYER
  0
ENDSEC
  0
EOF
