  0
SECTION
  2
HEADER
  9
$ACADVER
  1
AC1014
  9
$ACADMAINTVER
 70
           0
  9
$DWGCODEPAGE
  3
DOS932
  9
$INSBASE
 10
0.0
 20
0.0
 30
0.0
  9
$EXTMIN
 10
1.000000000000E+20
 20
1.000000000000E+20
 30
1.000000000000E+20
  9
$EXTMAX
 10
-1.000000000000E+20
 20
-1.000000000000E+20
 30
-1.000000000000E+20
  9
$LIMMIN
 10
0.0
 20
0.0
  9
$LIMMAX
 10
0.0
 20
0.0
  9
$ORTHOMODE
 70
           0
  9
$REGENMODE
 70
           1
  9
$FILLMODE
 70
           1
  9
$QTEXTMODE
 70
           0
  9
$MIRRTEXT
 70
           1
  9
$DRAGMODE
 70
           2
  9
$LTSCALE
 40
1.0
  9
$OSMODE
 70
           0
  9
$ATTMODE
 70
           1
  9
$TEXTSIZE
 40
0.2
  9
$TRACEWID
 40
0.05
  9
$TEXTSTYLE
  7
STANDARD
  9
$CLAYER
  8
0
  9
$CELTYPE
  6
CONTINUOUS
  9
$CECOLOR
 62
         256
  9
$CELTSCALE
 40
1.0
  9
$DELOBJ
 70
           1
  9
$DISPSILH
 70
           0
  9
$DIMSCALE
 40
1.0
  9
$DIMASZ
 40
0.18
  9
$DIMEXO
 40
0.0625
  9
$DIMDLI
 40
0.38
  9
$DIMRND
 40
0.0
  9
$DIMDLE
 40
0.0
  9
$DIMEXE
 40
0.18
  9
$DIMTP
 40
0.0
  9
$DIMTM
 40
0.0
  9
$DIMTXT
 40
0.18
  9
$DIMCEN
 40
0.09
  9
$DIMTSZ
 40
0.0
  9
$DIMTOL
 70
           0
  9
$DIMLIM
 70
           0
  9
$DIMTIH
 70
           1
  9
$DIMTOH
 70
           1
  9
$DIMSE1
 70
           0
  9
$DIMSE2
 70
           0
  9
$DIMTAD
 70
           0
  9
$DIMZIN
 70
           0
  9
$DIMBLK
  1

  9
$DIMASO
 70
           1
  9
$DIMSHO
 70
           1
  9
$DIMPOST
  1

  9
$DIMAPOST
  1

  9
$DIMALT
 70
           0
  9
$DIMALTD
 70
           2
  9
$DIMALTF
 40
25.4
  9
$DIMLFAC
 40
1.0
  9
$DIMTOFL
 70
           0
  9
$DIMTVP
 40
0.0
  9
$DIMTIX
 70
           0
  9
$DIMSOXD
 70
           0
  9
$DIMSAH
 70
           0
  9
$DIMBLK1
  1

  9
$DIMBLK2
  1

  9
$DIMSTYLE
  2
STANDARD
  9
$DIMCLRD
 70
           0
  9
$DIMCLRE
 70
           0
  9
$DIMCLRT
 70
           0
  9
$DIMTFAC
 40
1.0
  9
$DIMGAP
 40
0.09
  9
$DIMJUST
 70
           0
  9
$DIMSD1
 70
           0
  9
$DIMSD2
 70
           0
  9
$DIMTOLJ
 70
           1
  9
$DIMTZIN
 70
           0
  9
$DIMALTZ
 70
           0
  9
$DIMALTTZ
 70
           0
  9
$DIMFIT
 70
           3
  9
$DIMUPT
 70
           0
  9
$DIMUNIT
 70
           2
  9
$DIMDEC
 70
           4
  9
$DIMTDEC
 70
           4
  9
$DIMALTU
 70
           2
  9
$DIMALTTD
 70
           2
  9
$DIMTXSTY
  7
STANDARD
  9
$DIMAUNIT
 70
           0
  9
$LUNITS
 70
           2
  9
$LUPREC
 70
           4
  9
$SKETCHINC
 40
0.1
  9
$FILLETRAD
 40
0.0
  9
$AUNITS
 70
           0
  9
$AUPREC
 70
           0
  9
$MENU
  1
acad
  9
$ELEVATION
 40
0.0
  9
$PELEVATION
 40
0.0
  9
$THICKNESS
 40
0.0
  9
$LIMCHECK
 70
           0
  9
$BLIPMODE
 70
           1
  9
$CHAMFERA
 40
0.0
  9
$CHAMFERB
 40
0.0
  9
$CHAMFERC
 40
0.0
  9
$CHAMFERD
 40
0.0
  9
$SKPOLY
 70
           0
  9
$TDCREATE
 40
0.000000000
  9
$TDUPDATE
 40
0.000000000
  9
$TDINDWG
 40
0.0000000000
  9
$TDUSRTIMER
 40
0.0000000000
  9
$USRTIMER
 70
           1
  9
$ANGBASE
 50
0.0
  9
$ANGDIR
 70
           0
  9
$PDMODE
 70
           0
  9
$PDSIZE
 40
0.0
  9
$PLINEWID
 40
0.0
  9
$COORDS
 70
           0
  9
$SPLFRAME
 70
           0
  9
$SPLINETYPE
 70
           6
  9
$SPLINESEGS
 70
           8
  9
$ATTDIA
 70
           0
  9
$ATTREQ
 70
           1
  9
$HANDLING
 70
           1
  9
$HANDSEED
  5
292
  9
$SURFTAB1
 70
           6
  9
$SURFTAB2
 70
           6
  9
$SURFTYPE
 70
           6
  9
$SURFU
 70
           6
  9
$SURFV
 70
           6
  9
$UCSNAME
  2

  9
$UCSORG
 10
0.0
 20
0.0
 30
0.0
  9
$UCSXDIR
 10
1.0
 20
0.0
 30
0.0
  9
$UCSYDIR
 10
0.0
 20
1.0
 30
0.0
  9
$PUCSNAME
  2

  9
$PUCSORG
 10
0.0
 20
0.0
 30
0.0
  9
$PUCSXDIR
 10
1.0
 20
0.0
 30
0.0
  9
$PUCSYDIR
 10
0.0
 20
1.0
 30
0.0
  9
$USERI1
 70
           0
  9
$USERI2
 70
           0
  9
$USERI3
 70
           0
  9
$USERI4
 70
           0
  9
$USERI5
 70
           0
  9
$USERR1
 40
0.0
  9
$USERR2
 40
0.0
  9
$USERR3
 40
0.0
  9
$USERR4
 40
0.0
  9
$USERR5
 40
0.0
  9
$WORLDVIEW
 70
           1
  9
$SHADEDGE
 70
           3
  9
$SHADEDIF
 70
          70
  9
$TILEMODE
 70
           1
  9
$MAXACTVP
 70
          16
  9
$PINSBASE
 10
0.0
 20
0.0
 30
0.0
  9
$PLIMCHECK
 70
           0
  9
$PEXTMIN
 10
1.000000000000E+20
 20
1.000000000000E+20
 30
1.000000000000E+20
  9
$PEXTMAX
 10
-1.000000000000E+20
 20
-1.000000000000E+20
 30
-1.000000000000E+20
  9
$PLIMMIN
 10
0.0
 20
0.0
  9
$PLIMMAX
 10
12.0
 20
9.0
  9
$UNITMODE
 70
           0
  9
$VISRETAIN
 70
           0
  9
$PLINEGEN
 70
           1
  9
$PSLTSCALE
 70
           0
  9
$TREEDEPTH
 70
        3020
  9
$PICKSTYLE
 70
           1
  9
$CMLSTYLE
  2
STANDARD
  9
$CMLJUST
 70
           0
  9
$CMLSCALE
 40
1.0
  9
$PROXYGRAPHICS
 70
           0
  9
$MEASUREMENT
 70
           0
  0
ENDSEC
  0
SECTION
  2
CLASSES
  0
CLASS
  1
LWPOLYLINE
  2
AcDbPolyline
  3
"AutoCAD"
 90
        0
280
           0
281
           1
  0
CLASS
  1
IMAGE
  2
AcDbRasterImage
  3
ISM
 90
      127
280
           0
281
           1
  0
CLASS
  1
OLE2FRAME
  2
AcDbOle2Frame
  3
""
 90
        0
280
           0
281
           1
  0
CLASS
  1
HATCH
  2
AcDbHatch
  3
"ACAD_SEDONA"
 90
        0
280
           0
281
           1
  0
CLASS
  1
DICTIONARYVAR
  2
AcDbDictionaryVar
  3
"AutoCAD"
 90
        0
280
           0
281
           0
  0
CLASS
  1
RASTERVARIABLES
  2
AcDbRasterVariables
  3
ISM
 90
        0
280
           0
281
           0
  0
CLASS
  1
IMAGEDEF
  2
AcDbRasterImageDef
  3
ISM
 90
        0
280
           0
281
           0
  0
CLASS
  1
IMAGEDEF_REACTOR
  2
AcDbRasterImageDefReactor
  3
ISM
 90
        1
280
           0
281
           0
  0
CLASS
  1
IDBUFFER
  2
AcDbIdBuffer
  3
"Acad"
 90
        0
280
           0
281
           0
  0
CLASS
  1
SPATIAL_FILTER
  2
AcDbSpatialFilter
  3
"Acad"
 90
        0
280
           0
281
           0
  0
CLASS
  1
XRECORD
  2
AcDbXrecord
  3
"<Built In>"
 90
        0
280
           0
281
           0
  0
CLASS
  1
SORTENTSTABLE
  2
AcDbSortentsTable
  3
"AutoCAD"
 90
        0
280
           0
281
           0
  0
CLASS
  1
LAYER_INDEX
  2
AcDbLayerIndex
  3
"Acad"
 90
        0
280
           0
281
           0
  0
CLASS
  1
SPATIAL_INDEX
  2
AcDbSpatialIndex
  3
"Acad"
 90
        0
280
           0
281
           0
  0
CLASS
  1
OBJECT_PTR
  2
CAseDLPNTableRecord
  3
"ASE-LPNTableRecord"
 90
        1
280
           0
281
           0
  0
CLASS
  1
LAYOUT
  2
AcDbLayout
  3
"AutoCAD 2000"
 90
        1
280
           0
281
           0
  0
CLASS
  1
PLOTSETTINGS
  2
AcDbPlotSettings
  3
"AutoCAD 2000"
 90
        1
280
           0
281
           0
  0
CLASS
  1
ACDBDICTIONARYWDFLT
  2
AcDbDictionaryWithDefault
  3
"AutoCAD 2000"
 90
        1
280
           0
281
           0
  0
CLASS
  1
ACDBPLACEHOLDER
  2
AcDbPlaceHolder
  3
"AutoCAD 2000"
 90
        1
280
           0
281
           0
  0
CLASS
  1
VBA_PROJECT
  2
AcDbVbaProject
  3
"acadvba"
 90
        1
280
           0
281
           0
  0
CLASS
  1
WIPEOUT
  2
AcDbWipeout
  3
WipeOut|AutoCAD Express Tool|expresstools@autodesk.com
 90
      127
280
           0
281
           1
  0
CLASS
  1
WIPEOUTVARIABLES
  2
AcDbWipeoutVariables
  3
WipeOut|AutoCAD Express Tool|expresstools@autodesk.com
 90
        0
280
           0
281
           0
  0
CLASS
  1
RTEXT
  2
RText
  3
RText|AutoCAD Express Tool|expresstools@autodesk.com
 90
        0
280
           0
281
           1
  0
CLASS
  1
ARCALIGNEDTEXT
  2
AcDbArcAlignedText
  3
ATEXT|AutoCAD Express Tool|expresstools@autodesk.com
 90
        0
280
           0
281
           1
  0
ENDSEC
  0
SECTION
  2
TABLES
  0
TABLE
  2
VPORT
  5
7
100
AcDbSymbolTable
 70
           1
  0
VPORT
  5
15
100
AcDbSymbolTableRecord
100
AcDbViewportTableRecord
  2
*ACTIVE
 70
           0
 10
0.0
 20
0.0
 11
1.0
 21
1.0
 12
6.591288
 22
4.579184
 13
0.0
 23
0.0
 14
1.0
 24
1.0
 15
0.0
 25
0.0
 16
0.0
 26
0.0
 36
1.0
 17
0.0
 27
0.0
 37
0.0
 40
9.158369
 41
0.688564
 42
50.0
 43
0.0
 44
0.0
 50
0.0
 51
0.0
 71
           0
 72
         100
 73
           1
 74
           1
 75
           0
 76
           0
 77
           0
 78
           0
  0
ENDTAB
  0
TABLE
  2
LTYPE
  5
4
100
AcDbSymbolTable
 70
          10
  0
LTYPE
  5
11
100
AcDbSymbolTableRecord
100
AcDbLinetypeTableRecord
  2
BYBLOCK
 70
          64
  3

 72
          65
 73
           0
 40
0.0
  0
LTYPE
  5
12
100
AcDbSymbolTableRecord
100
AcDbLinetypeTableRecord
  2
BYLAYER
 70
          64
  3

 72
          65
 73
           0
 40
0.0
  0
LTYPE
  5
13
100
AcDbSymbolTableRecord
100
AcDbLinetypeTableRecord
  2
CONTINUOUS
 70
          64
  3
Solid line
 72
          65
 73
           0
 40
0.0
  0
LTYPE
  5
1D
100
AcDbSymbolTableRecord
100
AcDbLinetypeTableRecord
  2
DASHED
 70
          64
  3
Dashed
 72
          65
 73
           2
 40
15.0
 49
12.0
 74
           0
 49
-3.0
 74
           0
  0
LTYPE
  5
1E
100
AcDbSymbolTableRecord
100
AcDbLinetypeTableRecord
  2
DOTTED
 70
          64
  3
Dotted
 72
          65
 73
           2
 40
3.5
 49
0.5
 74
           0
 49
-3.0
 74
           0
  0
LTYPE
  5
1F
100
AcDbSymbolTableRecord
100
AcDbLinetypeTableRecord
  2
DOT_CENTER
 70
          64
  3
Dot_Center
 72
          65
 73
           4
 40
2.0
 49
1.25
 74
           0
 49
-0.25
 74
           0
 49
0.25
 74
           0
 49
-0.25
 74
           0
  0
LTYPE
  5
20
100
AcDbSymbolTableRecord
100
AcDbLinetypeTableRecord
  2
LONG_DASHED
 70
          64
  3
Long_Dashed
 72
          65
 73
           2
 40
2.0
 49
1.5
 74
           0
 49
-0.5
 74
           0
  0
LTYPE
  5
21
100
AcDbSymbolTableRecord
100
AcDbLinetypeTableRecord
  2
DASH_CENTER
 70
          64
  3
Dash_Center
 72
          65
 73
           4
 40
36.0
 49
24.0
 74
           0
 49
-3.0
 74
           0
 49
6.0
 74
           0
 49
-3.0
 74
           0
  0
LTYPE
  5
22
100
AcDbSymbolTableRecord
100
AcDbLinetypeTableRecord
  2
PHANTOM
 70
          64
  3
Phantom
 72
          65
 73
           6
 40
2.5
 49
1.25
 74
           0
 49
-0.25
 74
           0
 49
0.25
 74
           0
 49
-0.25
 74
           0
 49
0.25
 74
           0
 49
-0.25
 74
           0
  0
LTYPE
  5
23
100
AcDbSymbolTableRecord
100
AcDbLinetypeTableRecord
  2
CENTER_DASH_DASH
 70
          64
  3
Center_Dash_Dash
 72
          65
 73
           6
 40
22.0
 49
12.0
 74
           0
 49
-3.0
 74
           0
 49
0.5
 74
           0
 49
-3.0
 74
           0
 49
0.5
 74
           0
 49
-3.0
 74
           0
  0
ENDTAB
  0
TABLE
  2
LAYER
  5
2
100
AcDbSymbolTable
 70
           3
  0
LAYER
  5
14
100
AcDbSymbolTableRecord
100
AcDbLayerTableRecord
  2
0
 70
           0
 62
           7
  6
CONTINUOUS
  0
LAYER
  5
24
100
AcDbSymbolTableRecord
100
AcDbLayerTableRecord
  2
1
 70
           0
 62
           7
  6
CONTINUOUS
  0
LAYER
  5
25
100
AcDbSymbolTableRecord
100
AcDbLayerTableRecord
  2
2
 70
           0
 62
           7
  6
CONTINUOUS
  0
ENDTAB
  0
TABLE
  2
STYLE
  5
3
100
AcDbSymbolTable
 70
           2
  0
STYLE
  5
17
100
AcDbSymbolTableRecord
100
AcDbTextStyleTableRecord
  2
STANDARD
 70
           0
 40
0.0
 41
1.0
 50
0.0
 71
           0
 42
0.0
  3
txt
  4

  0
STYLE
  5
28F
100
AcDbSymbolTableRecord
100
AcDbTextStyleTableRecord
  2
CONVERTER_1
 70
           0
 40
0.0
 41
0.9
 50
0.0
 71
           0
 42
0.0
  3
txt.shx
  4

  0
ENDTAB
  0
TABLE
  2
VIEW
  5
5
100
AcDbSymbolTable
 70
           0
  0
ENDTAB
  0
TABLE
  2
UCS
  5
6
100
AcDbSymbolTable
 70
           0
  0
ENDTAB
  0
TABLE
  2
APPID
  5
8
100
AcDbSymbolTable
 70
           1
  0
APPID
  5
16
100
AcDbSymbolTableRecord
100
AcDbRegAppTableRecord
  2
ACAD
 70
           0
  0
ENDTAB
  0
TABLE
  2
DIMSTYLE
  5
9
100
AcDbSymbolTable
 70
           1
  0
DIMSTYLE
105
18
100
AcDbSymbolTableRecord
100
AcDbDimStyleTableRecord
  2
STANDARD
 70
           0
  3

  4

  5

  6

  7

 40
1.0
 41
0.18
 42
0.0625
 43
0.38
 44
0.18
 45
0.0
 46
0.0
 47
0.0
 48
0.0
 71
           0
 72
           0
 73
           1
 74
           1
 75
           0
 76
           0
 77
           0
 78
           0
140
0.18
141
0.09
142
0.0
143
25.4
144
1.0
145
0.0
146
1.0
147
0.09
170
           0
171
           2
172
           0
173
           0
174
           0
175
           0
176
           0
177
           0
178
           0
270
           2
271
           4
272
           4
273
           2
274
           2
275
           0
280
           0
281
           0
282
           0
283
           1
284
           0
285
           0
286
           0
287
           0
288
           0
340
17
  0
ENDTAB
  0
TABLE
  2
BLOCK_RECORD
  5
1
100
AcDbSymbolTable
 70
           0
  0
BLOCK_RECORD
  5
A
100
AcDbSymbolTableRecord
100
AcDbBlockTableRecord
  2
*MODEL_SPACE
  0
BLOCK_RECORD
  5
B
100
AcDbSymbolTableRecord
100
AcDbBlockTableRecord
  2
*PAPER_SPACE
  0
ENDTAB
  0
ENDSEC
  0
SECTION
  2
BLOCKS
  0
BLOCK
  5
D
100
AcDbEntity
  8
0
100
AcDbBlockBegin
  2
*MODEL_SPACE
 70
           0
 10
0.0
 20
0.0
 30
0.0
  3
*MODEL_SPACE
  1

  0
ENDBLK
  5
E
100
AcDbEntity
  8
0
100
AcDbBlockEnd
  0
BLOCK
  5
F
100
AcDbEntity
 67
           1
  8
0
100
AcDbBlockBegin
  2
*PAPER_SPACE
 70
           0
 10
0.0
 20
0.0
 30
0.0
  3
*PAPER_SPACE
  1

  0
ENDBLK
  5
10
100
AcDbEntity
 67
           1
  8
0
100
AcDbBlockEnd
  0
ENDSEC
  0
SECTION
  2
ENTITIES
  0
MTEXT
  5
290
100
AcDbEntity
  8
1
 62
           3
100
AcDbMText
 10
-161.5
 20
106.0
 30
0.0
 40
4.5
 41
0.0
 71
           6
 72
           1
  1
C006500_CSG-20-xx-2UH-LW-SP-B
  7
CONVERTER_1
  0
LEADER
  5
28E
100
AcDbEntity
  8
1
  6
CONTINUOUS
 62
           7
100
AcDbLeader
  3
Standard
 71
           0
 73
           3
 74
           0
 75
           0
 40
0.0
 76
           2
 10
-325.805361996189
 20
192.436554390135
 30
0.0
 10
-325.705361996189
 20
192.436554390135
 30
0.0
 77
           7
  0
LEADER
  5
28B
100
AcDbEntity
  8
1
  6
CONTINUOUS
 62
           7
100
AcDbLeader
  3
Standard
 71
           0
 73
           3
 74
           0
 75
           0
 40
0.0
 76
           2
 10
-328.03067522908
 20
188.067514421272
 30
0.0
 10
-327.93067522908
 20
188.067514421272
 30
0.0
 77
           7
  0
LEADER
  5
288
100
AcDbEntity
  8
1
  6
CONTINUOUS
 62
           7
100
AcDbLeader
  3
Standard
 71
           0
 73
           3
 74
           0
 75
           0
 40
0.0
 76
           2
 10
-332.299715197943
 20
185.942201188381
 30
0.0
 10
-332.229004519824
 20
186.012911866499
 30
0.0
 77
           7
  0
LEADER
  5
285
100
AcDbEntity
  8
1
  6
CONTINUOUS
 62
           7
100
AcDbLeader
  3
Standard
 71
           0
 73
           3
 74
           0
 75
           0
 40
0.0
 76
           2
 10
-332.299715197943
 20
176.757798811619
 30
0.0
 10
-332.299715197943
 20
176.857798811619
 30
0.0
 77
           7
  0
LEADER
  5
282
100
AcDbEntity
  8
1
  6
CONTINUOUS
 62
           7
100
AcDbLeader
  3
Standard
 71
           0
 73
           3
 74
           0
 75
           0
 40
0.0
 76
           2
 10
-325.805361996188
 20
170.263445609865
 30
0.0
 10
-325.876072674307
 20
170.334156287983
 30
0.0
 77
           7
  0
LEADER
  5
27F
100
AcDbEntity
  8
1
  6
CONTINUOUS
 62
           7
100
AcDbLeader
  3
Standard
 71
           0
 73
           3
 74
           0
 75
           0
 40
0.0
 76
           2
 10
-316.620959619427
 20
170.263445609865
 30
0.0
 10
-316.720959619426
 20
170.263445609865
 30
0.0
 77
           7
  0
LEADER
  5
27C
100
AcDbEntity
  8
1
  6
CONTINUOUS
 62
           7
100
AcDbLeader
  3
Standard
 71
           0
 73
           3
 74
           0
 75
           0
 40
0.0
 76
           2
 10
-310.126606417672
 20
176.757798811619
 30
0.0
 10
-310.197317095791
 20
176.687088133501
 30
0.0
 77
           7
  0
LEADER
  5
279
100
AcDbEntity
  8
1
  6
CONTINUOUS
 62
           7
100
AcDbLeader
  3
Standard
 71
           0
 73
           3
 74
           0
 75
           0
 40
0.0
 76
           2
 10
-310.126606417672
 20
185.942201188381
 30
0.0
 10
-310.126606417673
 20
185.842201188381
 30
0.0
 77
           7
  0
LEADER
  5
276
100
AcDbEntity
  8
1
  6
CONTINUOUS
 62
           7
100
AcDbLeader
  3
Standard
 71
           0
 73
           3
 74
           0
 75
           0
 40
0.0
 76
           2
 10
-316.620959619427
 20
192.436554390135
 30
0.0
 10
-316.550248941308
 20
192.365843712016
 30
0.0
 77
           7
  0
LEADER
  5
273
100
AcDbEntity
  8
1
  6
CONTINUOUS
 62
           7
100
AcDbLeader
  3
Standard
 71
           0
 73
           3
 74
           0
 75
           0
 40
0.0
 76
           2
 10
-330.783871485926
 20
181.279289321881
 30
0.0
 10
-330.713160807808
 20
181.35
 30
0.0
 77
           7
  0
LEADER
  5
270
100
AcDbEntity
  8
1
  6
CONTINUOUS
 62
           7
100
AcDbLeader
  3
Standard
 71
           0
 73
           3
 74
           0
 75
           0
 40
0.0
 76
           2
 10
-327.93067522908
 20
174.532485578728
 30
0.0
 10
-327.93067522908
 20
174.632485578728
 30
0.0
 77
           7
  0
LEADER
  5
26D
100
AcDbEntity
  8
1
  6
CONTINUOUS
 62
           7
100
AcDbLeader
  3
Standard
 71
           0
 73
           3
 74
           0
 75
           0
 40
0.0
 76
           2
 10
-321.142450129689
 20
171.779289321881
 30
0.0
 10
-321.213160807808
 20
171.85
 30
0.0
 77
           7
  0
LEADER
  5
26A
100
AcDbEntity
  8
1
  6
CONTINUOUS
 62
           7
100
AcDbLeader
  3
Standard
 71
           0
 73
           3
 74
           0
 75
           0
 40
0.0
 76
           2
 10
-314.395646386535
 20
174.632485578728
 30
0.0
 10
-314.495646386536
 20
174.632485578728
 30
0.0
 77
           7
  0
LEADER
  5
267
100
AcDbEntity
  8
1
  6
CONTINUOUS
 62
           7
100
AcDbLeader
  3
Standard
 71
           0
 73
           3
 74
           0
 75
           0
 40
0.0
 76
           2
 10
-311.642450129689
 20
181.420710678119
 30
0.0
 10
-311.713160807808
 20
181.35
 30
0.0
 77
           7
  0
LEADER
  5
264
100
AcDbEntity
  8
1
  6
CONTINUOUS
 62
           7
100
AcDbLeader
  3
Standard
 71
           0
 73
           3
 74
           0
 75
           0
 40
0.0
 76
           2
 10
-314.495646386536
 20
188.167514421272
 30
0.0
 10
-314.495646386536
 20
188.067514421272
 30
0.0
 77
           7
  0
LEADER
  5
261
100
AcDbEntity
  8
1
  6
CONTINUOUS
 62
           7
100
AcDbLeader
  3
Standard
 71
           0
 73
           3
 74
           0
 75
           0
 40
0.0
 76
           2
 10
-321.283871485926
 20
190.920710678118
 30
0.0
 10
-321.213160807808
 20
190.85
 30
0.0
 77
           7
  0
ARC
  5
25E
100
AcDbEntity
  8
1
  6
CONTINUOUS
 62
           7
100
AcDbCircle
 10
-227.909456240007
 20
190.65
 40
0.2
100
AcDbArc
 50
0.0
 51
90.0
  0
ARC
  5
25D
100
AcDbEntity
  8
1
  6
CONTINUOUS
 62
           7
100
AcDbCircle
 10
-227.909456240007
 20
196.05
 40
0.2
100
AcDbArc
 50
-90.0
 51
0.0
  0
ARC
  5
25C
100
AcDbEntity
  8
1
  6
CONTINUOUS
 62
           7
100
AcDbCircle
 10
-243.109456240007
 20
154.5
 40
0.905538513814
100
AcDbArc
 50
173.659808254117
 51
-123.515161713842
  0
ARC
  5
25B
100
AcDbEntity
  8
1
  6
CONTINUOUS
 62
           7
100
AcDbCircle
 10
-239.809456240007
 20
147.35
 40
0.8
100
AcDbArc
 50
180.0
 51
-90.0
  0
ARC
  5
25A
100
AcDbEntity
  8
1
  6
CONTINUOUS
 62
           7
100
AcDbCircle
 10
-243.109456240007
 20
208.2
 40
0.905538513814
100
AcDbArc
 50
123.515161713837
 51
-173.65980825411
  0
ARC
  5
259
100
AcDbEntity
  8
1
  6
CONTINUOUS
 62
           7
100
AcDbCircle
 10
-239.809456240007
 20
215.35
 40
0.8
100
AcDbArc
 50
90.0
 51
180.0
  0
ARC
  5
258
100
AcDbEntity
  8
1
  6
CONTINUOUS
 62
           7
100
AcDbCircle
 10
-192.009460641026
 20
203.649986278172
 40
0.2
100
AcDbArc
 50
90.0
 51
180.0
  0
ARC
  5
257
100
AcDbEntity
  8
1
  6
CONTINUOUS
 62
           7
100
AcDbCircle
 10
-192.009460641026
 20
201.349986278172
 40
0.2
100
AcDbArc
 50
180.0
 51
-90.0
  0
ARC
  5
256
100
AcDbEntity
  8
1
  6
CONTINUOUS
 62
           7
100
AcDbCircle
 10
-192.009460641026
 20
161.350013721828
 40
0.2
100
AcDbArc
 50
90.949180005509
 51
180.0
  0
ARC
  5
255
100
AcDbEntity
  8
1
  6
CONTINUOUS
 62
           7
100
AcDbCircle
 10
-192.009460641026
 20
159.049986278172
 40
0.2
100
AcDbArc
 50
180.0
 51
-90.0
  0
ARC
  5
254
100
AcDbEntity
  8
1
  6
CONTINUOUS
 62
           7
100
AcDbCircle
 10
-190.909460641026
 20
137.65
 40
0.2
100
AcDbArc
 50
0.0
 51
90.0
  0
SPLINE
  5
253
100
AcDbEntity
  8
1
  6
CONTINUOUS
 62
           3
100
AcDbSpline
210
0.0
220
0.0
230
1.0
 70
           0
 71
           3
 72
          41
 73
          38
 74
          77
 42
0.00000000001
 43
0.00000000001
 44
0.00000000001
 40
-0.137415498463926
 40
-0.001858112953447
 40
0.1336992725570339
 40
0.2730127531730296
 40
0.42276873225773
 40
0.5875418154223032
 40
0.7693296890087591
 40
0.9678075846705742
 40
1.1808739872834102
 40
1.4051735791062343
 40
1.6365253816108987
 40
1.8702787801682339
 40
2.1016305826728559
 40
2.3259301744957073
 40
2.5389965771085907
 40
2.7374744727704758
 40
2.9192623463569816
 40
3.0840354295214807
 40
3.2337914086061326
 40
3.3731048892221533
 40
3.5086622747325844
 40
3.647975755348563
 40
3.7977317344332517
 40
3.9625048175977722
 40
4.1442926911842681
 40
4.3427705868461324
 40
4.5558369894589958
 40
4.7801365812818108
 40
5.0114883837864399
 40
5.2452417823437765
 40
5.4765935848484473
 40
5.7008931766713467
 40
5.9139595792841702
 40
6.1124374749459456
 40
6.2942253485324819
 40
6.458998431697017
 40
6.6087544107817155
 40
6.748067891397727
 40
6.8836252769081092
 40
7.0191826624185882
 40
7.154740047929069
 10
-191.459460641026
 20
201.1446955980841
 30
0.0
 10
-191.59328451098901
 20
201.166305239325
 30
0.0
 10
-191.72159601857109
 20
201.22959078679949
 30
0.0
 10
-191.8405067363914
 20
201.33124933397301
 30
0.0
 10
-191.94712397085519
 20
201.46762266461101
 30
0.0
 10
-192.0387747034091
 20
201.63459485397951
 30
0.0
 10
-192.11297173056309
 20
201.82728728351489
 30
0.0
 10
-192.16759285698171
 20
202.0400364450432
 30
0.0
 10
-192.20103136315481
 20
202.2665316179262
 30
0.0
 10
-192.21229007066131
 20
202.500013721828
 30
0.0
 10
-192.20103136315481
 20
202.7334958257297
 30
0.0
 10
-192.16759285698171
 20
202.95999099861271
 30
0.0
 10
-192.1129717305632
 20
203.1727401601411
 30
0.0
 10
-192.0387747034091
 20
203.36543258967649
 30
0.0
 10
-191.94712397085519
 20
203.53240477904509
 30
0.0
 10
-191.8405067363914
 20
203.6687781096831
 30
0.0
 10
-191.72159601857109
 20
203.77043665685639
 30
0.0
 10
-191.59328451098901
 20
203.833722204331
 30
0.0
 10
-191.459460641026
 20
203.8553318455719
 30
0.0
 10
-191.3256367710631
 20
203.83372220433091
 30
0.0
 10
-191.19732526348091
 20
203.7704366568565
 30
0.0
 10
-191.07841454566071
 20
203.66877810968299
 30
0.0
 10
-190.97179731119681
 20
203.53240477904509
 30
0.0
 10
-190.88014657864289
 20
203.36543258967649
 30
0.0
 10
-190.80594955148891
 20
203.1727401601411
 30
0.0
 10
-190.7513284250704
 20
202.95999099861271
 30
0.0
 10
-190.71788991889721
 20
202.73349582572979
 30
0.0
 10
-190.70663121139069
 20
202.500013721828
 30
0.0
 10
-190.71788991889721
 20
202.26653161792629
 30
0.0
 10
-190.7513284250704
 20
202.0400364450432
 30
0.0
 10
-190.80594955148891
 20
201.82728728351481
 30
0.0
 10
-190.88014657864289
 20
201.63459485397951
 30
0.0
 10
-190.97179731119681
 20
201.46762266461101
 30
0.0
 10
-191.07841454566071
 20
201.33124933397289
 30
0.0
 10
-191.19732526348091
 20
201.2295907867996
 30
0.0
 10
-191.32563677106319
 20
201.166305239325
 30
0.0
 10
-191.459460641026
 20
201.1446955980841
 30
0.0
 10
-191.59328451098901
 20
201.166305239325
 30
0.0
 11
-191.52545822813562
 21
201.15535277143141
 31
0.0
 11
-191.59178747960476
 21
201.17119204570088
 31
0.0
 11
-191.65512266830541
 21
201.19680493272216
 31
0.0
 11
-191.71913185076841
 21
201.23349493423439
 31
0.0
 11
-191.77821269762612
 21
201.27799323061637
 31
0.0
 11
-191.83760606974462
 21
201.33414504967641
 31
0.0
 11
-191.89119810856954
 21
201.39608830014305
 31
0.0
 11
-191.94409602327761
 21
201.46969453734854
 31
0.0
 11
-191.99093804283058
 21
201.54744452002907
 31
0.0
 11
-192.03576139772335
 21
201.63603999907326
 31
0.0
 11
-192.07455814124467
 21
201.7275257683051
 31
0.0
 11
-192.11002061476697
 21
201.82825752595554
 31
0.0
 11
-192.13958085669714
 21
201.93092976848726
 31
0.0
 11
-192.16470497834942
 21
202.04063348344681
 31
0.0
 11
-192.18405334273717
 21
202.1515312752137
 31
0.0
 11
-192.19818692961999
 21
202.26681609553981
 31
0.0
 11
-192.20663164943318
 21
202.3826698710933
 31
0.0
 11
-192.20946086004724
 21
202.500013721828
 31
0.0
 11
-192.20663164943318
 21
202.6173575725627
 31
0.0
 11
-192.19818692961999
 21
202.73321134811604
 31
0.0
 11
-192.18405334273717
 21
202.84849616844218
 31
0.0
 11
-192.16470497834945
 21
202.95939396020907
 31
0.0
 11
-192.13958085669719
 21
203.06909767516868
 31
0.0
 11
-192.11002061476711
 21
203.17176991770046
 31
0.0
 11
-192.07455814124467
 21
203.27250167535087
 31
0.0
 11
-192.03576139772335
 21
203.36398744458268
 31
0.0
 11
-191.99093804283058
 21
203.45258292362701
 31
0.0
 11
-191.94409602327761
 21
203.53033290630756
 31
0.0
 11
-191.89119810856954
 21
203.60393914351306
 31
0.0
 11
-191.83760606974462
 21
203.66588239397973
 31
0.0
 11
-191.77821269762612
 21
203.72203421303959
 31
0.0
 11
-191.71913185076841
 21
203.76653250942152
 31
0.0
 11
-191.65512266830544
 21
203.80322251093372
 31
0.0
 11
-191.59178747960479
 21
203.82883539795509
 31
0.0
 11
-191.52545822813559
 21
203.84467467222458
 31
0.0
 11
-191.459460641026
 21
203.85000325889823
 31
0.0
 11
-191.39346305391643
 21
203.84467467222453
 31
0.0
 11
-191.32713380244732
 21
203.828835397955
 31
0.0
 11
-191.26379861374662
 21
203.80322251093378
 31
0.0
 11
-191.19978943128356
 21
203.76653250942161
 31
0.0
 11
-191.14070858442591
 21
203.72203421303962
 31
0.0
 11
-191.08131521230746
 21
203.66588239397964
 31
0.0
 11
-191.02772317348251
 21
203.603939143513
 31
0.0
 11
-190.97482525877439
 21
203.53033290630754
 31
0.0
 11
-190.92798323922142
 21
203.45258292362698
 31
0.0
 11
-190.88315988432859
 21
203.3639874445827
 31
0.0
 11
-190.84436314080733
 21
203.2725016753509
 31
0.0
 11
-190.80890066728503
 21
203.17176991770043
 31
0.0
 11
-190.77934042535492
 21
203.06909767516865
 31
0.0
 11
-190.75421630370261
 21
202.95939396020904
 31
0.0
 11
-190.73486793931488
 21
202.84849616844224
 31
0.0
 11
-190.72073435243206
 21
202.73321134811616
 31
0.0
 11
-190.71228963261885
 21
202.61735757256272
 31
0.0
 11
-190.70946042200478
 21
202.50001372182803
 31
0.0
 11
-190.71228963261885
 21
202.3826698710933
 31
0.0
 11
-190.72073435243203
 21
202.26681609553992
 31
0.0
 11
-190.73486793931488
 21
202.15153127521376
 31
0.0
 11
-190.75421630370263
 21
202.04063348344687
 31
0.0
 11
-190.77934042535495
 21
201.93092976848723
 31
0.0
 11
-190.80890066728503
 21
201.82825752595548
 31
0.0
 11
-190.84436314080733
 21
201.72752576830504
 31
0.0
 11
-190.88315988432862
 21
201.63603999907329
 31
0.0
 11
-190.92798323922142
 21
201.5474445200291
 31
0.0
 11
-190.97482525877439
 21
201.46969453734852
 31
0.0
 11
-191.02772317348254
 21
201.39608830014299
 31
0.0
 11
-191.08131521230749
 21
201.33414504967629
 31
0.0
 11
-191.14070858442594
 21
201.2779932306164
 31
0.0
 11
-191.19978943128359
 21
201.23349493423444
 31
0.0
 11
-191.26379861374664
 21
201.19680493272224
 31
0.0
 11
-191.32713380244738
 21
201.17119204570091
 31
0.0
 11
-191.39346305391649
 21
201.15535277143141
 31
0.0
 11
-191.45968922799401
 21
201.15006109657605
 31
0.0
 11
-191.52637257600747
 21
201.15550041870455
 31
0.0
 11
-191.55982854349827
 21
201.16090282901479
 31
0.0
 11
-191.5263725760075
 21
201.15550041870455
 31
0.0
 11
-191.49268802154882
 21
201.15006109657605
 31
0.0
 11
-191.52545822813562
 21
201.15535277143141
 31
0.0
  0
SPLINE
  5
252
100
AcDbEntity
  8
1
  6
CONTINUOUS
 62
           3
100
AcDbSpline
210
0.0
220
0.0
230
1.0
 70
           0
 71
           3
 72
          41
 73
          38
 74
          77
 42
0.00000000001
 43
0.00000000001
 44
0.00000000001
 40
-0.137415498463926
 40
-0.001858112953447
 40
0.1336992725570339
 40
0.2730127531730296
 40
0.4227687322577207
 40
0.5875418154222847
 40
0.7693296890087407
 40
0.9678075846705689
 40
1.1808739872834182
 40
1.4051735791062283
 40
1.6365253816108927
 40
1.8702787801682279
 40
2.1016305826728354
 40
2.3259301744956868
 40
2.5389965771085836
 40
2.7374744727704821
 40
2.9192623463569767
 40
3.0840354295214745
 40
3.2337914086061352
 40
3.373104889222156
 40
3.5086622747325897
 40
3.6479757553485701
 40
3.7977317344332504
 40
3.9625048175977615
 40
4.1442926911842077
 40
4.3427705868460897
 40
4.5558369894590189
 40
4.7801365812818197
 40
5.0114883837864346
 40
5.2452417823437711
 40
5.4765935848484419
 40
5.7008931766713555
 40
5.9139595792841924
 40
6.1124374749459678
 40
6.2942253485324926
 40
6.4589984316970259
 40
6.6087544107817262
 40
6.7480678913977323
 40
6.8836252769081145
 40
7.0191826624185936
 40
7.1547400479290744
 10
-191.459460641026
 20
161.55530440191589
 30
0.0
 10
-191.59328451098901
 20
161.53369476067499
 30
0.0
 10
-191.72159601857109
 20
161.4704092132005
 30
0.0
 10
-191.8405067363914
 20
161.36875066602701
 30
0.0
 10
-191.94712397085519
 20
161.232377335389
 30
0.0
 10
-192.0387747034091
 20
161.06540514602051
 30
0.0
 10
-192.11297173056309
 20
160.8727127164851
 30
0.0
 10
-192.16759285698171
 20
160.65996355495679
 30
0.0
 10
-192.20103136315481
 20
160.43346838207381
 30
0.0
 10
-192.21229007066131
 20
160.19998627817199
 30
0.0
 10
-192.20103136315481
 20
159.96650417427031
 30
0.0
 10
-192.16759285698171
 20
159.74000900138731
 30
0.0
 10
-192.1129717305632
 20
159.52725983985891
 30
0.0
 10
-192.0387747034091
 20
159.3345674103235
 30
0.0
 10
-191.94712397085519
 20
159.16759522095489
 30
0.0
 10
-191.8405067363914
 20
159.03122189031691
 30
0.0
 10
-191.72159601857109
 20
158.9295633431436
 30
0.0
 10
-191.59328451098901
 20
158.86627779566899
 30
0.0
 10
-191.459460641026
 20
158.84466815442809
 30
0.0
 10
-191.3256367710631
 20
158.86627779566911
 30
0.0
 10
-191.19732526348091
 20
158.92956334314351
 30
0.0
 10
-191.07841454566071
 20
159.031221890317
 30
0.0
 10
-190.97179731119681
 20
159.16759522095489
 30
0.0
 10
-190.88014657864289
 20
159.33456741032339
 30
0.0
 10
-190.80594955148891
 20
159.52725983985891
 30
0.0
 10
-190.7513284250704
 20
159.74000900138731
 30
0.0
 10
-190.71788991889721
 20
159.9665041742702
 30
0.0
 10
-190.70663121139069
 20
160.19998627817199
 30
0.0
 10
-190.71788991889721
 20
160.4334683820737
 30
0.0
 10
-190.7513284250704
 20
160.65996355495679
 30
0.0
 10
-190.80594955148891
 20
160.87271271648521
 30
0.0
 10
-190.88014657864289
 20
161.06540514602051
 30
0.0
 10
-190.97179731119681
 20
161.232377335389
 30
0.0
 10
-191.07841454566071
 20
161.3687506660271
 30
0.0
 10
-191.19732526348091
 20
161.47040921320041
 30
0.0
 10
-191.32563677106319
 20
161.53369476067499
 30
0.0
 10
-191.459460641026
 20
161.55530440191589
 30
0.0
 10
-191.59328451098901
 20
161.53369476067499
 30
0.0
 11
-191.52545822813562
 21
161.54464722856858
 31
0.0
 11
-191.59178747960476
 21
161.52880795429908
 31
0.0
 11
-191.65512266830544
 21
161.50319506727783
 31
0.0
 11
-191.71913185076843
 21
161.4665050657656
 31
0.0
 11
-191.77821269762612
 21
161.42200676938364
 31
0.0
 11
-191.8376060697446
 21
161.36585495032364
 31
0.0
 11
-191.89119810856954
 21
161.30391169985694
 31
0.0
 11
-191.94409602327761
 21
161.23030546265144
 31
0.0
 11
-191.99093804283058
 21
161.15255547997094
 31
0.0
 11
-192.03576139772335
 21
161.0639600009267
 31
0.0
 11
-192.07455814124467
 21
160.97247423169492
 31
0.0
 11
-192.110020614767
 21
160.87174247404445
 31
0.0
 11
-192.13958085669714
 21
160.7690702315127
 31
0.0
 11
-192.16470497834945
 21
160.65936651655312
 31
0.0
 11
-192.1840533427372
 21
160.54846872478629
 31
0.0
 11
-192.19818692962002
 21
160.43318390446015
 31
0.0
 11
-192.20663164943318
 21
160.31733012890672
 31
0.0
 11
-192.20946086004724
 21
160.19998627817202
 31
0.0
 11
-192.20663164943318
 21
160.08264242743729
 31
0.0
 11
-192.19818692961999
 21
159.96678865188392
 31
0.0
 11
-192.18405334273717
 21
159.85150383155784
 31
0.0
 11
-192.16470497834945
 21
159.74060603979098
 31
0.0
 11
-192.13958085669717
 21
159.63090232483137
 31
0.0
 11
-192.11002061476705
 21
159.52823008229956
 31
0.0
 11
-192.07455814124472
 21
159.42749832464909
 31
0.0
 11
-192.03576139772338
 21
159.33601255541728
 31
0.0
 11
-191.99093804283058
 21
159.24741707637298
 31
0.0
 11
-191.94409602327761
 21
159.16966709369245
 31
0.0
 11
-191.89119810856951
 21
159.09606085648693
 31
0.0
 11
-191.83760606974462
 21
159.03411760602029
 31
0.0
 11
-191.77821269762615
 21
158.9779657869604
 31
0.0
 11
-191.71913185076843
 21
158.93346749057844
 31
0.0
 11
-191.65512266830544
 21
158.89677748906621
 31
0.0
 11
-191.59178747960476
 21
158.8711646020449
 31
0.0
 11
-191.52545822813562
 21
158.8553253277754
 31
0.0
 11
-191.45946064102606
 21
158.84999674110179
 31
0.0
 11
-191.39346305391643
 21
158.85532532777546
 31
0.0
 11
-191.32713380244732
 21
158.87116460204498
 31
0.0
 11
-191.26379861374664
 21
158.89677748906624
 31
0.0
 11
-191.19978943128359
 21
158.93346749057844
 31
0.0
 11
-191.14070858442591
 21
158.9779657869604
 31
0.0
 11
-191.08131521230749
 21
159.03411760602035
 31
0.0
 11
-191.02772317348251
 21
159.09606085648699
 31
0.0
 11
-190.97482525877439
 21
159.16966709369245
 31
0.0
 11
-190.92798323922142
 21
159.24741707637293
 31
0.0
 11
-190.88315988432868
 21
159.3360125554172
 31
0.0
 11
-190.84436314080733
 21
159.42749832464904
 31
0.0
 11
-190.80890066728503
 21
159.52823008229956
 31
0.0
 11
-190.77934042535492
 21
159.63090232483137
 31
0.0
 11
-190.75421630370263
 21
159.74060603979092
 31
0.0
 11
-190.73486793931488
 21
159.85150383155775
 31
0.0
 11
-190.72073435243206
 21
159.96678865188386
 31
0.0
 11
-190.71228963261885
 21
160.08264242743724
 31
0.0
 11
-190.70946042200472
 21
160.19998627817196
 31
0.0
 11
-190.71228963261885
 21
160.31733012890666
 31
0.0
 11
-190.72073435243206
 21
160.43318390446009
 31
0.0
 11
-190.73486793931488
 21
160.54846872478623
 31
0.0
 11
-190.75421630370266
 21
160.65936651655315
 31
0.0
 11
-190.77934042535492
 21
160.76907023151279
 31
0.0
 11
-190.808900667285
 21
160.87174247404454
 31
0.0
 11
-190.84436314080736
 21
160.97247423169497
 31
0.0
 11
-190.88315988432862
 21
161.0639600009267
 31
0.0
 11
-190.92798323922142
 21
161.15255547997091
 31
0.0
 11
-190.97482525877436
 21
161.23030546265147
 31
0.0
 11
-191.02772317348251
 21
161.303911699857
 31
0.0
 11
-191.08131521230746
 21
161.36585495032372
 31
0.0
 11
-191.14070858442591
 21
161.42200676938361
 31
0.0
 11
-191.19978943128362
 21
161.46650506576555
 31
0.0
 11
-191.26379861374664
 21
161.50319506727777
 31
0.0
 11
-191.32713380244738
 21
161.52880795429905
 31
0.0
 11
-191.39346305391649
 21
161.54464722856858
 31
0.0
 11
-191.45968922799403
 21
161.54993890342396
 31
0.0
 11
-191.52637257600747
 21
161.54449958129544
 31
0.0
 11
-191.55982854349827
 21
161.53909717098523
 31
0.0
 11
-191.5263725760075
 21
161.54449958129544
 31
0.0
 11
-191.49268802154882
 21
161.54993890342396
 31
0.0
 11
-191.52545822813562
 21
161.54464722856858
 31
0.0
  0
SPLINE
  5
251
100
AcDbEntity
  8
1
  6
CONTINUOUS
 62
           3
100
AcDbSpline
210
0.0
220
0.0
230
1.0
 70
           0
 71
           3
 72
          41
 73
          38
 74
          77
 42
0.00000000001
 43
0.00000000001
 44
0.00000000001
 40
-0.0776837399615586
 40
-0.0010029534554117
 40
0.0756778330507343
 40
0.1543780483781169
 40
0.2386999752782263
 40
0.3311253407792681
 40
0.43275805515671
 40
0.5434462119858854
 40
0.6620658475540404
 40
0.7868014393413692
 40
0.9153800125154501
 40
1.0452678401713704
 40
1.1738464133455504
 40
1.2985820051329209
 40
1.4172016407010033
 40
1.5278897975301442
 40
1.6295225119076231
 40
1.7219478774086578
 40
1.8062698043087619
 40
1.8849700196361616
 40
1.9616508061422742
 40
2.0403510214696339
 40
2.1246729483697697
 40
2.2170983138708293
 40
2.31873102824831
 40
2.4294191850774531
 40
2.5480388206456102
 40
2.6727744124330437
 40
2.8013529856071173
 40
2.9312408132629226
 40
3.0598193864370526
 40
3.1845549782244311
 40
3.3031746137925464
 40
3.4138627706217122
 40
3.5154954849992199
 40
3.6079208505003013
 40
3.6922427774004163
 40
3.7709429927277531
 40
3.8476237792338521
 40
3.9243045657399991
 40
4.0009853522461452
 10
-245.2844562400071
 20
159.84705065454619
 30
0.0
 10
-245.36019631411691
 20
159.85902496843229
 30
0.0
 10
-245.4328812286617
 20
159.8941328614066
 30
0.0
 10
-245.5002873452282
 20
159.95058710918551
 30
0.0
 10
-245.56073637415429
 20
160.02635428837939
 30
0.0
 10
-245.61269805180461
 20
160.11913331232191
 30
0.0
 10
-245.65476085360839
 20
160.22620490305471
 30
0.0
 10
-245.68572378707901
 20
160.3444190838099
 30
0.0
 10
-245.70467812445489
 20
160.4702690443782
 30
0.0
 10
-245.71105988961941
 20
160.59999999999999
 30
0.0
 10
-245.70467812445489
 20
160.7297309556219
 30
0.0
 10
-245.68572378707901
 20
160.85558091619029
 30
0.0
 10
-245.65476085360851
 20
160.97379509694551
 30
0.0
 10
-245.61269805180461
 20
161.08086668767811
 30
0.0
 10
-245.56073637415429
 20
161.17364571162071
 30
0.0
 10
-245.5002873452282
 20
161.2494128908146
 30
0.0
 10
-245.43288122866181
 20
161.30586713859361
 30
0.0
 10
-245.36019631411691
 20
161.34097503156769
 30
0.0
 10
-245.2844562400071
 20
161.35294934545399
 30
0.0
 10
-245.20871616589741
 20
161.34097503156781
 30
0.0
 10
-245.13603125135251
 20
161.30586713859361
 30
0.0
 10
-245.068625134786
 20
161.24941289081471
 30
0.0
 10
-245.00817610586
 20
161.17364571162071
 30
0.0
 10
-244.95621442820959
 20
161.0808666876782
 30
0.0
 10
-244.91415162640581
 20
160.97379509694551
 30
0.0
 10
-244.88318869293519
 20
160.85558091619021
 30
0.0
 10
-244.8642343555594
 20
160.72973095562179
 30
0.0
 10
-244.85785259039491
 20
160.60000000000011
 30
0.0
 10
-244.8642343555594
 20
160.47026904437831
 30
0.0
 10
-244.88318869293519
 20
160.3444190838099
 30
0.0
 10
-244.91415162640581
 20
160.22620490305471
 30
0.0
 10
-244.95621442820959
 20
160.11913331232199
 30
0.0
 10
-245.00817610585989
 20
160.02635428837939
 30
0.0
 10
-245.06862513478609
 20
159.95058710918551
 30
0.0
 10
-245.13603125135251
 20
159.89413286140649
 30
0.0
 10
-245.20871616589741
 20
159.85902496843241
 30
0.0
 10
-245.2844562400071
 20
159.84705065454619
 30
0.0
 10
-245.36019631411691
 20
159.85902496843229
 30
0.0
 11
-245.32183409434089
 21
159.85295999864763
 31
0.0
 11
-245.35937806204473
 21
159.86174587852719
 31
0.0
 11
-245.39528552560415
 21
159.87597357859664
 31
0.0
 11
-245.43152176641121
 21
159.89632628522762
 31
0.0
 11
-245.4650390827172
 21
159.92106583950061
 31
0.0
 11
-245.49867289744273
 21
159.95222832958734
 31
0.0
 11
-245.52907781659724
 21
159.98667326047774
 31
0.0
 11
-245.55903992508377
 21
160.02753678355805
 31
0.0
 11
-245.58560913542919
 21
160.07076529699566
 31
0.0
 11
-245.61100181026669
 21
160.11996232275581
 31
0.0
 11
-245.63300200202826
 21
160.17081736938371
 31
0.0
 11
-245.65309423809481
 21
160.22676342525796
 31
0.0
 11
-245.66985324313424
 21
160.28382652553864
 31
0.0
 11
-245.6840894991804
 21
160.34476353356322
 31
0.0
 11
-245.69505717942948
 21
160.40638944109446
 31
0.0
 11
-245.70306656801199
 21
160.4704333694342
 31
0.0
 11
-245.70785284370874
 21
160.53480594788596
 31
0.0
 11
-245.70945636666409
 21
160.60000000000002
 31
0.0
 11
-245.70785284370874
 21
160.66519405211409
 31
0.0
 11
-245.70306656801199
 21
160.7295666305659
 31
0.0
 11
-245.69505717942945
 21
160.7936105589057
 31
0.0
 11
-245.68408949918046
 21
160.85523646643696
 31
0.0
 11
-245.6698532431343
 21
160.91617347446157
 31
0.0
 11
-245.65309423809492
 21
160.97323657474226
 31
0.0
 11
-245.63300200202832
 21
161.02918263061639
 31
0.0
 11
-245.61100181026666
 21
161.08003767724423
 31
0.0
 11
-245.58560913542922
 21
161.12923470300439
 31
0.0
 11
-245.55903992508379
 21
161.17246321644205
 31
0.0
 11
-245.52907781659724
 21
161.21332673952236
 31
0.0
 11
-245.4986728974427
 21
161.24777167041276
 31
0.0
 11
-245.46503908271725
 21
161.27893416049955
 31
0.0
 11
-245.43152176641129
 21
161.30367371477257
 31
0.0
 11
-245.39528552560424
 21
161.32402642140346
 31
0.0
 11
-245.3593780620447
 21
161.33825412147283
 31
0.0
 11
-245.32183409434089
 21
161.34704000135247
 31
0.0
 11
-245.28445624000713
 21
161.34999467340327
 31
0.0
 11
-245.24707838567338
 21
161.34704000135252
 31
0.0
 11
-245.20953441796956
 21
161.33825412147291
 31
0.0
 11
-245.17362695441011
 21
161.32402642140352
 31
0.0
 11
-245.137390713603
 21
161.3036737147726
 31
0.0
 11
-245.10387339729704
 21
161.2789341604996
 31
0.0
 11
-245.07023958257145
 21
161.24777167041282
 31
0.0
 11
-245.03983466341697
 21
161.21332673952242
 31
0.0
 11
-245.0098725549305
 21
161.17246321644208
 31
0.0
 11
-244.98330334458501
 21
161.12923470300444
 31
0.0
 11
-244.95791066974752
 21
161.08003767724432
 31
0.0
 11
-244.93591047798594
 21
161.02918263061645
 31
0.0
 11
-244.91581824191937
 21
160.97323657474226
 31
0.0
 11
-244.89905923687991
 21
160.91617347446152
 31
0.0
 11
-244.88482298083377
 21
160.85523646643688
 31
0.0
 11
-244.87385530058475
 21
160.79361055890558
 31
0.0
 11
-244.86584591200227
 21
160.72956663056581
 31
0.0
 11
-244.86105963630558
 21
160.66519405211406
 31
0.0
 11
-244.85945611335023
 21
160.60000000000008
 31
0.0
 11
-244.86105963630558
 21
160.5348059478861
 31
0.0
 11
-244.8658459120023
 21
160.47043336943432
 31
0.0
 11
-244.87385530058478
 21
160.40638944109452
 31
0.0
 11
-244.88482298083377
 21
160.34476353356325
 31
0.0
 11
-244.89905923687996
 21
160.28382652553861
 31
0.0
 11
-244.91581824191934
 21
160.22676342525793
 31
0.0
 11
-244.93591047798594
 21
160.17081736938377
 31
0.0
 11
-244.95791066974749
 21
160.11996232275587
 31
0.0
 11
-244.98330334458495
 21
160.07076529699572
 31
0.0
 11
-245.00987255493041
 21
160.02753678355805
 31
0.0
 11
-245.03983466341697
 21
159.98667326047774
 31
0.0
 11
-245.07023958257156
 21
159.95222832958731
 31
0.0
 11
-245.10387339729709
 21
159.92106583950056
 31
0.0
 11
-245.13739071360303
 21
159.89632628522753
 31
0.0
 11
-245.17362695441008
 21
159.87597357859661
 31
0.0
 11
-245.20953441796956
 21
159.86174587852727
 31
0.0
 11
-245.24707838567338
 21
159.85295999864769
 31
0.0
 11
-245.28457928568739
 21
159.85002477980734
 31
0.0
 11
-245.32232627706199
 21
159.85303781148923
 31
0.0
 11
-245.34126129558948
 21
159.85603138996078
 31
0.0
 11
-245.32232627706199
 21
159.85303781148923
 31
0.0
 11
-245.30326821285428
 21
159.85002477980731
 31
0.0
 11
-245.32183409434089
 21
159.85295999864763
 31
0.0
  0
SPLINE
  5
250
100
AcDbEntity
  8
1
  6
CONTINUOUS
 62
           3
100
AcDbSpline
210
0.0
220
0.0
230
1.0
 70
           0
 71
           3
 72
          41
 73
          38
 74
          77
 42
0.00000000001
 43
0.00000000001
 44
0.00000000001
 40
-0.0776837399615586
 40
-0.0010029534554117
 40
0.0756778330507343
 40
0.1543780483781354
 40
0.2386999752782634
 40
0.3311253407792719
 40
0.4327580551567176
 40
0.5434462119858905
 40
0.6620658475540608
 40
0.7868014393414446
 40
0.9153800125155256
 40
1.0452678401714317
 40
1.1738464133455553
 40
1.2985820051328836
 40
1.4172016407010055
 40
1.5278897975301859
 40
1.6295225119076762
 40
1.7219478774086854
 40
1.8062698043087777
 40
1.8849700196361934
 40
1.961650806142297
 40
2.0403510214696565
 40
2.1246729483697924
 40
2.2170983138708187
 40
2.3187310282483029
 40
2.4294191850774833
 40
2.5480388206455991
 40
2.6727744124329771
 40
2.8013529856070933
 40
2.9312408132629555
 40
3.0598193864370291
 40
3.1845549782244067
 40
3.303174613792577
 40
3.4138627706217433
 40
3.5154954849992173
 40
3.6079208505002924
 40
3.6922427774004349
 40
3.7709429927277718
 40
3.8476237792338708
 40
3.9243045657400177
 40
4.0009853522461638
 10
-245.2844562400071
 20
202.85294934545391
 30
0.0
 10
-245.36019631411691
 20
202.84097503156781
 30
0.0
 10
-245.4328812286617
 20
202.80586713859341
 30
0.0
 10
-245.5002873452282
 20
202.74941289081451
 30
0.0
 10
-245.56073637415429
 20
202.67364571162071
 30
0.0
 10
-245.61269805180461
 20
202.58086668767811
 30
0.0
 10
-245.65476085360839
 20
202.47379509694539
 30
0.0
 10
-245.68572378707901
 20
202.35558091619009
 30
0.0
 10
-245.70467812445489
 20
202.22973095562179
 30
0.0
 10
-245.71105988961941
 20
202.09999999999999
 30
0.0
 10
-245.70467812445489
 20
201.97026904437811
 30
0.0
 10
-245.68572378707901
 20
201.84441908380981
 30
0.0
 10
-245.65476085360851
 20
201.72620490305459
 30
0.0
 10
-245.61269805180461
 20
201.61913331232191
 30
0.0
 10
-245.56073637415429
 20
201.52635428837931
 30
0.0
 10
-245.5002873452282
 20
201.45058710918539
 30
0.0
 10
-245.43288122866181
 20
201.39413286140649
 30
0.0
 10
-245.36019631411691
 20
201.35902496843229
 30
0.0
 10
-245.2844562400071
 20
201.34705065454611
 30
0.0
 10
-245.20871616589741
 20
201.35902496843229
 30
0.0
 10
-245.13603125135251
 20
201.39413286140649
 30
0.0
 10
-245.068625134786
 20
201.45058710918539
 30
0.0
 10
-245.00817610586
 20
201.52635428837931
 30
0.0
 10
-244.95621442820959
 20
201.61913331232191
 30
0.0
 10
-244.91415162640581
 20
201.72620490305459
 30
0.0
 10
-244.88318869293519
 20
201.84441908380981
 30
0.0
 10
-244.8642343555594
 20
201.9702690443782
 30
0.0
 10
-244.85785259039491
 20
202.09999999999999
 30
0.0
 10
-244.8642343555594
 20
202.22973095562179
 30
0.0
 10
-244.88318869293519
 20
202.35558091619009
 30
0.0
 10
-244.91415162640581
 20
202.47379509694539
 30
0.0
 10
-244.95621442820959
 20
202.58086668767811
 30
0.0
 10
-245.00817610585989
 20
202.67364571162071
 30
0.0
 10
-245.06862513478609
 20
202.74941289081451
 30
0.0
 10
-245.13603125135251
 20
202.80586713859361
 30
0.0
 10
-245.20871616589741
 20
202.84097503156769
 30
0.0
 10
-245.2844562400071
 20
202.85294934545391
 30
0.0
 10
-245.36019631411691
 20
202.84097503156781
 30
0.0
 11
-245.32183409434089
 21
202.8470400013525
 31
0.0
 11
-245.35937806204473
 21
202.83825412147286
 31
0.0
 11
-245.39528552560415
 21
202.82402642140343
 31
0.0
 11
-245.43152176641118
 21
202.8036737147724
 31
0.0
 11
-245.46503908271723
 21
202.77893416049943
 31
0.0
 11
-245.49867289744273
 21
202.74777167041267
 31
0.0
 11
-245.52907781659727
 21
202.7133267395223
 31
0.0
 11
-245.55903992508379
 21
202.67246321644203
 31
0.0
 11
-245.58560913542922
 21
202.62923470300441
 31
0.0
 11
-245.61100181026669
 21
202.58003767724426
 31
0.0
 11
-245.63300200202826
 21
202.52918263061633
 31
0.0
 11
-245.65309423809481
 21
202.47323657474215
 31
0.0
 11
-245.66985324313424
 21
202.4161734744614
 31
0.0
 11
-245.68408949918043
 21
202.35523646643679
 31
0.0
 11
-245.69505717942948
 21
202.29361055890553
 31
0.0
 11
-245.70306656801199
 21
202.22956663056578
 31
0.0
 11
-245.70785284370874
 21
202.16519405211403
 31
0.0
 11
-245.70945636666406
 21
202.09999999999999
 31
0.0
 11
-245.70785284370874
 21
202.0348059478859
 31
0.0
 11
-245.70306656801202
 21
201.97043336943415
 31
0.0
 11
-245.69505717942945
 21
201.90638944109435
 31
0.0
 11
-245.68408949918043
 21
201.84476353356311
 31
0.0
 11
-245.66985324313433
 21
201.78382652553853
 31
0.0
 11
-245.65309423809492
 21
201.72676342525784
 31
0.0
 11
-245.63300200202832
 21
201.67081736938366
 31
0.0
 11
-245.61100181026669
 21
201.61996232275578
 31
0.0
 11
-245.58560913542922
 21
201.5707652969956
 31
0.0
 11
-245.55903992508377
 21
201.52753678355799
 31
0.0
 11
-245.52907781659727
 21
201.48667326047766
 31
0.0
 11
-245.4986728974427
 21
201.45222832958723
 31
0.0
 11
-245.46503908271725
 21
201.42106583950047
 31
0.0
 11
-245.43152176641129
 21
201.3963262852275
 31
0.0
 11
-245.39528552560424
 21
201.37597357859659
 31
0.0
 11
-245.35937806204475
 21
201.36174587852719
 31
0.0
 11
-245.32183409434089
 21
201.35295999864758
 31
0.0
 11
-245.28445624000713
 21
201.35000532659686
 31
0.0
 11
-245.24707838567338
 21
201.35295999864758
 31
0.0
 11
-245.20953441796959
 21
201.36174587852719
 31
0.0
 11
-245.17362695441011
 21
201.37597357859659
 31
0.0
 11
-245.13739071360303
 21
201.39632628522753
 31
0.0
 11
-245.10387339729698
 21
201.4210658395005
 31
0.0
 11
-245.0702395825715
 21
201.45222832958723
 31
0.0
 11
-245.03983466341697
 21
201.48667326047763
 31
0.0
 11
-245.00987255493047
 21
201.52753678355793
 31
0.0
 11
-244.98330334458501
 21
201.5707652969956
 31
0.0
 11
-244.95791066974749
 21
201.61996232275575
 31
0.0
 11
-244.93591047798594
 21
201.67081736938366
 31
0.0
 11
-244.9158182419194
 21
201.72676342525784
 31
0.0
 11
-244.89905923687994
 21
201.78382652553853
 31
0.0
 11
-244.88482298083375
 21
201.84476353356314
 31
0.0
 11
-244.87385530058475
 21
201.9063894410944
 31
0.0
 11
-244.86584591200227
 21
201.97043336943423
 31
0.0
 11
-244.86105963630558
 21
202.03480594788596
 31
0.0
 11
-244.85945611335023
 21
202.09999999999999
 31
0.0
 11
-244.86105963630558
 21
202.16519405211403
 31
0.0
 11
-244.8658459120023
 21
202.22956663056578
 31
0.0
 11
-244.87385530058475
 21
202.29361055890553
 31
0.0
 11
-244.88482298083375
 21
202.35523646643679
 31
0.0
 11
-244.89905923687996
 21
202.4161734744614
 31
0.0
 11
-244.9158182419194
 21
202.47323657474215
 31
0.0
 11
-244.93591047798594
 21
202.52918263061633
 31
0.0
 11
-244.95791066974752
 21
202.58003767724423
 31
0.0
 11
-244.98330334458495
 21
202.62923470300439
 31
0.0
 11
-245.00987255493038
 21
202.67246321644203
 31
0.0
 11
-245.03983466341697
 21
202.7133267395223
 31
0.0
 11
-245.07023958257153
 21
202.7477716704127
 31
0.0
 11
-245.10387339729704
 21
202.77893416049955
 31
0.0
 11
-245.13739071360303
 21
202.80367371477251
 31
0.0
 11
-245.17362695441011
 21
202.82402642140349
 31
0.0
 11
-245.20953441796962
 21
202.83825412147283
 31
0.0
 11
-245.24707838567338
 21
202.84704000135244
 31
0.0
 11
-245.28457928568739
 21
202.84997522019279
 31
0.0
 11
-245.32232627706199
 21
202.84696218851087
 31
0.0
 11
-245.34126129558948
 21
202.84396861003935
 31
0.0
 11
-245.32232627706199
 21
202.84696218851084
 31
0.0
 11
-245.30326821285428
 21
202.84997522019279
 31
0.0
 11
-245.32183409434089
 21
202.84704000135247
 31
0.0
  0
SPLINE
  5
24F
100
AcDbEntity
  8
1
  6
CONTINUOUS
 62
           3
100
AcDbSpline
210
0.0
220
0.0
230
1.0
 70
           0
 71
           3
 72
          41
 73
          38
 74
          77
 42
0.00000000001
 43
0.00000000001
 44
0.00000000001
 40
-0.1374154984636657
 40
-0.0018581129533501
 40
0.1336992725569656
 40
0.2730127531729111
 40
0.4227687322576715
 40
0.5875418154222438
 40
0.7693296890086767
 40
0.9678075846705178
 40
1.180873987283412
 40
1.4051735791062676
 40
1.6365253816109278
 40
1.8702787801683238
 40
2.1016305826729904
 40
2.3259301744957863
 40
2.5389965771086418
 40
2.7374744727705211
 40
2.9192623463570344
 40
3.0840354295216263
 40
3.2337914086063302
 40
3.3731048892222919
 40
3.5086622747326217
 40
3.6479757553485781
 40
3.7977317344333219
 40
3.9625048175978765
 40
4.1442926911843543
 40
4.3427705868462123
 40
4.5558369894590918
 40
4.7801365812819085
 40
5.0114883837865563
 40
5.2452417823439426
 40
5.4765935848485334
 40
5.7008931766713493
 40
5.9139595792842705
 40
6.112437474946141
 40
6.2942253485326187
 40
6.4589984316971769
 40
6.6087544107818914
 40
6.7480678913978567
 40
6.8836252769082051
 40
7.0191826624185207
 40
7.1547400479288363
 10
-208.459456240008
 20
146.344681876256
 30
0.0
 10
-208.59328010997081
 20
146.3662915174971
 30
0.0
 10
-208.721591617553
 20
146.42957706497151
 30
0.0
 10
-208.84050233537349
 20
146.53123561214491
 30
0.0
 10
-208.94711956983721
 20
146.66760894278289
 30
0.0
 10
-209.0387703023911
 20
146.83458113215141
 30
0.0
 10
-209.1129673295452
 20
147.0272735616868
 30
0.0
 10
-209.1675884559638
 20
147.24002272321519
 30
0.0
 10
-209.20102696213681
 20
147.4665178960982
 30
0.0
 10
-209.21228566964339
 20
147.69999999999999
 30
0.0
 10
-209.20102696213681
 20
147.93348210390181
 30
0.0
 10
-209.16758845596371
 20
148.15997727678479
 30
0.0
 10
-209.1129673295452
 20
148.37272643831309
 30
0.0
 10
-209.0387703023911
 20
148.56541886784851
 30
0.0
 10
-208.94711956983721
 20
148.73239105721709
 30
0.0
 10
-208.84050233537349
 20
148.86876438785521
 30
0.0
 10
-208.721591617553
 20
148.97042293502849
 30
0.0
 10
-208.59328010997089
 20
149.03370848250299
 30
0.0
 10
-208.459456240008
 20
149.055318123744
 30
0.0
 10
-208.32563237004521
 20
149.03370848250299
 30
0.0
 10
-208.19732086246299
 20
148.97042293502849
 30
0.0
 10
-208.0784101446427
 20
148.86876438785501
 30
0.0
 10
-207.97179291017881
 20
148.73239105721709
 30
0.0
 10
-207.8801421776248
 20
148.56541886784859
 30
0.0
 10
-207.80594515047099
 20
148.37272643831309
 30
0.0
 10
-207.7513240240522
 20
148.15997727678479
 30
0.0
 10
-207.7178855178793
 20
147.93348210390181
 30
0.0
 10
-207.70662681037291
 20
147.69999999999999
 30
0.0
 10
-207.7178855178793
 20
147.4665178960982
 30
0.0
 10
-207.7513240240522
 20
147.2400227232153
 30
0.0
 10
-207.80594515047099
 20
147.02727356168691
 30
0.0
 10
-207.8801421776248
 20
146.83458113215141
 30
0.0
 10
-207.97179291017881
 20
146.66760894278289
 30
0.0
 10
-208.07841014464259
 20
146.53123561214491
 30
0.0
 10
-208.19732086246299
 20
146.42957706497151
 30
0.0
 10
-208.3256323700451
 20
146.36629151749699
 30
0.0
 10
-208.459456240008
 20
146.344681876256
 30
0.0
 10
-208.59328010997081
 20
146.3662915174971
 30
0.0
 11
-208.52545382711747
 21
146.3553390496034
 31
0.0
 11
-208.59178307858659
 21
146.37117832387295
 31
0.0
 11
-208.65511826728726
 21
146.39679121089424
 31
0.0
 11
-208.71912744975037
 21
146.43348121240641
 31
0.0
 11
-208.77820829660811
 21
146.47797950878834
 31
0.0
 11
-208.83760166872665
 21
146.53413132784829
 31
0.0
 11
-208.89119370755159
 21
146.59607457831495
 31
0.0
 11
-208.94409162225961
 21
146.66968081552042
 31
0.0
 11
-208.99093364181257
 21
146.74743079820095
 31
0.0
 11
-209.03575699670537
 21
146.8360262772452
 31
0.0
 11
-209.07455374022669
 21
146.92751204647698
 31
0.0
 11
-209.11001621374905
 21
147.02824380412744
 31
0.0
 11
-209.13957645567922
 21
147.13091604665925
 31
0.0
 11
-209.1647005773315
 21
147.24061976161883
 31
0.0
 11
-209.1840489417192
 21
147.35151755338569
 31
0.0
 11
-209.19818252860199
 21
147.46680237371183
 31
0.0
 11
-209.2066272484152
 21
147.58265614926523
 31
0.0
 11
-209.2094564590293
 21
147.69999999999999
 31
0.0
 11
-209.2066272484152
 21
147.81734385073474
 31
0.0
 11
-209.19818252860196
 21
147.93319762628815
 31
0.0
 11
-209.18404894171917
 21
148.04848244661429
 31
0.0
 11
-209.16470057733144
 21
148.15938023838112
 31
0.0
 11
-209.13957645567919
 21
148.2690839533407
 31
0.0
 11
-209.11001621374908
 21
148.37175619587245
 31
0.0
 11
-209.07455374022669
 21
148.47248795352289
 31
0.0
 11
-209.03575699670535
 21
148.5639737227547
 31
0.0
 11
-208.9909336418126
 21
148.652569201799
 31
0.0
 11
-208.94409162225966
 21
148.73031918447955
 31
0.0
 11
-208.89119370755162
 21
148.80392542168511
 31
0.0
 11
-208.83760166872668
 21
148.86586867215183
 31
0.0
 11
-208.77820829660811
 21
148.92202049121173
 31
0.0
 11
-208.71912744975035
 21
148.96651878759363
 31
0.0
 11
-208.65511826728732
 21
149.00320878910583
 31
0.0
 11
-208.59178307858667
 21
149.02882167612711
 31
0.0
 11
-208.52545382711753
 21
149.04466095039663
 31
0.0
 11
-208.45945624000802
 21
149.04998953707033
 31
0.0
 11
-208.39345865289852
 21
149.04466095039663
 31
0.0
 11
-208.3271294014294
 21
149.02882167612711
 31
0.0
 11
-208.26379421272873
 21
149.00320878910583
 31
0.0
 11
-208.19978503026567
 21
148.9665187875936
 31
0.0
 11
-208.14070418340796
 21
148.92202049121161
 31
0.0
 11
-208.08131081128948
 21
148.86586867215163
 31
0.0
 11
-208.02771877246454
 21
148.80392542168499
 31
0.0
 11
-207.97482085775638
 21
148.73031918447953
 31
0.0
 11
-207.92797883820339
 21
148.65256920179903
 31
0.0
 11
-207.88315548331059
 21
148.56397372275478
 31
0.0
 11
-207.84435873978933
 21
148.47248795352294
 31
0.0
 11
-207.80889626626703
 21
148.37175619587242
 31
0.0
 11
-207.77933602433689
 21
148.2690839533407
 31
0.0
 11
-207.75421190268452
 21
148.15938023838112
 31
0.0
 11
-207.73486353829682
 21
148.04848244661429
 31
0.0
 11
-207.72072995141409
 21
147.93319762628815
 31
0.0
 11
-207.71228523160099
 21
147.81734385073474
 31
0.0
 11
-207.70945602098695
 21
147.69999999999999
 31
0.0
 11
-207.71228523160102
 21
147.58265614926523
 31
0.0
 11
-207.72072995141411
 21
147.46680237371186
 31
0.0
 11
-207.73486353829679
 21
147.35151755338578
 31
0.0
 11
-207.75421190268455
 21
147.24061976161894
 31
0.0
 11
-207.77933602433689
 21
147.13091604665937
 31
0.0
 11
-207.80889626626703
 21
147.02824380412756
 31
0.0
 11
-207.84435873978936
 21
146.92751204647703
 31
0.0
 11
-207.88315548331056
 21
146.8360262772452
 31
0.0
 11
-207.92797883820339
 21
146.74743079820095
 31
0.0
 11
-207.97482085775636
 21
146.66968081552039
 31
0.0
 11
-208.02771877246445
 21
146.59607457831495
 31
0.0
 11
-208.0813108112894
 21
146.53413132784826
 31
0.0
 11
-208.14070418340793
 21
146.47797950878834
 31
0.0
 11
-208.19978503026564
 21
146.43348121240638
 31
0.0
 11
-208.26379421272867
 21
146.39679121089421
 31
0.0
 11
-208.32712940142935
 21
146.37117832387287
 31
0.0
 11
-208.39345865289846
 21
146.35533904960334
 31
0.0
 11
-208.45968482697594
 21
146.35004737474799
 31
0.0
 11
-208.52636817498941
 21
146.35548669687654
 31
0.0
 11
-208.5598241424801
 21
146.36088910718684
 31
0.0
 11
-208.52636817498939
 21
146.35548669687654
 31
0.0
 11
-208.49268362053073
 21
146.35004737474799
 31
0.0
 11
-208.52545382711747
 21
146.3553390496034
 31
0.0
  0
SPLINE
  5
24E
100
AcDbEntity
  8
1
  6
CONTINUOUS
 62
           3
100
AcDbSpline
210
0.0
220
0.0
230
1.0
 70
           0
 71
           3
 72
          41
 73
          38
 74
          77
 42
0.00000000001
 43
0.00000000001
 44
0.00000000001
 40
-0.1374154984636373
 40
-0.0018581129533413
 40
0.1336992725569565
 40
0.2730127531729181
 40
0.4227687322576666
 40
0.5875418154222468
 40
0.7693296890087245
 40
0.9678075846705655
 40
1.1808739872834599
 40
1.4051735791063154
 40
1.6365253816109897
 40
1.8702787801683289
 40
2.1016305826729389
 40
2.3259301744957899
 40
2.5389965771086871
 40
2.7374744727705291
 40
2.919262346356994
 40
3.0840354295215833
 40
3.2337914086062964
 40
3.3731048892222582
 40
3.508662274732588
 40
3.6479757553485257
 40
3.7977317344332508
 40
3.9625048175978392
 40
4.1442926911843507
 40
4.3427705868461688
 40
4.555836989458995
 40
4.7801365812818677
 40
5.0114883837865714
 40
5.2452417823439008
 40
5.476593584848505
 40
5.7008931766713768
 40
5.9139595792842448
 40
6.1124374749460619
 40
6.294225348532585
 40
6.4589984316971876
 40
6.6087544107818772
 40
6.7480678913978176
 40
6.8836252769081572
 40
7.0191826624184532
 40
7.1547400479287511
 10
-208.459456240008
 20
216.3553181237439
 30
0.0
 10
-208.59328010997081
 20
216.33370848250291
 30
0.0
 10
-208.721591617553
 20
216.27042293502839
 30
0.0
 10
-208.84050233537349
 20
216.16876438785511
 30
0.0
 10
-208.94711956983721
 20
216.03239105721701
 30
0.0
 10
-209.0387703023911
 20
215.86541886784849
 30
0.0
 10
-209.1129673295452
 20
215.67272643831311
 30
0.0
 10
-209.1675884559638
 20
215.45997727678471
 30
0.0
 10
-209.20102696213681
 20
215.23348210390171
 30
0.0
 10
-209.21228566964339
 20
214.99999999999989
 30
0.0
 10
-209.20102696213681
 20
214.76651789609821
 30
0.0
 10
-209.16758845596371
 20
214.5400227232152
 30
0.0
 10
-209.1129673295452
 20
214.32727356168681
 30
0.0
 10
-209.0387703023911
 20
214.1345811321514
 30
0.0
 10
-208.94711956983721
 20
213.9676089427829
 30
0.0
 10
-208.84050233537349
 20
213.83123561214481
 30
0.0
 10
-208.721591617553
 20
213.72957706497149
 30
0.0
 10
-208.59328010997089
 20
213.666291517497
 30
0.0
 10
-208.459456240008
 20
213.64468187625599
 30
0.0
 10
-208.32563237004521
 20
213.666291517497
 30
0.0
 10
-208.19732086246299
 20
213.72957706497141
 30
0.0
 10
-208.0784101446427
 20
213.83123561214489
 30
0.0
 10
-207.97179291017881
 20
213.9676089427829
 30
0.0
 10
-207.8801421776248
 20
214.1345811321514
 30
0.0
 10
-207.80594515047099
 20
214.32727356168681
 30
0.0
 10
-207.7513240240522
 20
214.54002272321509
 30
0.0
 10
-207.7178855178793
 20
214.76651789609821
 30
0.0
 10
-207.70662681037291
 20
215.0
 30
0.0
 10
-207.7178855178793
 20
215.23348210390171
 30
0.0
 10
-207.7513240240522
 20
215.45997727678471
 30
0.0
 10
-207.80594515047099
 20
215.67272643831311
 30
0.0
 10
-207.8801421776248
 20
215.86541886784849
 30
0.0
 10
-207.97179291017881
 20
216.03239105721701
 30
0.0
 10
-208.07841014464259
 20
216.16876438785511
 30
0.0
 10
-208.19732086246299
 20
216.27042293502851
 30
0.0
 10
-208.3256323700451
 20
216.33370848250291
 30
0.0
 10
-208.459456240008
 20
216.3553181237439
 30
0.0
 10
-208.59328010997081
 20
216.33370848250291
 30
0.0
 11
-208.52545382711747
 21
216.34466095039653
 31
0.0
 11
-208.59178307858659
 21
216.32882167612703
 31
0.0
 11
-208.65511826728726
 21
216.30320878910572
 31
0.0
 11
-208.71912744975035
 21
216.26651878759353
 31
0.0
 11
-208.77820829660811
 21
216.22202049121159
 31
0.0
 11
-208.83760166872668
 21
216.16586867215173
 31
0.0
 11
-208.89119370755159
 21
216.10392542168501
 31
0.0
 11
-208.94409162225963
 21
216.03031918447948
 31
0.0
 11
-208.99093364181257
 21
215.95256920179895
 31
0.0
 11
-209.03575699670535
 21
215.86397372275471
 31
0.0
 11
-209.07455374022669
 21
215.7724879535229
 31
0.0
 11
-209.11001621374905
 21
215.67175619587243
 31
0.0
 11
-209.13957645567922
 21
215.56908395334068
 31
0.0
 11
-209.1647005773315
 21
215.45938023838107
 31
0.0
 11
-209.18404894171923
 21
215.34848244661421
 31
0.0
 11
-209.19818252860205
 21
215.23319762628807
 31
0.0
 11
-209.2066272484152
 21
215.11734385073461
 31
0.0
 11
-209.20945645902933
 21
214.99999999999991
 31
0.0
 11
-209.2066272484152
 21
214.88265614926519
 31
0.0
 11
-209.19818252860199
 21
214.76680237371184
 31
0.0
 11
-209.18404894171917
 21
214.6515175533857
 31
0.0
 11
-209.16470057733144
 21
214.54061976161881
 31
0.0
 11
-209.13957645567919
 21
214.43091604665926
 31
0.0
 11
-209.11001621374911
 21
214.32824380412748
 31
0.0
 11
-209.07455374022669
 21
214.22751204647699
 31
0.0
 11
-209.0357569967054
 21
214.13602627724524
 31
0.0
 11
-208.99093364181257
 21
214.04743079820096
 31
0.0
 11
-208.94409162225966
 21
213.96968081552043
 31
0.0
 11
-208.89119370755162
 21
213.89607457831494
 31
0.0
 11
-208.83760166872665
 21
213.83413132784821
 31
0.0
 11
-208.77820829660811
 21
213.77797950878826
 31
0.0
 11
-208.7191274497504
 21
213.73348121240636
 31
0.0
 11
-208.65511826728732
 21
213.69679121089416
 31
0.0
 11
-208.59178307858664
 21
213.67117832387288
 31
0.0
 11
-208.52545382711753
 21
213.65533904960336
 31
0.0
 11
-208.45945624000802
 21
213.65001046292969
 31
0.0
 11
-208.39345865289852
 21
213.65533904960336
 31
0.0
 11
-208.3271294014294
 21
213.67117832387288
 31
0.0
 11
-208.26379421272873
 21
213.69679121089413
 31
0.0
 11
-208.19978503026567
 21
213.73348121240633
 31
0.0
 11
-208.14070418340799
 21
213.77797950878829
 31
0.0
 11
-208.08131081128948
 21
213.83413132784827
 31
0.0
 11
-208.02771877246454
 21
213.89607457831497
 31
0.0
 11
-207.97482085775636
 21
213.96968081552043
 31
0.0
 11
-207.92797883820339
 21
214.04743079820099
 31
0.0
 11
-207.88315548331059
 21
214.13602627724521
 31
0.0
 11
-207.84435873978933
 21
214.22751204647699
 31
0.0
 11
-207.80889626626703
 21
214.32824380412742
 31
0.0
 11
-207.77933602433686
 21
214.43091604665915
 31
0.0
 11
-207.75421190268452
 21
214.54061976161876
 31
0.0
 11
-207.73486353829682
 21
214.65151755338564
 31
0.0
 11
-207.72072995141409
 21
214.76680237371184
 31
0.0
 11
-207.71228523160096
 21
214.8826561492653
 31
0.0
 11
-207.70945602098692
 21
214.99999999999994
 31
0.0
 11
-207.71228523160099
 21
215.11734385073467
 31
0.0
 11
-207.72072995141409
 21
215.23319762628805
 31
0.0
 11
-207.73486353829679
 21
215.34848244661418
 31
0.0
 11
-207.75421190268452
 21
215.45938023838104
 31
0.0
 11
-207.77933602433686
 21
215.56908395334068
 31
0.0
 11
-207.80889626626706
 21
215.67175619587243
 31
0.0
 11
-207.84435873978933
 21
215.7724879535229
 31
0.0
 11
-207.88315548331056
 21
215.86397372275468
 31
0.0
 11
-207.92797883820339
 21
215.95256920179889
 31
0.0
 11
-207.97482085775636
 21
216.03031918447948
 31
0.0
 11
-208.02771877246448
 21
216.10392542168501
 31
0.0
 11
-208.08131081128937
 21
216.16586867215173
 31
0.0
 11
-208.14070418340793
 21
216.22202049121168
 31
0.0
 11
-208.19978503026567
 21
216.26651878759358
 31
0.0
 11
-208.26379421272867
 21
216.30320878910578
 31
0.0
 11
-208.32712940142935
 21
216.32882167612703
 31
0.0
 11
-208.39345865289843
 21
216.34466095039653
 31
0.0
 11
-208.45968482697597
 21
216.34995262525194
 31
0.0
 11
-208.52636817498939
 21
216.34451330312339
 31
0.0
 11
-208.5598241424801
 21
216.33911089281315
 31
0.0
 11
-208.52636817498939
 21
216.34451330312339
 31
0.0
 11
-208.49268362053073
 21
216.34995262525194
 31
0.0
 11
-208.52545382711747
 21
216.34466095039656
 31
0.0
  0
SPLINE
  5
24D
100
AcDbEntity
  8
1
  6
CONTINUOUS
 62
           3
100
AcDbSpline
210
0.0
220
0.0
230
1.0
 70
           0
 71
           4
 72
          25
 73
          21
 74
          37
 42
0.00000000001
 43
0.00000000001
 44
0.00000000001
 40
0.0
 40
0.0
 40
0.0
 40
0.0
 40
2.5258345497149417
 40
6.1394138392778252
 40
10.00653637867225
 40
12.189865497068567
 40
13.847867159851983
 40
15.190851820589421
 40
16.42902336086345
 40
19.798931941126369
 40
24.627302526533697
 40
30.077683968428218
 40
34.438942997280236
 40
40.832865172099034
 40
49.114591731858049
 40
56.946710269831797
 40
61.510351704247171
 40
65.238329834319899
 40
70.555404937493066
 40
78.36202558641601
 40
78.36202558641601
 40
78.36202558641601
 40
78.36202558641601
 10
-244.61195122227301
 20
203.84999999999999
 30
0.0
 10
-244.422015727907
 20
203.45605548977289
 30
0.0
 10
-243.4556443537364
 20
201.60458884978721
 30
0.0
 10
-241.299760405896
 20
198.70456821444651
 30
0.0
 10
-237.49414248862891
 20
198.01761188216031
 30
0.0
 10
-235.3581599106351
 20
198.46983358193171
 30
0.0
 10
-233.76393730220241
 20
198.9252716002774
 30
0.0
 10
-232.4992279323437
 20
199.3770658109172
 30
0.0
 10
-231.33881560130001
 20
199.80893614458961
 30
0.0
 10
-228.18595777468391
 20
200.99879805442421
 30
0.0
 10
-223.3629372479422
 20
201.22603253388269
 30
0.0
 10
-218.45023830753391
 20
198.86551416219831
 30
0.0
 10
-214.9992322029681
 20
196.19884260705831
 30
0.0
 10
-208.88080829390731
 20
194.34219787887989
 30
0.0
 10
-202.9623048165611
 20
200.13515147780149
 30
0.0
 10
-203.8200382288326
 20
207.9201610594491
 30
0.0
 10
-208.36545301956431
 20
208.32762580897989
 30
0.0
 10
-210.64017524533051
 20
211.28117616980089
 30
0.0
 10
-210.50583426294361
 20
216.59655387540519
 30
0.0
 10
-215.2812560697771
 20
218.8470011456038
 30
0.0
 10
-217.70945624002729
 20
218.14552020124401
 30
0.0
 11
-244.61195122227301
 21
203.84999999999999
 31
0.0
 11
-244.18973207222862
 21
203.03075247390794
 31
0.0
 11
-243.56654417175409
 21
201.94483908181863
 31
0.0
 11
-242.46784579633331
 21
200.39979095769783
 31
0.0
 11
-241.04307620549784
 21
199.159850783313
 31
0.0
 11
-239.10682898868257
 21
198.40500071166304
 31
0.0
 11
-237.11951017664742
 21
198.21861759993831
 31
0.0
 11
-236.12685671710483
 21
198.3258275674774
 31
0.0
 11
-235.17485289457008
 21
198.53686777451429
 31
0.0
 11
-234.43017130350512
 21
198.73921927889396
 31
0.0
 11
-233.67546583643983
 21
198.97010011865197
 31
0.0
 11
-233.07867230825286
 21
199.17197732561655
 31
0.0
 11
-232.54017298887993
 21
199.36447429562196
 31
0.0
 11
-232.1185263821215
 21
199.51915483055245
 31
0.0
 11
-231.70820326291192
 21
199.67204168534798
 31
0.0
 11
-230.31596488801691
 21
200.17505667431473
 31
0.0
 11
-228.64657982114537
 21
200.66329635032196
 31
0.0
 11
-226.14023843305654
 21
201.0057612235361
 31
0.0
 11
-223.62311554120441
 21
200.81221410401668
 31
0.0
 11
-220.88105076495341
 21
199.94259692364125
 31
0.0
 11
-218.45600504230663
 21
198.67986885633195
 31
0.0
 11
-216.8309384498246
 21
197.62382271697228
 31
0.0
 11
-215.24030451861137
 21
196.65185561531433
 31
0.0
 11
-212.53885888232929
 21
195.61712856311897
 31
0.0
 11
-209.65035388534599
 21
195.51497721204288
 31
0.0
 11
-206.30676357687651
 21
197.32430647020595
 31
0.0
 11
-204.1398776975598
 21
200.75789710470187
 31
0.0
 11
-203.76187572195474
 21
204.56700273906711
 31
0.0
 11
-205.14540356012728
 21
207.41264462384964
 31
0.0
 11
-206.68570503923922
 21
208.16219579658932
 31
0.0
 11
-208.31278988906899
 21
208.83041259985015
 31
0.0
 11
-209.38216685517213
 21
209.78171466407687
 31
0.0
 11
-210.10547427289717
 21
211.08746109820848
 31
0.0
 11
-210.62097164380401
 21
213.29529937009511
 31
0.0
 11
-211.32672594615357
 21
215.50121650075155
 31
0.0
 11
-214.02521878548211
 21
217.83908911565618
 31
0.0
 11
-217.70945624002729
 21
218.14552020124401
 31
0.0
  0
SPLINE
  5
24C
100
AcDbEntity
  8
1
  6
CONTINUOUS
 62
           3
100
AcDbSpline
210
0.0
220
0.0
230
1.0
 70
           0
 71
           4
 72
          25
 73
          21
 74
          37
 42
0.00000000001
 43
0.00000000001
 44
0.00000000001
 40
0.0
 40
0.0
 40
0.0
 40
0.0
 40
2.5258345497148511
 40
6.1394138392778164
 40
10.006536378672225
 40
12.189865497068524
 40
13.847867159851971
 40
15.190851820589408
 40
16.429023360863397
 40
19.798931941126348
 40
24.627302526533683
 40
30.077683968428268
 40
34.438942997280286
 40
40.832865172099076
 40
49.114591731858091
 40
56.94671026983184
 40
61.510351704247213
 40
65.238329834319941
 40
70.555404937493904
 40
78.36202558641682
 40
78.36202558641682
 40
78.36202558641682
 40
78.36202558641682
 10
-244.61195122227301
 20
158.84999999999999
 30
0.0
 10
-244.422015727907
 20
159.2439445102271
 30
0.0
 10
-243.45564435373589
 20
161.09541115021241
 30
0.0
 10
-241.299760405896
 20
163.99543178555359
 30
0.0
 10
-237.49414248862891
 20
164.68238811783971
 30
0.0
 10
-235.3581599106351
 20
164.23016641806839
 30
0.0
 10
-233.76393730220241
 20
163.77472839972259
 30
0.0
 10
-232.4992279323437
 20
163.32293418908279
 30
0.0
 10
-231.33881560130001
 20
162.89106385541049
 30
0.0
 10
-228.18595777468391
 20
161.7012019455758
 30
0.0
 10
-223.3629372479422
 20
161.47396746611719
 30
0.0
 10
-218.45023830753391
 20
163.83448583780171
 30
0.0
 10
-214.9992322029681
 20
166.50115739294171
 30
0.0
 10
-208.88080829390731
 20
168.3578021211201
 30
0.0
 10
-202.9623048165611
 20
162.5648485221985
 30
0.0
 10
-203.8200382288326
 20
154.77983894055089
 30
0.0
 10
-208.36545301956431
 20
154.3723741910201
 30
0.0
 10
-210.64017524533051
 20
151.4188238301991
 30
0.0
 10
-210.50583426294361
 20
146.103446124594
 30
0.0
 10
-215.28125606977679
 20
143.85299885439579
 30
0.0
 10
-217.70945624002729
 20
144.55447979875601
 30
0.0
 11
-244.61195122227301
 21
158.84999999999999
 31
0.0
 11
-244.18973207222854
 21
159.66924752609197
 31
0.0
 11
-243.5665441717538
 21
160.7551609181811
 31
0.0
 11
-242.46784579633305
 21
162.30020904230196
 31
0.0
 11
-241.04307620549773
 21
163.54014921668698
 31
0.0
 11
-239.10682898868248
 21
164.29499928833701
 31
0.0
 11
-237.1195101766474
 21
164.48138240006176
 31
0.0
 11
-236.12685671710483
 21
164.37417243252267
 31
0.0
 11
-235.17485289457011
 21
164.16313222548575
 31
0.0
 11
-234.43017130350509
 21
163.96078072110606
 31
0.0
 11
-233.6754658364398
 21
163.72989988134808
 31
0.0
 11
-233.07867230825286
 21
163.52802267438344
 31
0.0
 11
-232.54017298887996
 21
163.33552570437809
 31
0.0
 11
-232.11852638212147
 21
163.18084516944757
 31
0.0
 11
-231.70820326291192
 21
163.0279583146521
 31
0.0
 11
-230.31596488801688
 21
162.52494332568531
 31
0.0
 11
-228.64657982114534
 21
162.03670364967809
 31
0.0
 11
-226.14023843305657
 21
161.69423877646386
 31
0.0
 11
-223.62311554120441
 21
161.88778589598328
 31
0.0
 11
-220.88105076495341
 21
162.75740307635866
 31
0.0
 11
-218.4560050423066
 21
164.0201311436681
 31
0.0
 11
-216.83093844982457
 21
165.07617728302773
 31
0.0
 11
-215.24030451861137
 21
166.04814438468566
 31
0.0
 11
-212.53885888232929
 21
167.08287143688099
 31
0.0
 11
-209.65035388534602
 21
167.18502278795711
 31
0.0
 11
-206.30676357687653
 21
165.37569352979403
 31
0.0
 11
-204.1398776975598
 21
161.94210289529812
 31
0.0
 11
-203.76187572195474
 21
158.13299726093285
 31
0.0
 11
-205.14540356012728
 21
155.28735537615034
 31
0.0
 11
-206.68570503923922
 21
154.53780420341062
 31
0.0
 11
-208.31278988906899
 21
153.86958740014984
 31
0.0
 11
-209.38216685517207
 21
152.9182853359232
 31
0.0
 11
-210.10547427289714
 21
151.61253890179159
 31
0.0
 11
-210.62097164380401
 21
149.40470062990454
 31
0.0
 11
-211.32672594615363
 21
147.1987834992477
 31
0.0
 11
-214.025218785482
 21
144.8609108843433
 31
0.0
 11
-217.70945624002729
 21
144.55447979875601
 31
0.0
  0
CIRCLE
  5
24B
100
AcDbEntity
  8
1
  6
CONTINUOUS
 62
           7
100
AcDbCircle
 10
-321.213160807808
 20
181.35
 40
6.999999879871
  0
CIRCLE
  5
24A
100
AcDbEntity
  8
1
  6
CONTINUOUS
 62
           7
100
AcDbCircle
 10
-321.213160807808
 20
181.35
 40
4.999999879871
  0
CIRCLE
  5
249
100
AcDbEntity
  8
1
  6
DASH_CENTER
 62
           3
100
AcDbCircle
 10
-321.213160807808
 20
181.35
 40
16.0
  0
CIRCLE
  5
248
100
AcDbEntity
  8
1
  6
CONTINUOUS
 62
           3
100
AcDbCircle
 10
-321.213160807808
 20
197.35
 40
3.0
  0
CIRCLE
  5
247
100
AcDbEntity
  8
1
  6
CONTINUOUS
 62
           7
100
AcDbCircle
 10
-321.213160807808
 20
197.35
 40
2.4
  0
CIRCLE
  5
246
100
AcDbEntity
  8
1
  6
CONTINUOUS
 62
           3
100
AcDbCircle
 10
-332.526869306792
 20
192.663708498985
 40
3.0
  0
CIRCLE
  5
245
100
AcDbEntity
  8
1
  6
CONTINUOUS
 62
           7
100
AcDbCircle
 10
-332.526869306792
 20
192.663708498985
 40
2.4
  0
CIRCLE
  5
244
100
AcDbEntity
  8
1
  6
CONTINUOUS
 62
           3
100
AcDbCircle
 10
-337.213160807808
 20
181.35
 40
3.0
  0
CIRCLE
  5
243
100
AcDbEntity
  8
1
  6
CONTINUOUS
 62
           7
100
AcDbCircle
 10
-337.213160807808
 20
181.35
 40
2.4
  0
CIRCLE
  5
242
100
AcDbEntity
  8
1
  6
CONTINUOUS
 62
           3
100
AcDbCircle
 10
-332.526869306792
 20
170.036291501015
 40
3.0
  0
CIRCLE
  5
241
100
AcDbEntity
  8
1
  6
CONTINUOUS
 62
           7
100
AcDbCircle
 10
-332.526869306792
 20
170.036291501015
 40
2.4
  0
CIRCLE
  5
240
100
AcDbEntity
  8
1
  6
CONTINUOUS
 62
           3
100
AcDbCircle
 10
-321.213160807808
 20
165.35
 40
3.0
  0
CIRCLE
  5
23F
100
AcDbEntity
  8
1
  6
CONTINUOUS
 62
           7
100
AcDbCircle
 10
-321.213160807808
 20
165.35
 40
2.4
  0
CIRCLE
  5
23E
100
AcDbEntity
  8
1
  6
CONTINUOUS
 62
           3
100
AcDbCircle
 10
-309.899452308823
 20
170.036291501015
 40
3.0
  0
CIRCLE
  5
23D
100
AcDbEntity
  8
1
  6
CONTINUOUS
 62
           7
100
AcDbCircle
 10
-309.899452308823
 20
170.036291501015
 40
2.4
  0
CIRCLE
  5
23C
100
AcDbEntity
  8
1
  6
CONTINUOUS
 62
           3
100
AcDbCircle
 10
-305.213160807808
 20
181.35
 40
3.0
  0
CIRCLE
  5
23B
100
AcDbEntity
  8
1
  6
CONTINUOUS
 62
           7
100
AcDbCircle
 10
-305.213160807808
 20
181.35
 40
2.4
  0
CIRCLE
  5
23A
100
AcDbEntity
  8
1
  6
CONTINUOUS
 62
           3
100
AcDbCircle
 10
-309.899452308823
 20
192.663708498985
 40
3.0
  0
CIRCLE
  5
239
100
AcDbEntity
  8
1
  6
CONTINUOUS
 62
           7
100
AcDbCircle
 10
-309.899452308823
 20
192.663708498985
 40
2.4
  0
CIRCLE
  5
238
100
AcDbEntity
  8
1
  6
CONTINUOUS
 62
           7
100
AcDbCircle
 10
-321.213160807808
 20
181.35
 40
20.1
  0
CIRCLE
  5
237
100
AcDbEntity
  8
1
  6
CONTINUOUS
 62
           7
100
AcDbCircle
 10
-321.213160807808
 20
181.35
 40
21.5
  0
CIRCLE
  5
236
100
AcDbEntity
  8
1
  6
CONTINUOUS
 62
           7
100
AcDbCircle
 10
-321.213160807808
 20
181.35
 40
22.5
  0
CIRCLE
  5
235
100
AcDbEntity
  8
1
  6
CONTINUOUS
 62
           7
100
AcDbCircle
 10
-321.213160807808
 20
181.35
 40
35.0
  0
CIRCLE
  5
234
100
AcDbEntity
  8
1
  6
DASH_CENTER
 62
           3
100
AcDbCircle
 10
-321.213160807808
 20
181.35
 40
31.0
  0
CIRCLE
  5
233
100
AcDbEntity
  8
1
  6
CONTINUOUS
 62
           7
100
AcDbCircle
 10
-321.213160807808
 20
181.35
 40
28.0
  0
CIRCLE
  5
232
100
AcDbEntity
  8
1
  6
DASH_CENTER
 62
           3
100
AcDbCircle
 10
-321.213160807808
 20
181.35
 40
12.0
  0
CIRCLE
  5
231
100
AcDbEntity
  8
1
  6
DASH_CENTER
 62
           3
100
AcDbCircle
 10
-321.213160807808
 20
181.35
 40
9.5
  0
CIRCLE
  5
230
100
AcDbEntity
  8
1
  6
CONTINUOUS
 62
           7
100
AcDbCircle
 10
-107.631768953069
 20
181.35
 40
19.800013527612
  0
CIRCLE
  5
22F
100
AcDbEntity
  8
1
  6
CONTINUOUS
 62
           7
100
AcDbCircle
 10
-107.631768953069
 20
181.35
 40
22.500013527612
  0
CIRCLE
  5
22E
100
AcDbEntity
  8
1
  6
CONTINUOUS
 62
           3
100
AcDbCircle
 10
-140.295843065036
 20
167.820097419345
 40
2.0
  0
CIRCLE
  5
22D
100
AcDbEntity
  8
1
  6
CONTINUOUS
 62
           7
100
AcDbCircle
 10
-140.295843065036
 20
167.820097419345
 40
1.6
  0
CIRCLE
  5
22C
100
AcDbEntity
  8
1
  6
CONTINUOUS
 62
           3
100
AcDbCircle
 10
-121.161670987855
 20
214.014073927643
 40
2.0
  0
CIRCLE
  5
22B
100
AcDbEntity
  8
1
  6
CONTINUOUS
 62
           7
100
AcDbCircle
 10
-121.161670987855
 20
214.014073927643
 40
1.6
  0
CIRCLE
  5
22A
100
AcDbEntity
  8
1
  6
CONTINUOUS
 62
           3
100
AcDbCircle
 10
-74.967694362291
 20
194.87990230939
 40
2.0
  0
CIRCLE
  5
229
100
AcDbEntity
  8
1
  6
CONTINUOUS
 62
           7
100
AcDbCircle
 10
-74.967694362291
 20
194.87990230939
 40
1.6
  0
CIRCLE
  5
228
100
AcDbEntity
  8
1
  6
CONTINUOUS
 62
           3
100
AcDbCircle
 10
-94.101866439379
 20
148.685925801052
 40
2.0
  0
CIRCLE
  5
227
100
AcDbEntity
  8
1
  6
CONTINUOUS
 62
           7
100
AcDbCircle
 10
-94.101866439379
 20
148.685925801052
 40
1.6
  0
CIRCLE
  5
226
100
AcDbEntity
  8
1
  6
CONTINUOUS
 62
           7
100
AcDbCircle
 10
-107.6317684842
 20
181.349999805734
 40
5.000013527562
  0
CIRCLE
  5
225
100
AcDbEntity
  8
1
  6
CONTINUOUS
 62
           7
100
AcDbCircle
 10
-107.6317684842
 20
181.349999805734
 40
7.000013527562
  0
CIRCLE
  5
224
100
AcDbEntity
  8
1
  6
CONTINUOUS
 62
           7
100
AcDbCircle
 10
-107.6317684842
 20
181.349999805734
 40
18.000012752712
  0
CIRCLE
  5
223
100
AcDbEntity
  8
1
  6
DASH_CENTER
 62
           3
100
AcDbCircle
 10
-107.6317684842
 20
181.349999805734
 40
35.355339059327
  0
CIRCLE
  5
222
100
AcDbEntity
  8
1
  6
CONTINUOUS
 62
           7
100
AcDbCircle
 10
-107.631768953069
 20
181.35
 40
46.5
  0
CIRCLE
  5
221
100
AcDbEntity
  8
1
  6
CONTINUOUS
 62
           7
100
AcDbCircle
 10
-66.631768953068
 20
181.35
 40
2.75
  0
CIRCLE
  5
220
100
AcDbEntity
  8
1
  6
CONTINUOUS
 62
           7
100
AcDbCircle
 10
-78.64039092442
 20
152.358621971352
 40
2.75
  0
CIRCLE
  5
21F
100
AcDbEntity
  8
1
  6
CONTINUOUS
 62
           7
100
AcDbCircle
 10
-107.631768953068
 20
140.35
 40
2.75
  0
CIRCLE
  5
21E
100
AcDbEntity
  8
1
  6
CONTINUOUS
 62
           7
100
AcDbCircle
 10
-136.623146981717
 20
152.358621971352
 40
2.75
  0
CIRCLE
  5
21D
100
AcDbEntity
  8
1
  6
CONTINUOUS
 62
           7
100
AcDbCircle
 10
-148.631768953068
 20
181.35
 40
2.75
  0
CIRCLE
  5
21C
100
AcDbEntity
  8
1
  6
CONTINUOUS
 62
           7
100
AcDbCircle
 10
-136.623146981717
 20
210.341378028649
 40
2.75
  0
CIRCLE
  5
21B
100
AcDbEntity
  8
1
  6
DASH_CENTER
 62
           3
100
AcDbCircle
 10
-107.631768953069
 20
181.35
 40
41.0
  0
CIRCLE
  5
21A
100
AcDbEntity
  8
1
  6
CONTINUOUS
 62
           7
100
AcDbCircle
 10
-69.752708120106
 20
165.659979273032
 40
4.25
  0
CIRCLE
  5
219
100
AcDbEntity
  8
1
  6
CONTINUOUS
 62
           7
100
AcDbCircle
 10
-69.752708120106
 20
165.659979273032
 40
3.730384757729
  0
CIRCLE
  5
218
100
AcDbEntity
  8
1
  6
CONTINUOUS
 62
           7
100
AcDbCircle
 10
-123.321789680037
 20
143.470939167037
 40
4.25
  0
CIRCLE
  5
217
100
AcDbEntity
  8
1
  6
CONTINUOUS
 62
           7
100
AcDbCircle
 10
-123.321789680037
 20
143.470939167037
 40
3.730384757729
  0
CIRCLE
  5
216
100
AcDbEntity
  8
1
  6
CONTINUOUS
 62
           7
100
AcDbCircle
 10
-145.510829786031
 20
197.040020726969
 40
4.25
  0
CIRCLE
  5
215
100
AcDbEntity
  8
1
  6
CONTINUOUS
 62
           7
100
AcDbCircle
 10
-145.510829786031
 20
197.040020726969
 40
3.730384757729
  0
CIRCLE
  5
214
100
AcDbEntity
  8
1
  6
CONTINUOUS
 62
           7
100
AcDbCircle
 10
-321.213160807808
 20
212.35
 40
2.75
  0
CIRCLE
  5
213
100
AcDbEntity
  8
1
  6
CONTINUOUS
 62
           7
100
AcDbCircle
 10
-321.213160807808
 20
212.35
 40
2.403589838487
  0
CIRCLE
  5
212
100
AcDbEntity
  8
1
  6
CONTINUOUS
 62
           7
100
AcDbCircle
 10
-339.434503628874
 20
206.429526825624
 40
2.403589838486
  0
CIRCLE
  5
211
100
AcDbEntity
  8
1
  6
CONTINUOUS
 62
           7
100
AcDbCircle
 10
-339.434503628874
 20
206.429526825624
 40
2.75
  0
CIRCLE
  5
210
100
AcDbEntity
  8
1
  6
CONTINUOUS
 62
           7
100
AcDbCircle
 10
-350.695912812957
 20
190.929526825624
 40
2.75
  0
CIRCLE
  5
20F
100
AcDbEntity
  8
1
  6
CONTINUOUS
 62
           7
100
AcDbCircle
 10
-350.695912812957
 20
190.929526825624
 40
2.403589838486
  0
CIRCLE
  5
20E
100
AcDbEntity
  8
1
  6
CONTINUOUS
 62
           7
100
AcDbCircle
 10
-350.695912812959
 20
171.770473174381
 40
2.75
  0
CIRCLE
  5
20D
100
AcDbEntity
  8
1
  6
CONTINUOUS
 62
           7
100
AcDbCircle
 10
-350.695912812959
 20
171.770473174381
 40
2.403589838486
  0
CIRCLE
  5
20C
100
AcDbEntity
  8
1
  6
CONTINUOUS
 62
           7
100
AcDbCircle
 10
-339.434503628876
 20
156.270473174377
 40
2.403589838486
  0
CIRCLE
  5
20B
100
AcDbEntity
  8
1
  6
CONTINUOUS
 62
           7
100
AcDbCircle
 10
-339.434503628876
 20
156.270473174377
 40
2.75
  0
CIRCLE
  5
20A
100
AcDbEntity
  8
1
  6
CONTINUOUS
 62
           7
100
AcDbCircle
 10
-321.213160807806
 20
150.35
 40
2.75
  0
CIRCLE
  5
209
100
AcDbEntity
  8
1
  6
CONTINUOUS
 62
           7
100
AcDbCircle
 10
-321.213160807806
 20
150.35
 40
2.403589838486
  0
CIRCLE
  5
208
100
AcDbEntity
  8
1
  6
CONTINUOUS
 62
           7
100
AcDbCircle
 10
-302.991817986739
 20
156.270473174377
 40
2.403589838487
  0
CIRCLE
  5
207
100
AcDbEntity
  8
1
  6
CONTINUOUS
 62
           7
100
AcDbCircle
 10
-302.991817986739
 20
156.270473174377
 40
2.75
  0
CIRCLE
  5
206
100
AcDbEntity
  8
1
  6
CONTINUOUS
 62
           7
100
AcDbCircle
 10
-291.730408802658
 20
171.770473174378
 40
2.75
  0
CIRCLE
  5
205
100
AcDbEntity
  8
1
  6
CONTINUOUS
 62
           7
100
AcDbCircle
 10
-291.730408802658
 20
171.770473174378
 40
2.403589838486
  0
CIRCLE
  5
204
100
AcDbEntity
  8
1
  6
CONTINUOUS
 62
           7
100
AcDbCircle
 10
-291.730408802657
 20
190.92952682562
 40
2.75
  0
CIRCLE
  5
203
100
AcDbEntity
  8
1
  6
CONTINUOUS
 62
           7
100
AcDbCircle
 10
-291.730408802657
 20
190.92952682562
 40
2.403589838486
  0
CIRCLE
  5
202
100
AcDbEntity
  8
1
  6
CONTINUOUS
 62
           7
100
AcDbCircle
 10
-302.991817986741
 20
206.429526825623
 40
2.403589838486
  0
CIRCLE
  5
201
100
AcDbEntity
  8
1
  6
CONTINUOUS
 62
           7
100
AcDbCircle
 10
-302.991817986741
 20
206.429526825623
 40
2.75
  0
CIRCLE
  5
200
100
AcDbEntity
  8
1
  6
CONTINUOUS
 62
           3
100
AcDbCircle
 10
-199.20945620398
 20
181.35
 40
2.0
  0
CIRCLE
  5
1FF
100
AcDbEntity
  8
1
  6
CONTINUOUS
 62
           7
100
AcDbCircle
 10
-199.20945620398
 20
181.35
 40
1.6
  0
ARC
  5
1FE
100
AcDbEntity
  8
1
  6
CONTINUOUS
 62
           7
100
AcDbCircle
 10
-229.209456240007
 20
196.85
 40
1.5
100
AcDbArc
 50
90.0
 51
180.0
  0
ARC
  5
1FD
100
AcDbEntity
  8
1
  6
CONTINUOUS
 62
           7
100
AcDbCircle
 10
-229.209456240007
 20
165.85
 40
1.5
100
AcDbArc
 50
180.0
 51
-90.0
  0
ARC
  5
1FC
100
AcDbEntity
  8
1
  6
DASHED
 62
           3
100
AcDbCircle
 10
-107.631768953069
 20
181.35
 40
14.999986278172
100
AcDbArc
 50
87.157679481584
 51
117.777455738959
  0
ARC
  5
1FB
100
AcDbEntity
  8
1
  6
CONTINUOUS
 62
           7
100
AcDbCircle
 10
-107.631768953068
 20
222.35
 40
2.75
100
AcDbArc
 50
12.924706397379
 51
-59.715051809774
  0
ARC
  5
1FA
100
AcDbEntity
  8
1
  6
CONTINUOUS
 62
           7
100
AcDbCircle
 10
-107.631768953068
 20
222.35
 40
2.75
100
AcDbArc
 50
-59.715051809774
 51
0.000000000002
  0
ARC
  5
1F9
100
AcDbEntity
  8
1
  6
CONTINUOUS
 62
           7
100
AcDbCircle
 10
-107.631768953068
 20
222.35
 40
2.75
100
AcDbArc
 50
0.000000000002
 51
12.924706397379
  0
ARC
  5
1F8
100
AcDbEntity
  8
1
  6
CONTINUOUS
 62
           7
100
AcDbCircle
 10
-78.64039092442
 20
210.341378028649
 40
2.75
100
AcDbArc
 50
122.075293217675
 51
-30.951484491124
  0
ARC
  5
1F7
100
AcDbEntity
  8
1
  6
CONTINUOUS
 62
           7
100
AcDbCircle
 10
-78.64039092442
 20
210.341378028649
 40
2.75
100
AcDbArc
 50
-30.951484491124
 51
0.0
  0
ARC
  5
1F6
100
AcDbEntity
  8
1
  6
CONTINUOUS
 62
           7
100
AcDbCircle
 10
-78.64039092442
 20
210.341378028649
 40
2.75
100
AcDbArc
 50
0.0
 51
122.075293217675
  0
LINE
  5
1F5
100
AcDbEntity
  8
1
  6
CONTINUOUS
 62
           7
100
AcDbLine
 10
-217.709456240027
 20
143.1
 11
-190.709460641026
 21
143.1
  0
LINE
  5
1F4
100
AcDbEntity
  8
1
  6
DASH_CENTER
 62
           3
100
AcDbLine
 10
-184.209460641026
 20
140.35
 11
-219.709460641026
 21
140.35
  0
LINE
  5
1F3
100
AcDbEntity
  8
1
  6
CONTINUOUS
 62
           7
100
AcDbLine
 10
-207.709456240008
 20
137.85
 11
-207.709456240008
 21
135.350000482095
  0
LINE
  5
1F2
100
AcDbEntity
  8
1
  6
CONTINUOUS
 62
           7
100
AcDbLine
 10
-217.709456240027
 20
135.350000287384
 11
-217.209456240027
 21
134.85000029712
  0
LINE
  5
1F1
100
AcDbEntity
  8
1
  6
CONTINUOUS
 62
           7
100
AcDbLine
 10
-207.709456240008
 20
135.350000482095
 11
-208.209456240008
 21
134.85000047236
  0
LINE
  5
1F0
100
AcDbEntity
  8
1
  6
CONTINUOUS
 62
           7
100
AcDbLine
 10
-217.209456240027
 20
227.84999970288
 11
-217.709456240027
 21
227.349999712616
  0
LINE
  5
1EF
100
AcDbEntity
  8
1
  6
CONTINUOUS
 62
           7
100
AcDbLine
 10
-207.709456240008
 20
227.349999517905
 11
-208.209456240008
 21
227.84999952764
  0
LINE
  5
1EE
100
AcDbEntity
  8
1
  6
CONTINUOUS
 62
           7
100
AcDbLine
 10
-217.709456240027
 20
164.471056046286
 11
-217.709456240027
 21
135.350000287384
  0
LINE
  5
1ED
100
AcDbEntity
  8
1
  6
CONTINUOUS
 62
           3
100
AcDbLine
 10
-216.009460641008
 20
137.85
 11
-207.709456240008
 21
137.85
  0
LINE
  5
1EC
100
AcDbEntity
  8
1
  6
CONTINUOUS
 62
           3
100
AcDbLine
 10
-217.709456240027
 20
137.85
 11
-216.009460641008
 21
137.85
  0
LINE
  5
1EB
100
AcDbEntity
  8
1
  6
CONTINUOUS
 62
           7
100
AcDbLine
 10
-217.709456240027
 20
138.55
 11
-215.709460641026
 21
138.55
  0
LINE
  5
1EA
100
AcDbEntity
  8
1
  6
CONTINUOUS
 62
           3
100
AcDbLine
 10
-217.709456240027
 20
137.85
 11
-216.009460641008
 21
137.85
  0
LINE
  5
1E9
100
AcDbEntity
  8
1
  6
CONTINUOUS
 62
           7
100
AcDbLine
 10
-207.709456240008
 20
144.594660940623
 11
-207.709456240008
 21
142.85
  0
LINE
  5
1E8
100
AcDbEntity
  8
1
  6
CONTINUOUS
 62
           7
100
AcDbLine
 10
-207.709456240008
 20
147.394660940623
 11
-207.709456240008
 21
144.594660940623
  0
LINE
  5
1E7
100
AcDbEntity
  8
1
  6
CONTINUOUS
 62
         250
100
AcDbLine
 10
-328.99133540086
 20
187.006854249493
 11
-326.8700150573
 21
189.128174593052
  0
LINE
  5
1E6
100
AcDbEntity
  8
1
  6
CONTINUOUS
 62
         250
100
AcDbLine
 10
-327.93067522908
 20
188.067514421272
 11
-326.8700150573
 21
187.006854249493
  0
LINE
  5
1E5
100
AcDbEntity
  8
1
  6
DASH_CENTER
 62
           3
100
AcDbLine
 10
-341.190850095325
 20
208.84693034813
 11
-337.66413858157
 21
203.99282838188
  0
LINE
  5
1E4
100
AcDbEntity
  8
1
  6
DASH_CENTER
 62
           3
100
AcDbLine
 10
-353.537741091695
 20
191.852892806698
 11
-347.831401993924
 21
189.998790840448
  0
LINE
  5
1E3
100
AcDbEntity
  8
1
  6
DASH_CENTER
 62
           3
100
AcDbLine
 10
-304.762183034042
 20
203.992828381878
 11
-301.235471520287
 21
208.846930348128
  0
LINE
  5
1E2
100
AcDbEntity
  8
1
  6
DASH_CENTER
 62
           3
100
AcDbLine
 10
-294.594919621689
 20
189.998790840442
 11
-288.888580523917
 21
191.85289280669
  0
LINE
  5
1E1
100
AcDbEntity
  8
1
  6
DASH_CENTER
 62
           3
100
AcDbLine
 10
-301.23547152029
 20
153.85306965187
 11
-304.762183034045
 21
158.70717161812
  0
LINE
  5
1E0
100
AcDbEntity
  8
1
  6
DASH_CENTER
 62
           3
100
AcDbLine
 10
-288.88858052392
 20
170.847107193302
 11
-294.594919621691
 21
172.701209159552
  0
LINE
  5
1DF
100
AcDbEntity
  8
1
  6
DASH_CENTER
 62
           3
100
AcDbLine
 10
-347.831401993927
 20
172.701209159558
 11
-353.537741091698
 21
170.84710719331
  0
LINE
  5
1DE
100
AcDbEntity
  8
1
  6
DASH_CENTER
 62
           3
100
AcDbLine
 10
-337.664138581573
 20
158.707171618121
 11
-341.190850095328
 21
153.853069651872
  0
LINE
  5
1DD
100
AcDbEntity
  8
1
  6
DASH_CENTER
 62
           3
100
AcDbLine
 10
-327.240424867558
 20
195.901102637053
 11
-324.370299124819
 21
188.972006143218
  0
LINE
  5
1DC
100
AcDbEntity
  8
1
  6
DASH_CENTER
 62
           3
100
AcDbLine
 10
-335.76426344486
 20
187.37726405975
 11
-328.835166951025
 21
184.507138317012
  0
LINE
  5
1DB
100
AcDbEntity
  8
1
  6
DASH_CENTER
 62
           3
100
AcDbLine
 10
-335.76426344486
 20
175.32273594025
 11
-328.835166951025
 21
178.192861682988
  0
LINE
  5
1DA
100
AcDbEntity
  8
1
  6
DASH_CENTER
 62
           3
100
AcDbLine
 10
-327.240424867558
 20
166.798897362948
 11
-324.37029912482
 21
173.727993856782
  0
LINE
  5
1D9
100
AcDbEntity
  8
1
  6
DASH_CENTER
 62
           3
100
AcDbLine
 10
-315.185896748058
 20
166.798897362948
 11
-318.056022490796
 21
173.727993856782
  0
LINE
  5
1D8
100
AcDbEntity
  8
1
  6
DASH_CENTER
 62
           3
100
AcDbLine
 10
-306.662058170755
 20
175.32273594025
 11
-313.59115466459
 21
178.192861682988
  0
LINE
  5
1D7
100
AcDbEntity
  8
1
  6
DASH_CENTER
 62
           3
100
AcDbLine
 10
-306.662058170755
 20
187.37726405975
 11
-313.59115466459
 21
184.507138317012
  0
LINE
  5
1D6
100
AcDbEntity
  8
1
  6
DASH_CENTER
 62
           3
100
AcDbLine
 10
-315.185896748057
 20
195.901102637052
 11
-318.056022490796
 21
188.972006143218
  0
LINE
  5
1D5
100
AcDbEntity
  8
1
  6
CONTINUOUS
 62
         250
100
AcDbLine
 10
-330.713160807808
 20
181.35
 11
-330.713160807808
 21
182.85
  0
LINE
  5
1D4
100
AcDbEntity
  8
1
  6
CONTINUOUS
 62
         250
100
AcDbLine
 10
-327.93067522908
 20
174.632485578728
 11
-328.99133540086
 21
175.693145750508
  0
LINE
  5
1D3
100
AcDbEntity
  8
1
  6
CONTINUOUS
 62
         250
100
AcDbLine
 10
-321.213160807808
 20
171.85
 11
-322.713160807808
 21
171.85
  0
LINE
  5
1D2
100
AcDbEntity
  8
1
  6
CONTINUOUS
 62
         250
100
AcDbLine
 10
-314.495646386536
 20
174.632485578728
 11
-315.556306558315
 21
173.571825406948
  0
LINE
  5
1D1
100
AcDbEntity
  8
1
  6
CONTINUOUS
 62
         250
100
AcDbLine
 10
-311.713160807808
 20
181.35
 11
-311.713160807808
 21
179.85
  0
LINE
  5
1D0
100
AcDbEntity
  8
1
  6
CONTINUOUS
 62
         250
100
AcDbLine
 10
-314.495646386536
 20
188.067514421272
 11
-313.434986214756
 21
187.006854249492
  0
LINE
  5
1CF
100
AcDbEntity
  8
1
  6
DASH_CENTER
 62
           3
100
AcDbLine
 10
-335.708849822132
 20
166.854310985676
 11
-326.8700150573
 21
175.693145750508
  0
LINE
  5
1CE
100
AcDbEntity
  8
1
  6
DASH_CENTER
 62
           3
100
AcDbLine
 10
-306.717471793484
 20
166.854310985676
 11
-315.556306558315
 21
175.693145750508
  0
LINE
  5
1CD
100
AcDbEntity
  8
1
  6
DASH_CENTER
 62
           3
100
AcDbLine
 10
-306.717471793483
 20
195.845689014324
 11
-315.556306558315
 21
187.006854249492
  0
LINE
  5
1CC
100
AcDbEntity
  8
1
  6
DASH_CENTER
 62
           3
100
AcDbLine
 10
-326.8700150573
 20
187.006854249493
 11
-335.708849822132
 21
195.845689014324
  0
LINE
  5
1CB
100
AcDbEntity
  8
1
  6
DASH_CENTER
 62
           3
100
AcDbLine
 10
-321.213160807808
 20
219.709502414968
 11
-321.213160807808
 21
142.272353837508
  0
LINE
  5
1CA
100
AcDbEntity
  8
1
  6
DASH_CENTER
 62
           3
100
AcDbLine
 10
-359.292899408284
 20
181.35
 11
-283.133422207331
 21
181.35
  0
LINE
  5
1C9
100
AcDbEntity
  8
1
  6
CONTINUOUS
 62
           7
100
AcDbLine
 10
-244.859456240007
 20
161.35
 11
-244.859456240007
 21
159.85
  0
LINE
  5
1C8
100
AcDbEntity
  8
1
  6
CONTINUOUS
 62
           7
100
AcDbLine
 10
-245.709456240007
 20
159.85
 11
-244.859456240007
 21
159.85
  0
LINE
  5
1C7
100
AcDbEntity
  8
1
  6
CONTINUOUS
 62
           7
100
AcDbLine
 10
-245.709456240007
 20
161.35
 11
-244.859456240007
 21
161.35
  0
LINE
  5
1C6
100
AcDbEntity
  8
1
  6
CONTINUOUS
 62
           7
100
AcDbLine
 10
-245.709456240007
 20
161.35
 11
-244.859456240007
 21
161.35
  0
LINE
  5
1C5
100
AcDbEntity
  8
1
  6
CONTINUOUS
 62
           7
100
AcDbLine
 10
-223.109456240027
 20
216.949999708055
 11
-222.709456240027
 21
217.349999708055
  0
LINE
  5
1C4
100
AcDbEntity
  8
1
  6
CONTINUOUS
 62
           7
100
AcDbLine
 10
-223.109456240027
 20
216.949999708055
 11
-234.009456240041
 21
216.656726165454
  0
LINE
  5
1C3
100
AcDbEntity
  8
1
  6
CONTINUOUS
 62
           7
100
AcDbLine
 10
-234.009456240041
 20
216.656726165454
 11
-234.209456240007
 21
216.456726165488
  0
LINE
  5
1C2
100
AcDbEntity
  8
1
  6
CONTINUOUS
 62
           7
100
AcDbLine
 10
-234.209456240007
 20
146.243273250623
 11
-234.009456240041
 21
146.043273250656
  0
LINE
  5
1C1
100
AcDbEntity
  8
1
  6
CONTINUOUS
 62
           7
100
AcDbLine
 10
-234.009456240041
 20
146.043273250656
 11
-223.109456240027
 21
145.749999708055
  0
LINE
  5
1C0
100
AcDbEntity
  8
1
  6
CONTINUOUS
 62
           7
100
AcDbLine
 10
-222.709456823917
 20
145.350000291945
 11
-223.109456240027
 21
145.749999708055
  0
LINE
  5
1BF
100
AcDbEntity
  8
1
  6
CONTINUOUS
 62
           7
100
AcDbLine
 10
-245.209456240007
 20
203.85
 11
-244.209456240007
 21
203.85
  0
LINE
  5
1BE
100
AcDbEntity
  8
1
  6
CONTINUOUS
 62
           7
100
AcDbLine
 10
-235.909456240007
 20
197.6
 11
-235.909456240007
 21
198.370377758722
  0
LINE
  5
1BD
100
AcDbEntity
  8
1
  6
CONTINUOUS
 62
           7
100
AcDbLine
 10
-232.209456240007
 20
198.85
 11
-232.209456240007
 21
199.486905192701
  0
LINE
  5
1BC
100
AcDbEntity
  8
1
  6
CONTINUOUS
 62
           7
100
AcDbLine
 10
-233.709456240007
 20
197.6
 11
-235.909456240007
 21
197.6
  0
LINE
  5
1BB
100
AcDbEntity
  8
1
  6
CONTINUOUS
 62
           7
100
AcDbLine
 10
-232.709456240007
 20
198.35
 11
-233.709456240007
 21
198.35
  0
LINE
  5
1BA
100
AcDbEntity
  8
1
  6
DASH_CENTER
 62
           7
100
AcDbLine
 10
-232.209456240007
 20
198.85
 11
-232.709456240007
 21
198.35
  0
LINE
  5
1B9
100
AcDbEntity
  8
1
  6
CONTINUOUS
 62
           7
100
AcDbLine
 10
-232.709456240007
 20
164.35
 11
-232.209456240007
 21
163.85
  0
LINE
  5
1B8
100
AcDbEntity
  8
1
  6
DASH_CENTER
 62
           3
100
AcDbLine
 10
-232.023815593952
 20
165.350000237337
 11
-246.609456240007
 21
165.350000237337
  0
LINE
  5
1B7
100
AcDbEntity
  8
0
  6
CONTINUOUS
 62
           7
100
AcDbLine
 10
-231.38845615481
 20
165.350000237338
 11
-233.709456240007
 21
165.350000237338
  0
LINE
  5
1B6
100
AcDbEntity
  8
1
  6
CONTINUOUS
 62
           7
100
AcDbLine
 10
-236.709456240007
 20
168.350000237337
 11
-236.709456240007
 21
167.750000237337
  0
LINE
  5
1B5
100
AcDbEntity
  8
1
  6
CONTINUOUS
 62
           7
100
AcDbLine
 10
-245.709456240007
 20
167.750000237337
 11
-233.709456240007
 21
167.750000237337
  0
LINE
  5
1B4
100
AcDbEntity
  8
1
  6
CONTINUOUS
 62
           7
100
AcDbLine
 10
-236.709456240007
 20
167.750000237337
 11
-236.709456240007
 21
164.447632544295
  0
LINE
  5
1B3
100
AcDbEntity
  8
1
  6
CONTINUOUS
 62
           7
100
AcDbLine
 10
-241.727937965674
 20
162.950000237337
 11
-245.709456240007
 21
162.950000237337
  0
LINE
  5
1B2
100
AcDbEntity
  8
1
  6
CONTINUOUS
 62
           3
100
AcDbLine
 10
-245.709456240007
 20
168.350000237337
 11
-236.709456240007
 21
168.350000237337
  0
LINE
  5
1B1
100
AcDbEntity
  8
1
  6
CONTINUOUS
 62
           3
100
AcDbLine
 10
-236.709456240007
 20
168.350000237337
 11
-235.670225755466
 21
167.750000237337
  0
LINE
  5
1B0
100
AcDbEntity
  8
1
  6
CONTINUOUS
 62
           3
100
AcDbLine
 10
-242.344827874155
 20
162.350000237337
 11
-245.709456240007
 21
162.350000237337
  0
LINE
  5
1AF
100
AcDbEntity
  8
1
  6
CONTINUOUS
 62
           3
100
AcDbLine
 10
-245.709456240007
 20
195.85
 11
-241.009456240007
 21
195.85
  0
LINE
  5
1AE
100
AcDbEntity
  8
1
  6
CONTINUOUS
 62
           7
100
AcDbLine
 10
-245.709456240007
 20
195.15
 11
-241.709456240007
 21
195.15
  0
LINE
  5
1AD
100
AcDbEntity
  8
1
  6
CONTINUOUS
 62
           7
100
AcDbLine
 10
-245.709456240007
 20
191.55
 11
-241.709456240007
 21
191.55
  0
LINE
  5
1AC
100
AcDbEntity
  8
1
  6
CONTINUOUS
 62
           3
100
AcDbLine
 10
-245.709456240007
 20
190.85
 11
-241.009456240007
 21
190.85
  0
LINE
  5
1AB
100
AcDbEntity
  8
1
  6
CONTINUOUS
 62
           7
100
AcDbLine
 10
-207.709456240008
 20
227.349999517905
 11
-207.709456240008
 21
209.35
  0
LINE
  5
1AA
100
AcDbEntity
  8
1
  6
CONTINUOUS
 62
           7
100
AcDbLine
 10
-204.709456239989
 20
155.5364132704
 11
-204.709456239992
 21
153.85
  0
LINE
  5
1A9
100
AcDbEntity
  8
1
  6
CONTINUOUS
 62
           7
100
AcDbLine
 10
-205.209456239994
 20
153.35
 11
-204.709456239992
 21
153.85
  0
LINE
  5
1A8
100
AcDbEntity
  8
1
  6
CONTINUOUS
 62
           7
100
AcDbLine
 10
-205.209456239994
 20
153.35
 11
-207.709456239994
 21
153.35
  0
LINE
  5
1A7
100
AcDbEntity
  8
1
  6
CONTINUOUS
 62
           7
100
AcDbLine
 10
-209.209456240008
 20
149.05
 11
-209.209456240008
 21
146.35
  0
LINE
  5
1A6
100
AcDbEntity
  8
1
  6
CONTINUOUS
 62
           7
100
AcDbLine
 10
-207.709456240008
 20
149.05
 11
-209.209456240008
 21
149.05
  0
LINE
  5
1A5
100
AcDbEntity
  8
1
  6
CONTINUOUS
 62
           7
100
AcDbLine
 10
-207.709456240008
 20
153.350000276104
 11
-207.709456240008
 21
147.394660940623
  0
LINE
  5
1A4
100
AcDbEntity
  8
1
  6
CONTINUOUS
 62
           7
100
AcDbLine
 10
-209.209456240008
 20
146.35
 11
-207.709456240008
 21
146.35
  0
LINE
  5
1A3
100
AcDbEntity
  8
1
  6
CONTINUOUS
 62
           7
100
AcDbLine
 10
-207.709456239994
 20
153.35
 11
-207.709456240008
 21
153.350000276104
  0
LINE
  5
1A2
100
AcDbEntity
  8
1
  6
CONTINUOUS
 62
           7
100
AcDbLine
 10
-204.709456239992
 20
208.85
 11
-205.209456239994
 21
209.35
  0
LINE
  5
1A1
100
AcDbEntity
  8
1
  6
CONTINUOUS
 62
           7
100
AcDbLine
 10
-204.709456239992
 20
208.85
 11
-204.709456239988
 21
207.1635867296
  0
LINE
  5
1A0
100
AcDbEntity
  8
1
  6
CONTINUOUS
 62
           7
100
AcDbLine
 10
-207.709456240008
 20
209.35
 11
-205.209456239994
 21
209.35
  0
LINE
  5
19F
100
AcDbEntity
  8
1
  6
CONTINUOUS
 62
           7
100
AcDbLine
 10
-208.209456240008
 20
134.85000047236
 11
-217.209456240027
 21
134.85000029712
  0
LINE
  5
19E
100
AcDbEntity
  8
1
  6
CONTINUOUS
 62
           7
100
AcDbLine
 10
-217.709456240027
 20
145.350000291945
 11
-222.709456823917
 21
145.350000291945
  0
LINE
  5
19D
100
AcDbEntity
  8
1
  6
CONTINUOUS
 62
           7
100
AcDbLine
 10
-245.709456240007
 20
159.35
 11
-245.209456240007
 21
158.85
  0
LINE
  5
19C
100
AcDbEntity
  8
1
  6
CONTINUOUS
 62
           7
100
AcDbLine
 10
-245.709456240007
 20
203.35
 11
-245.209456240007
 21
203.85
  0
LINE
  5
19B
100
AcDbEntity
  8
1
  6
CONTINUOUS
 62
           7
100
AcDbLine
 10
-222.709456240027
 20
217.349999708055
 11
-217.709456240027
 21
217.349999708055
  0
LINE
  5
19A
100
AcDbEntity
  8
1
  6
CONTINUOUS
 62
           7
100
AcDbLine
 10
-245.209456240007
 20
188.349999879871
 11
-236.209456240007
 21
188.349999879871
  0
LINE
  5
199
100
AcDbEntity
  8
1
  6
CONTINUOUS
 62
           7
100
AcDbLine
 10
-207.709456240008
 20
216.35
 11
-209.209456240008
 21
216.35
  0
LINE
  5
198
100
AcDbEntity
  8
1
  6
CONTINUOUS
 62
           7
100
AcDbLine
 10
-209.209456240008
 20
216.35
 11
-209.209456240008
 21
213.65
  0
LINE
  5
197
100
AcDbEntity
  8
1
  6
CONTINUOUS
 62
           7
100
AcDbLine
 10
-209.209456240008
 20
213.65
 11
-207.709456240008
 21
213.65
  0
LINE
  5
196
100
AcDbEntity
  8
0
  6
CONTINUOUS
 62
           7
100
AcDbLine
 10
-233.709456240007
 20
165.350000237338
 11
-233.709456240007
 21
174.350000120129
  0
LINE
  5
195
100
AcDbEntity
  8
1
  6
CONTINUOUS
 62
           7
100
AcDbLine
 10
-231.099456159064
 20
162.800555201234
 11
-231.099456159064
 21
164.844000244933
  0
LINE
  5
194
100
AcDbEntity
  8
0
  6
CONTINUOUS
 62
           7
100
AcDbLine
 10
-231.328456155622
 20
165.350000237337
 11
-231.38845615481
 21
165.350000237338
  0
LINE
  5
193
100
AcDbEntity
  8
0
  6
CONTINUOUS
 62
           7
100
AcDbLine
 10
-230.709456240007
 20
173.850000127651
 11
-231.209456232483
 21
174.350000120152
  0
LINE
  5
192
100
AcDbEntity
  8
0
  6
CONTINUOUS
 62
           7
100
AcDbLine
 10
-231.209456232483
 20
174.350000120152
 11
-233.209456247505
 21
174.350000120134
  0
LINE
  5
191
100
AcDbEntity
  8
0
  6
CONTINUOUS
 62
           7
100
AcDbLine
 10
-233.209456247505
 20
174.350000120129
 11
-233.209456247505
 21
174.350000120134
  0
LINE
  5
190
100
AcDbEntity
  8
1
  6
CONTINUOUS
 62
           7
100
AcDbLine
 10
-231.099456159064
 20
197.855999755067
 11
-231.099456159064
 21
199.899444798766
  0
LINE
  5
18F
100
AcDbEntity
  8
0
  6
CONTINUOUS
 62
           7
100
AcDbLine
 10
-231.38845615481
 20
197.349999762662
 11
-231.328456155622
 21
197.349999762662
  0
LINE
  5
18E
100
AcDbEntity
  8
0
  6
CONTINUOUS
 62
           7
100
AcDbLine
 10
-231.209456232483
 20
188.349999879848
 11
-230.709456240007
 21
188.849999872349
  0
LINE
  5
18D
100
AcDbEntity
  8
0
  6
CONTINUOUS
 62
           7
100
AcDbLine
 10
-233.209456247505
 20
188.349999879871
 11
-231.209456232483
 21
188.349999879848
  0
LINE
  5
18C
100
AcDbEntity
  8
0
  6
CONTINUOUS
 62
           7
100
AcDbLine
 10
-233.709456240007
 20
188.849999872349
 11
-233.209456247505
 21
188.349999879871
  0
LINE
  5
18B
100
AcDbEntity
  8
0
  6
CONTINUOUS
 62
           7
100
AcDbLine
 10
-233.709456240007
 20
197.349999762662
 11
-231.38845615481
 21
197.349999762662
  0
LINE
  5
18A
100
AcDbEntity
  8
2
  6
DASH_CENTER
 62
           3
100
AcDbLine
 10
-247.87133231556
 20
181.35
 11
-188.209460641026
 21
181.35
  0
LINE
  5
189
100
AcDbEntity
  8
0
  6
CONTINUOUS
 62
           7
100
AcDbLine
 10
-230.709456240007
 20
195.85
 11
-230.709456240007
 21
196.85
  0
LINE
  5
188
100
AcDbEntity
  8
0
  6
CONTINUOUS
 62
           7
100
AcDbLine
 10
-233.709456240007
 20
188.849999872349
 11
-233.709456240007
 21
190.85
  0
LINE
  5
187
100
AcDbEntity
  8
0
  6
CONTINUOUS
 62
           7
100
AcDbLine
 10
-230.709456240007
 20
188.849999872349
 11
-230.709456240007
 21
190.85
  0
LINE
  5
186
100
AcDbEntity
  8
0
  6
CONTINUOUS
 62
           7
100
AcDbLine
 10
-233.209456247505
 20
174.350000120134
 11
-233.209456247505
 21
174.350000120129
  0
LINE
  5
185
100
AcDbEntity
  8
0
  6
CONTINUOUS
 62
           7
100
AcDbLine
 10
-233.209456247505
 20
174.350000120134
 11
-233.709456240007
 21
173.850000127651
  0
LINE
  5
184
100
AcDbEntity
  8
1
  6
CONTINUOUS
 62
           7
100
AcDbLine
 10
-227.709456240007
 20
176.350000120129
 11
-236.709456240007
 21
176.350000120129
  0
LINE
  5
183
100
AcDbEntity
  8
1
  6
CONTINUOUS
 62
           7
100
AcDbLine
 10
-236.709456240007
 20
187.849999879866
 11
-236.709456240007
 21
181.35
  0
LINE
  5
182
100
AcDbEntity
  8
1
  6
CONTINUOUS
 62
           7
100
AcDbLine
 10
-227.709456240007
 20
186.349999879911
 11
-236.709456240007
 21
186.349999879911
  0
LINE
  5
181
100
AcDbEntity
  8
1
  6
CONTINUOUS
 62
           7
100
AcDbLine
 10
-231.209456232483
 20
188.349999879848
 11
-230.709456240007
 21
188.349999879871
  0
LINE
  5
180
100
AcDbEntity
  8
1
  6
CONTINUOUS
 62
           7
100
AcDbLine
 10
-231.209456232483
 20
174.350000120152
 11
-230.709456240007
 21
174.350000120152
  0
LINE
  5
17F
100
AcDbEntity
  8
1
  6
CONTINUOUS
 62
           7
100
AcDbLine
 10
-230.709456240007
 20
188.849999872349
 11
-230.709456240007
 21
188.349999879848
  0
LINE
  5
17E
100
AcDbEntity
  8
1
  6
CONTINUOUS
 62
           7
100
AcDbLine
 10
-230.709456240007
 20
173.850000127651
 11
-230.709456240007
 21
174.350000120152
  0
LINE
  5
17D
100
AcDbEntity
  8
1
  6
CONTINUOUS
 62
           7
100
AcDbLine
 10
-233.709456240007
 20
196.1
 11
-227.709456240007
 21
196.1
  0
LINE
  5
17C
100
AcDbEntity
  8
1
  6
CONTINUOUS
 62
           7
100
AcDbLine
 10
-233.709456240007
 20
190.6
 11
-227.709456240007
 21
190.6
  0
LINE
  5
17B
100
AcDbEntity
  8
0
  6
CONTINUOUS
 62
           7
100
AcDbLine
 10
-230.709456240007
 20
162.655858784122
 11
-230.709456240007
 21
165.85
  0
LINE
  5
17A
100
AcDbEntity
  8
1
  6
CONTINUOUS
 62
           7
100
AcDbLine
 10
-229.209456240007
 20
198.35
 11
-227.709456240007
 21
198.35
  0
LINE
  5
179
100
AcDbEntity
  8
1
  6
CONTINUOUS
 62
           7
100
AcDbLine
 10
-227.709456240007
 20
164.35
 11
-229.209456240007
 21
164.35
  0
LINE
  5
178
100
AcDbEntity
  8
1
  6
CONTINUOUS
 62
           7
100
AcDbLine
 10
-236.209456240007
 20
188.349999879866
 11
-236.709456240007
 21
187.849999879866
  0
LINE
  5
177
100
AcDbEntity
  8
1
  6
CONTINUOUS
 62
           7
100
AcDbLine
 10
-236.709456240007
 20
174.850000120129
 11
-236.209456240007
 21
174.350000120129
  0
LINE
  5
176
100
AcDbEntity
  8
1
  6
CONTINUOUS
 62
           7
100
AcDbLine
 10
-233.209456247505
 20
174.350000120129
 11
-245.209456240007
 21
174.350000120129
  0
LINE
  5
175
100
AcDbEntity
  8
1
  6
CONTINUOUS
 62
           7
100
AcDbLine
 10
-233.709456240007
 20
188.349999879866
 11
-233.709456240007
 21
188.849999872349
  0
LINE
  5
174
100
AcDbEntity
  8
1
  6
CONTINUOUS
 62
           7
100
AcDbLine
 10
-233.209456247505
 20
188.349999879866
 11
-236.209456240007
 21
188.349999879866
  0
LINE
  5
173
100
AcDbEntity
  8
1
  6
DASH_CENTER
 62
           3
100
AcDbLine
 10
-244.732853300958
 20
212.35
 11
-239.368125141288
 21
212.35
  0
LINE
  5
172
100
AcDbEntity
  8
1
  6
CONTINUOUS
 62
           7
100
AcDbLine
 10
-234.209456240007
 20
216.456726165488
 11
-234.209456240004
 21
198.802186376532
  0
LINE
  5
171
100
AcDbEntity
  8
1
  6
CONTINUOUS
 62
           7
100
AcDbLine
 10
-232.209456240007
 20
163.85
 11
-232.209456240007
 21
163.213094807299
  0
LINE
  5
170
100
AcDbEntity
  8
1
  6
CONTINUOUS
 62
           7
100
AcDbLine
 10
-233.709456240007
 20
164.35
 11
-232.709456240007
 21
164.35
  0
LINE
  5
16F
100
AcDbEntity
  8
1
  6
CONTINUOUS
 62
           7
100
AcDbLine
 10
-245.709456240007
 20
173.850000120129
 11
-245.209456240007
 21
174.350000120129
  0
LINE
  5
16E
100
AcDbEntity
  8
1
  6
CONTINUOUS
 62
           7
100
AcDbLine
 10
-245.209456240007
 20
188.349999879871
 11
-245.709456240007
 21
188.849999879871
  0
LINE
  5
16D
100
AcDbEntity
  8
1
  6
CONTINUOUS
 62
           7
100
AcDbLine
 10
-244.859456240007
 20
202.85
 11
-245.709456240007
 21
202.85
  0
LINE
  5
16C
100
AcDbEntity
  8
1
  6
CONTINUOUS
 62
           7
100
AcDbLine
 10
-244.859456240007
 20
201.35
 11
-245.709456240007
 21
201.35
  0
LINE
  5
16B
100
AcDbEntity
  8
1
  6
CONTINUOUS
 62
           7
100
AcDbLine
 10
-245.709456240007
 20
203.35
 11
-245.709456240007
 21
181.35
  0
LINE
  5
16A
100
AcDbEntity
  8
1
  6
CONTINUOUS
 62
           7
100
AcDbLine
 10
-244.859456240007
 20
202.85
 11
-244.859456240007
 21
201.35
  0
LINE
  5
169
100
AcDbEntity
  8
1
  6
CONTINUOUS
 62
           7
100
AcDbLine
 10
-233.709456240007
 20
165.350000237338
 11
-233.709456240007
 21
164.35
  0
LINE
  5
168
100
AcDbEntity
  8
1
  6
DASH_CENTER
 62
           3
100
AcDbLine
 10
-221.368157991003
 20
193.35
 11
-247.486265771543
 21
193.35
  0
LINE
  5
167
100
AcDbEntity
  8
1
  6
CONTINUOUS
 62
           7
100
AcDbLine
 10
-217.209456240027
 20
227.84999970288
 11
-208.209456240008
 21
227.84999952764
  0
LINE
  5
166
100
AcDbEntity
  8
1
  6
CONTINUOUS
 62
           7
100
AcDbLine
 10
-227.709456240007
 20
190.85
 11
-227.709456240007
 21
164.35
  0
LINE
  5
165
100
AcDbEntity
  8
1
  6
CONTINUOUS
 62
           7
100
AcDbLine
 10
-227.709456240007
 20
197.6
 11
-227.109456240007
 21
197.6
  0
LINE
  5
164
100
AcDbEntity
  8
1
  6
CONTINUOUS
 62
           7
100
AcDbLine
 10
-227.709456240007
 20
195.85
 11
-227.709456240007
 21
198.35
  0
LINE
  5
163
100
AcDbEntity
  8
1
  6
CONTINUOUS
 62
           7
100
AcDbLine
 10
-217.709456240027
 20
227.349999712616
 11
-217.709456240027
 21
198.228943953714
  0
LINE
  5
162
100
AcDbEntity
  8
0
  6
CONTINUOUS
 62
           7
100
AcDbLine
 10
-230.709456240007
 20
170.35
 11
-230.709456240007
 21
173.850000127651
  0
LINE
  5
161
100
AcDbEntity
  8
1
  6
CONTINUOUS
 62
           7
100
AcDbLine
 10
-230.709456240007
 20
165.85
 11
-230.709456240007
 21
170.35
  0
LINE
  5
160
100
AcDbEntity
  8
0
  6
CONTINUOUS
 62
           7
100
AcDbLine
 10
-230.709456240007
 20
195.85
 11
-230.709456240007
 21
200.044141215878
  0
LINE
  5
15F
100
AcDbEntity
  8
1
  6
CONTINUOUS
 62
           7
100
AcDbLine
 10
-234.209456240005
 20
163.897813623468
 11
-234.209456240007
 21
146.243273250623
  0
LINE
  5
15E
100
AcDbEntity
  8
1
  6
CONTINUOUS
 62
           7
100
AcDbLine
 10
-234.209456240007
 20
147.35
 11
-234.909456240007
 21
147.35
  0
LINE
  5
15D
100
AcDbEntity
  8
1
  6
CONTINUOUS
 62
           7
100
AcDbLine
 10
-233.709456240007
 20
198.35
 11
-233.709456240007
 21
195.15
  0
LINE
  5
15C
100
AcDbEntity
  8
1
  6
CONTINUOUS
 62
           7
100
AcDbLine
 10
-233.709456240007
 20
190.85
 11
-233.709456240007
 21
191.55
  0
LINE
  5
15B
100
AcDbEntity
  8
1
  6
CONTINUOUS
 62
           7
100
AcDbLine
 10
-245.709456240007
 20
181.35
 11
-245.709456240007
 21
159.35
  0
LINE
  5
15A
100
AcDbEntity
  8
1
  6
CONTINUOUS
 62
           7
100
AcDbLine
 10
-236.709456240007
 20
181.35
 11
-236.709456240007
 21
174.850000120129
  0
LINE
  5
159
100
AcDbEntity
  8
1
  6
DASHED
 62
           3
100
AcDbLine
 10
-117.273195994978
 20
218.287608438482
 11
-112.859662233163
 21
219.165514887554
  0
LINE
  5
158
100
AcDbEntity
  8
1
  6
DASHED
 62
           3
100
AcDbLine
 10
-117.273195994978
 20
218.287608438482
 11
-118.262214717628
 21
219.4153681497
  0
LINE
  5
157
100
AcDbEntity
  8
1
  6
DASHED
 62
           3
100
AcDbLine
 10
-112.377503035208
 20
220.585910081797
 11
-112.859662233163
 21
219.165514887554
  0
LINE
  5
156
100
AcDbEntity
  8
1
  6
DASHED
 62
           3
100
AcDbLine
 10
-112.746912945819
 20
195.532446912907
 11
-117.273195994978
 21
218.287608438482
  0
LINE
  5
155
100
AcDbEntity
  8
1
  6
DASHED
 62
           3
100
AcDbLine
 10
-117.478653246589
 20
218.551637159127
 11
-117.673743549386
 21
219.53242234291
  0
LINE
  5
154
100
AcDbEntity
  8
1
  6
CONTINUOUS
 62
           3
100
AcDbLine
 10
-117.470999739508
 20
218.513160380725
 11
-117.478653246589
 21
218.551637159127
  0
LINE
  5
153
100
AcDbEntity
  8
1
  6
DASH_CENTER
 62
           3
100
AcDbLine
 10
-109.92561155835
 20
192.881926543331
 11
-117.176018306556
 21
229.332182722564
  0
LINE
  5
152
100
AcDbEntity
  8
1
  6
DASHED
 62
           7
100
AcDbLine
 10
-117.673743549386
 20
219.53242234291
 11
-119.045262330441
 21
226.4275128751
  0
LINE
  5
151
100
AcDbEntity
  8
1
  6
DASHED
 62
           3
100
AcDbLine
 10
-117.673743549386
 20
219.53242234291
 11
-118.262214717628
 21
219.4153681497
  0
LINE
  5
150
100
AcDbEntity
  8
1
  6
DASHED
 62
           3
100
AcDbLine
 10
-112.96597420345
 20
220.468855888587
 11
-112.763230393572
 21
219.449593926403
  0
LINE
  5
14F
100
AcDbEntity
  8
1
  6
DASHED
 62
           3
100
AcDbLine
 10
-112.96597420345
 20
220.468855888587
 11
-117.673743549386
 21
219.53242234291
  0
LINE
  5
14E
100
AcDbEntity
  8
1
  6
DASHED
 62
           7
100
AcDbLine
 10
-114.337492984505
 20
227.363946420778
 11
-112.96597420345
 21
220.468855888587
  0
LINE
  5
14D
100
AcDbEntity
  8
1
  6
DASHED
 62
           3
100
AcDbLine
 10
-118.262214717628
 20
219.4153681497
 11
-119.627846971741
 21
226.280865112523
  0
LINE
  5
14C
100
AcDbEntity
  8
1
  6
DASHED
 62
           3
100
AcDbLine
 10
-112.377503035208
 20
220.585910081797
 11
-112.96597420345
 21
220.468855888587
  0
LINE
  5
14B
100
AcDbEntity
  8
1
  6
DASHED
 62
           3
100
AcDbLine
 10
-113.743135289321
 20
227.451407044619
 11
-112.377503035208
 21
220.585910081797
  0
LINE
  5
14A
100
AcDbEntity
  8
1
  6
CONTINUOUS
 62
           7
100
AcDbLine
 10
-109.888768089829
 20
209.355652329234
 11
-109.888768089811
 21
209.355652329238
  0
LINE
  5
149
100
AcDbEntity
  8
1
  6
DASHED
 62
           3
100
AcDbLine
 10
-108.333379184005
 20
196.41035336198
 11
-112.859662233163
 21
219.165514887554
  0
LINE
  5
148
100
AcDbEntity
  8
1
  6
DASH_CENTER
 62
           3
100
AcDbLine
 10
-152.466324232646
 20
181.349999805734
 11
-144.987472714738
 21
181.349999805734
  0
LINE
  5
147
100
AcDbEntity
  8
1
  6
DASH_CENTER
 62
           3
100
AcDbLine
 10
-94.101866439379
 20
148.685925801052
 11
-94.107966227522
 21
148.700650935988
  0
LINE
  5
146
100
AcDbEntity
  8
1
  6
DASH_CENTER
 62
           3
100
AcDbLine
 10
-119.494954928357
 20
209.990265296668
 11
-122.747764023758
 21
217.843241356028
  0
LINE
  5
145
100
AcDbEntity
  8
1
  6
DASH_CENTER
 62
           3
100
AcDbLine
 10
-78.99150299327
 20
193.2131862499
 11
-71.138526933903
 21
196.465995345284
  0
LINE
  5
144
100
AcDbEntity
  8
1
  6
DASH_CENTER
 62
           3
100
AcDbLine
 10
-75.529121087199
 20
213.452647865869
 11
-81.751660761641
 21
207.230108191428
  0
LINE
  5
143
100
AcDbEntity
  8
1
  6
DASH_CENTER
 62
           3
100
AcDbLine
 10
-81.751660761641
 20
155.469891808573
 11
-75.529121087199
 21
149.247352134131
  0
LINE
  5
142
100
AcDbEntity
  8
1
  6
DASH_CENTER
 62
           3
100
AcDbLine
 10
-133.511877144496
 20
155.469891808573
 11
-139.734416818938
 21
149.247352134131
  0
LINE
  5
141
100
AcDbEntity
  8
1
  6
DASH_CENTER
 62
           3
100
AcDbLine
 10
-133.511877144496
 20
207.230108191428
 11
-139.734416818938
 21
213.452647865869
  0
LINE
  5
140
100
AcDbEntity
  8
1
  6
DASH_CENTER
 62
           3
100
AcDbLine
 10
-107.631768953068
 20
231.35
 11
-107.631768953068
 21
131.35
  0
LINE
  5
13F
100
AcDbEntity
  8
1
  6
DASH_CENTER
 62
           3
100
AcDbLine
 10
-66.057189990061
 20
164.129245543571
 11
-73.448226250151
 21
167.190713002492
  0
LINE
  5
13E
100
AcDbEntity
  8
1
  6
DASH_CENTER
 62
           3
100
AcDbLine
 10
-149.206347916076
 20
198.570754456429
 11
-141.815311655986
 21
195.509286997508
  0
LINE
  5
13D
100
AcDbEntity
  8
1
  6
DASH_CENTER
 62
           3
100
AcDbLine
 10
-121.791055950577
 20
147.166457297083
 11
-124.852523409497
 21
139.775421036992
  0
LINE
  5
13C
100
AcDbEntity
  8
1
  6
DASH_CENTER
 62
           3
100
AcDbLine
 10
-95.768582750271
 20
152.709734020614
 11
-94.38701558328
 21
149.374335717464
  0
LINE
  5
13B
100
AcDbEntity
  8
1
  6
DASH_CENTER
 62
           3
100
AcDbLine
 10
-92.701076319995
 20
145.304118125087
 11
-94.38701558328
 21
149.374335717464
  0
LINE
  5
13A
100
AcDbEntity
  8
1
  6
DASH_CENTER
 62
           3
100
AcDbLine
 10
-57.5
 20
181.349999805738
 11
-157.63176899172
 21
181.349999805784
  0
LINE
  5
139
100
AcDbEntity
  8
1
  6
CONTINUOUS
 62
           7
100
AcDbLine
 10
-222.709456240027
 20
217.349999708055
 11
-222.709456240027
 21
200.509947446489
  0
LINE
  5
138
100
AcDbEntity
  8
1
  6
CONTINUOUS
 62
           7
100
AcDbLine
 10
-223.109456240027
 20
216.949999708055
 11
-223.109456240027
 21
200.597833773763
  0
LINE
  5
137
100
AcDbEntity
  8
1
  6
CONTINUOUS
 62
           7
100
AcDbLine
 10
-244.209456240007
 20
158.85
 11
-245.209456240007
 21
158.85
  0
LINE
  5
136
100
AcDbEntity
  8
1
  6
CONTINUOUS
 62
           7
100
AcDbLine
 10
-223.109456240027
 20
145.749999708055
 11
-223.109456240027
 21
162.102166226237
  0
LINE
  5
135
100
AcDbEntity
  8
1
  6
CONTINUOUS
 62
           7
100
AcDbLine
 10
-222.709456823917
 20
145.350000291945
 11
-222.709456823917
 21
162.190052415653
  0
LINE
  5
134
100
AcDbEntity
  8
1
  6
DASH_CENTER
 62
           3
100
AcDbLine
 10
-244.732853300958
 20
206.429526825623
 11
-239.368125141288
 21
206.429526825623
  0
LINE
  5
133
100
AcDbEntity
  8
1
  6
DASH_CENTER
 62
           3
100
AcDbLine
 10
-239.368125141288
 20
156.270473174377
 11
-244.732853300958
 21
156.270473174377
  0
LINE
  5
132
100
AcDbEntity
  8
1
  6
DASH_CENTER
 62
           3
100
AcDbLine
 10
-239.368125141288
 20
150.35
 11
-244.732853300958
 21
150.35
  0
LINE
  5
131
100
AcDbEntity
  8
1
  6
DASH_CENTER
 62
           3
100
AcDbLine
 10
-136.272033717404
 20
169.486812739363
 11
-144.125009706096
 21
166.234003473356
  0
LINE
  5
130
100
AcDbEntity
  8
1
  6
CONTINUOUS
 62
           7
100
AcDbLine
 10
-72.042351950509
 20
165.358541944173
 11
-70.636477650868
 21
163.526370885855
  0
LINE
  5
12F
100
AcDbEntity
  8
1
  6
CONTINUOUS
 62
           7
100
AcDbLine
 10
-70.636477650868
 20
163.526370885855
 11
-68.346833820464
 21
163.827808214713
  0
LINE
  5
12E
100
AcDbEntity
  8
1
  6
CONTINUOUS
 62
           7
100
AcDbLine
 10
-68.346833820464
 20
163.827808214713
 11
-67.463064289703
 21
165.96141660189
  0
LINE
  5
12D
100
AcDbEntity
  8
1
  6
CONTINUOUS
 62
           7
100
AcDbLine
 10
-67.463064289703
 20
165.96141660189
 11
-68.868938589344
 21
167.793587660208
  0
LINE
  5
12C
100
AcDbEntity
  8
1
  6
CONTINUOUS
 62
           7
100
AcDbLine
 10
-68.868938589344
 20
167.793587660208
 11
-71.158582419748
 21
167.49215033135
  0
LINE
  5
12B
100
AcDbEntity
  8
1
  6
CONTINUOUS
 62
           7
100
AcDbLine
 10
-71.158582419748
 20
167.49215033135
 11
-72.042351950509
 21
165.358541944173
  0
LINE
  5
12A
100
AcDbEntity
  8
1
  6
CONTINUOUS
 62
           7
100
AcDbLine
 10
-125.611433510441
 20
143.169501838179
 11
-124.205559210799
 21
141.337330779861
  0
LINE
  5
129
100
AcDbEntity
  8
1
  6
CONTINUOUS
 62
           7
100
AcDbLine
 10
-124.205559210799
 20
141.337330779861
 11
-121.915915380395
 21
141.638768108719
  0
LINE
  5
128
100
AcDbEntity
  8
1
  6
CONTINUOUS
 62
           7
100
AcDbLine
 10
-121.915915380395
 20
141.638768108719
 11
-121.032145849634
 21
143.772376495896
  0
LINE
  5
127
100
AcDbEntity
  8
1
  6
CONTINUOUS
 62
           7
100
AcDbLine
 10
-121.032145849634
 20
143.772376495896
 11
-122.438020149276
 21
145.604547554214
  0
LINE
  5
126
100
AcDbEntity
  8
1
  6
CONTINUOUS
 62
           7
100
AcDbLine
 10
-122.438020149276
 20
145.604547554214
 11
-124.727663979679
 21
145.303110225356
  0
LINE
  5
125
100
AcDbEntity
  8
1
  6
CONTINUOUS
 62
           7
100
AcDbLine
 10
-124.727663979679
 20
145.303110225356
 11
-125.611433510441
 21
143.169501838179
  0
LINE
  5
124
100
AcDbEntity
  8
1
  6
CONTINUOUS
 62
           7
100
AcDbLine
 10
-147.800473616435
 20
196.738583398111
 11
-146.394599316793
 21
194.906412339792
  0
LINE
  5
123
100
AcDbEntity
  8
1
  6
CONTINUOUS
 62
           7
100
AcDbLine
 10
-146.394599316793
 20
194.906412339792
 11
-144.10495548639
 21
195.20784966865
  0
LINE
  5
122
100
AcDbEntity
  8
1
  6
CONTINUOUS
 62
           7
100
AcDbLine
 10
-144.10495548639
 20
195.20784966865
 11
-143.221185955628
 21
197.341458055827
  0
LINE
  5
121
100
AcDbEntity
  8
1
  6
CONTINUOUS
 62
           7
100
AcDbLine
 10
-143.221185955628
 20
197.341458055827
 11
-144.62706025527
 21
199.173629114146
  0
LINE
  5
120
100
AcDbEntity
  8
1
  6
CONTINUOUS
 62
           7
100
AcDbLine
 10
-144.62706025527
 20
199.173629114146
 11
-146.916704085673
 21
198.872191785287
  0
LINE
  5
11F
100
AcDbEntity
  8
1
  6
CONTINUOUS
 62
           7
100
AcDbLine
 10
-146.916704085673
 20
198.872191785287
 11
-147.800473616435
 21
196.738583398111
  0
LINE
  5
11E
100
AcDbEntity
  8
0
  6
CONTINUOUS
 62
           3
100
AcDbLine
 10
-201.83445620398
 20
224.349985878927
 11
-201.83445620398
 21
220.474985878927
  0
LINE
  5
11D
100
AcDbEntity
  8
0
  6
CONTINUOUS
 62
           3
100
AcDbLine
 10
-196.58445620398
 20
224.349985878927
 11
-196.58445620398
 21
220.474985878927
  0
LINE
  5
11C
100
AcDbEntity
  8
0
  6
CONTINUOUS
 62
           7
100
AcDbLine
 10
-201.83445620398
 20
224.349985878927
 11
-196.58445620398
 21
224.349985878927
  0
LINE
  5
11B
100
AcDbEntity
  8
0
  6
CONTINUOUS
 62
           7
100
AcDbLine
 10
-196.20945620398
 20
223.974985878926
 11
-202.20945620398
 21
223.974985878927
  0
LINE
  5
11A
100
AcDbEntity
  8
0
  6
CONTINUOUS
 62
           7
100
AcDbLine
 10
-202.20945620398
 20
220.849985878927
 11
-199.20945620398
 21
220.849985878927
  0
LINE
  5
119
100
AcDbEntity
  8
0
  6
CONTINUOUS
 62
           7
100
AcDbLine
 10
-199.20945620398
 20
220.849985878927
 11
-196.20945620398
 21
220.849985878926
  0
LINE
  5
118
100
AcDbEntity
  8
0
  6
CONTINUOUS
 62
           7
100
AcDbLine
 10
-200.70945620398
 20
219.349985878926
 11
-199.20945620398
 21
219.349985878926
  0
LINE
  5
117
100
AcDbEntity
  8
0
  6
CONTINUOUS
 62
           7
100
AcDbLine
 10
-199.20945620398
 20
219.349985878926
 11
-197.70945620398
 21
219.349985878926
  0
LINE
  5
116
100
AcDbEntity
  8
0
  6
CONTINUOUS
 62
           7
100
AcDbLine
 10
-201.83445620398
 20
224.349985878927
 11
-202.20945620398
 21
223.974985878927
  0
LINE
  5
115
100
AcDbEntity
  8
0
  6
CONTINUOUS
 62
           7
100
AcDbLine
 10
-196.20945620398
 20
223.974985878926
 11
-196.58445620398
 21
224.349985878927
  0
LINE
  5
114
100
AcDbEntity
  8
0
  6
CONTINUOUS
 62
           7
100
AcDbLine
 10
-196.20945620398
 20
220.849985878926
 11
-196.20945620398
 21
223.974985878926
  0
LINE
  5
113
100
AcDbEntity
  8
0
  6
CONTINUOUS
 62
           7
100
AcDbLine
 10
-202.20945620398
 20
223.974985878927
 11
-202.20945620398
 21
220.849985878927
  0
LINE
  5
112
100
AcDbEntity
  8
0
  6
CONTINUOUS
 62
           7
100
AcDbLine
 10
-197.70945620398
 20
219.349985878926
 11
-196.20945620398
 21
220.849985878926
  0
LINE
  5
111
100
AcDbEntity
  8
0
  6
CONTINUOUS
 62
           7
100
AcDbLine
 10
-202.20945620398
 20
220.849985878927
 11
-200.70945620398
 21
219.349985878926
  0
LINE
  5
110
100
AcDbEntity
  8
1
  6
CONTINUOUS
 62
           7
100
AcDbLine
 10
-227.709456240007
 20
190.65
 11
-227.709456240007
 21
190.85
  0
LINE
  5
10F
100
AcDbEntity
  8
1
  6
CONTINUOUS
 62
           7
100
AcDbLine
 10
-227.709456240007
 20
196.05
 11
-227.709456240007
 21
195.85
  0
LINE
  5
10E
100
AcDbEntity
  8
1
  6
CONTINUOUS
 62
           7
100
AcDbLine
 10
-223.009456240007
 20
189.1
 11
-223.009456240007
 21
197.6
  0
LINE
  5
10D
100
AcDbEntity
  8
1
  6
CONTINUOUS
 62
           7
100
AcDbLine
 10
-241.009456240007
 20
195.85
 11
-241.009456240007
 21
190.85
  0
LINE
  5
10C
100
AcDbEntity
  8
1
  6
CONTINUOUS
 62
           7
100
AcDbLine
 10
-241.009456240007
 20
190.85
 11
-229.309456240007
 21
190.85
  0
LINE
  5
10B
100
AcDbEntity
  8
1
  6
CONTINUOUS
 62
           7
100
AcDbLine
 10
-227.909456240007
 20
195.85
 11
-229.309456240007
 21
195.85
  0
LINE
  5
10A
100
AcDbEntity
  8
1
  6
CONTINUOUS
 62
           7
100
AcDbLine
 10
-229.309456240007
 20
190.85
 11
-229.309456240007
 21
195.85
  0
LINE
  5
109
100
AcDbEntity
  8
1
  6
CONTINUOUS
 62
           7
100
AcDbLine
 10
-227.709456240007
 20
197.6
 11
-227.709456240007
 21
196.05
  0
LINE
  5
108
100
AcDbEntity
  8
1
  6
CONTINUOUS
 62
           7
100
AcDbLine
 10
-229.309456240007
 20
195.85
 11
-241.009456240007
 21
195.85
  0
LINE
  5
107
100
AcDbEntity
  8
1
  6
CONTINUOUS
 62
           7
100
AcDbLine
 10
-241.009456240007
 20
195.85
 11
-241.709456240007
 21
195.15
  0
LINE
  5
106
100
AcDbEntity
  8
1
  6
CONTINUOUS
 62
           7
100
AcDbLine
 10
-241.709456240007
 20
195.15
 11
-241.709456240007
 21
191.55
  0
LINE
  5
105
100
AcDbEntity
  8
1
  6
CONTINUOUS
 62
           7
100
AcDbLine
 10
-241.709456240007
 20
191.55
 11
-241.009456240007
 21
190.85
  0
LINE
  5
104
100
AcDbEntity
  8
1
  6
CONTINUOUS
 62
           7
100
AcDbLine
 10
-227.709456240007
 20
193.35
 11
-227.709456240007
 21
190.85
  0
LINE
  5
103
100
AcDbEntity
  8
1
  6
CONTINUOUS
 62
           7
100
AcDbLine
 10
-229.309456240007
 20
190.85
 11
-227.909456240007
 21
190.85
  0
LINE
  5
102
100
AcDbEntity
  8
1
  6
CONTINUOUS
 62
           7
100
AcDbLine
 10
-227.709456240007
 20
190.65
 11
-227.709456240007
 21
189.1
  0
LINE
  5
101
100
AcDbEntity
  8
1
  6
CONTINUOUS
 62
           7
100
AcDbLine
 10
-227.709456240007
 20
189.1
 11
-223.009456240007
 21
189.1
  0
LINE
  5
100
100
AcDbEntity
  8
1
  6
CONTINUOUS
 62
           7
100
AcDbLine
 10
-223.009456240007
 20
189.1
 11
-222.709456240007
 21
189.4
  0
LINE
  5
FF
100
AcDbEntity
  8
1
  6
CONTINUOUS
 62
           7
100
AcDbLine
 10
-222.709456240007
 20
189.4
 11
-222.709456240007
 21
197.3
  0
LINE
  5
FE
100
AcDbEntity
  8
1
  6
CONTINUOUS
 62
           7
100
AcDbLine
 10
-222.709456240007
 20
197.3
 11
-223.009456240007
 21
197.6
  0
LINE
  5
FD
100
AcDbEntity
  8
1
  6
CONTINUOUS
 62
           7
100
AcDbLine
 10
-223.009456240007
 20
197.6
 11
-227.709456240007
 21
197.6
  0
LINE
  5
FC
100
AcDbEntity
  8
1
  6
CONTINUOUS
 62
           7
100
AcDbLine
 10
-227.709456240007
 20
195.85
 11
-227.709456240007
 21
193.35
  0
LINE
  5
FB
100
AcDbEntity
  8
1
  6
CONTINUOUS
 62
           3
100
AcDbLine
 10
-228.097020674709
 20
190.85
 11
-229.309456240007
 21
191.55
  0
LINE
  5
FA
100
AcDbEntity
  8
1
  6
CONTINUOUS
 62
           3
100
AcDbLine
 10
-228.097020674709
 20
195.85
 11
-229.309456240007
 21
195.15
  0
LINE
  5
F9
100
AcDbEntity
  8
1
  6
CONTINUOUS
 62
           3
100
AcDbLine
 10
-241.709456240007
 20
191.55
 11
-229.309456240007
 21
191.55
  0
LINE
  5
F8
100
AcDbEntity
  8
1
  6
CONTINUOUS
 62
           3
100
AcDbLine
 10
-241.709456240007
 20
195.15
 11
-229.309456240007
 21
195.15
  0
LINE
  5
F7
100
AcDbEntity
  8
1
  6
CONTINUOUS
 62
           7
100
AcDbLine
 10
-243.409456240007
 20
215.1
 11
-243.409456240007
 21
209.6
  0
LINE
  5
F6
100
AcDbEntity
  8
1
  6
CONTINUOUS
 62
           7
100
AcDbLine
 10
-240.609456240007
 20
209.6
 11
-240.609456240007
 21
215.1
  0
LINE
  5
F5
100
AcDbEntity
  8
1
  6
CONTINUOUS
 62
           7
100
AcDbLine
 10
-243.409456240007
 20
209.6
 11
-240.609456240007
 21
209.6
  0
LINE
  5
F4
100
AcDbEntity
  8
1
  6
CONTINUOUS
 62
           7
100
AcDbLine
 10
-243.609456240007
 20
209.8
 11
-243.409456240007
 21
209.6
  0
LINE
  5
F3
100
AcDbEntity
  8
1
  6
CONTINUOUS
 62
           7
100
AcDbLine
 10
-243.609456240007
 20
214.9
 11
-243.609456240007
 21
209.8
  0
LINE
  5
F2
100
AcDbEntity
  8
1
  6
CONTINUOUS
 62
           7
100
AcDbLine
 10
-243.409456240007
 20
215.1
 11
-243.609456240007
 21
214.9
  0
LINE
  5
F1
100
AcDbEntity
  8
1
  6
CONTINUOUS
 62
           7
100
AcDbLine
 10
-240.609456240007
 20
215.1
 11
-243.409456240007
 21
215.1
  0
LINE
  5
F0
100
AcDbEntity
  8
1
  6
CONTINUOUS
 62
           7
100
AcDbLine
 10
-234.909456240007
 20
215.35
 11
-234.209456240007
 21
215.35
  0
LINE
  5
EF
100
AcDbEntity
  8
1
  6
CONTINUOUS
 62
           7
100
AcDbLine
 10
-240.609456240007
 20
163.731837489774
 11
-240.609456240007
 21
147.35
  0
LINE
  5
EE
100
AcDbEntity
  8
1
  6
CONTINUOUS
 62
           7
100
AcDbLine
 10
-239.809456240007
 20
146.55
 11
-234.909456240007
 21
146.55
  0
LINE
  5
ED
100
AcDbEntity
  8
1
  6
CONTINUOUS
 62
           7
100
AcDbLine
 10
-234.909456240007
 20
146.55
 11
-234.909456240007
 21
164.097501177501
  0
LINE
  5
EC
100
AcDbEntity
  8
1
  6
CONTINUOUS
 62
           7
100
AcDbLine
 10
-244.009456240007
 20
154.85
 11
-244.209456240007
 21
154.85
  0
LINE
  5
EB
100
AcDbEntity
  8
1
  6
CONTINUOUS
 62
           7
100
AcDbLine
 10
-244.009456240005
 20
160.001686728896
 11
-244.009456240007
 21
154.6
  0
LINE
  5
EA
100
AcDbEntity
  8
1
  6
CONTINUOUS
 62
           7
100
AcDbLine
 10
-244.209456240007
 20
154.85
 11
-244.209456240007
 21
159.63985532935
  0
LINE
  5
E9
100
AcDbEntity
  8
1
  6
CONTINUOUS
 62
           7
100
AcDbLine
 10
-244.209456240007
 20
203.06014467065
 11
-244.209456240007
 21
207.85
  0
LINE
  5
E8
100
AcDbEntity
  8
1
  6
CONTINUOUS
 62
           7
100
AcDbLine
 10
-244.009456240007
 20
208.1
 11
-244.009456240005
 21
202.698313271104
  0
LINE
  5
E7
100
AcDbEntity
  8
1
  6
CONTINUOUS
 62
           7
100
AcDbLine
 10
-244.209456240007
 20
207.85
 11
-244.009456240007
 21
207.85
  0
LINE
  5
E6
100
AcDbEntity
  8
1
  6
CONTINUOUS
 62
           7
100
AcDbLine
 10
-234.909456240007
 20
198.602498822499
 11
-234.909456240007
 21
216.15
  0
LINE
  5
E5
100
AcDbEntity
  8
1
  6
CONTINUOUS
 62
           7
100
AcDbLine
 10
-234.909456240007
 20
216.15
 11
-239.809456240007
 21
216.15
  0
LINE
  5
E4
100
AcDbEntity
  8
1
  6
CONTINUOUS
 62
           7
100
AcDbLine
 10
-240.609456240007
 20
215.35
 11
-240.609456240007
 21
198.968162510226
  0
LINE
  5
E3
100
AcDbEntity
  8
1
  6
CONTINUOUS
 62
           7
100
AcDbLine
 10
-319.963160807808
 20
213.071687836487
 11
-321.213160807808
 21
213.793375672974
  0
LINE
  5
E2
100
AcDbEntity
  8
1
  6
CONTINUOUS
 62
           7
100
AcDbLine
 10
-321.213160807808
 20
213.793375672974
 11
-322.463160807808
 21
213.071687836487
  0
LINE
  5
E1
100
AcDbEntity
  8
1
  6
CONTINUOUS
 62
           7
100
AcDbLine
 10
-322.463160807808
 20
213.071687836487
 11
-322.463160807808
 21
211.628312163513
  0
LINE
  5
E0
100
AcDbEntity
  8
1
  6
CONTINUOUS
 62
           7
100
AcDbLine
 10
-322.463160807808
 20
211.628312163513
 11
-321.213160807808
 21
210.906624327026
  0
LINE
  5
DF
100
AcDbEntity
  8
1
  6
CONTINUOUS
 62
           7
100
AcDbLine
 10
-321.213160807808
 20
210.906624327026
 11
-319.963160807808
 21
211.628312163513
  0
LINE
  5
DE
100
AcDbEntity
  8
1
  6
CONTINUOUS
 62
           7
100
AcDbLine
 10
-319.963160807808
 20
211.628312163513
 11
-319.963160807808
 21
213.071687836487
  0
LINE
  5
DD
100
AcDbEntity
  8
1
  6
CONTINUOUS
 62
           7
100
AcDbLine
 10
-337.999034918859
 20
206.580400666637
 11
-338.847429852951
 21
207.748116115341
  0
LINE
  5
DC
100
AcDbEntity
  8
1
  6
CONTINUOUS
 62
           7
100
AcDbLine
 10
-338.586108694782
 20
205.26181137692
 11
-337.999034918859
 21
206.580400666637
  0
LINE
  5
DB
100
AcDbEntity
  8
1
  6
CONTINUOUS
 62
           7
100
AcDbLine
 10
-340.021577404797
 20
205.110937535906
 11
-338.586108694782
 21
205.26181137692
  0
LINE
  5
DA
100
AcDbEntity
  8
1
  6
CONTINUOUS
 62
           7
100
AcDbLine
 10
-340.869972338888
 20
206.27865298461
 11
-340.021577404797
 21
205.110937535906
  0
LINE
  5
D9
100
AcDbEntity
  8
1
  6
CONTINUOUS
 62
           7
100
AcDbLine
 10
-340.282898562966
 20
207.597242274327
 11
-340.869972338888
 21
206.27865298461
  0
LINE
  5
D8
100
AcDbEntity
  8
1
  6
CONTINUOUS
 62
           7
100
AcDbLine
 10
-338.847429852951
 20
207.748116115341
 11
-340.282898562966
 21
207.597242274327
  0
LINE
  5
D7
100
AcDbEntity
  8
1
  6
CONTINUOUS
 62
           7
100
AcDbLine
 10
-350.99600748961
 20
192.341361277101
 11
-352.068644652201
 21
191.37555443784
  0
LINE
  5
D6
100
AcDbEntity
  8
1
  6
CONTINUOUS
 62
           7
100
AcDbLine
 10
-352.068644652201
 20
191.37555443784
 11
-351.768549975548
 21
189.963719986363
  0
LINE
  5
D5
100
AcDbEntity
  8
1
  6
CONTINUOUS
 62
           7
100
AcDbLine
 10
-351.768549975548
 20
189.963719986363
 11
-350.395818136304
 21
189.517692374147
  0
LINE
  5
D4
100
AcDbEntity
  8
1
  6
CONTINUOUS
 62
           7
100
AcDbLine
 10
-350.395818136304
 20
189.517692374147
 11
-349.323180973713
 21
190.483499213408
  0
LINE
  5
D3
100
AcDbEntity
  8
1
  6
CONTINUOUS
 62
           7
100
AcDbLine
 10
-349.323180973713
 20
190.483499213408
 11
-349.623275650366
 21
191.895333664885
  0
LINE
  5
D2
100
AcDbEntity
  8
1
  6
CONTINUOUS
 62
           7
100
AcDbLine
 10
-349.623275650366
 20
191.895333664885
 11
-350.99600748961
 21
192.341361277101
  0
LINE
  5
D1
100
AcDbEntity
  8
1
  6
CONTINUOUS
 62
           7
100
AcDbLine
 10
-351.768549975549
 20
172.736280013642
 11
-352.068644652203
 21
171.324445562165
  0
LINE
  5
D0
100
AcDbEntity
  8
1
  6
CONTINUOUS
 62
           7
100
AcDbLine
 10
-352.068644652203
 20
171.324445562165
 11
-350.996007489612
 21
170.358638722904
  0
LINE
  5
CF
100
AcDbEntity
  8
1
  6
CONTINUOUS
 62
           7
100
AcDbLine
 10
-350.996007489612
 20
170.358638722904
 11
-349.623275650368
 21
170.80466633512
  0
LINE
  5
CE
100
AcDbEntity
  8
1
  6
CONTINUOUS
 62
           7
100
AcDbLine
 10
-349.623275650368
 20
170.80466633512
 11
-349.323180973715
 21
172.216500786597
  0
LINE
  5
CD
100
AcDbEntity
  8
1
  6
CONTINUOUS
 62
           7
100
AcDbLine
 10
-349.323180973715
 20
172.216500786597
 11
-350.395818136305
 21
173.182307625858
  0
LINE
  5
CC
100
AcDbEntity
  8
1
  6
CONTINUOUS
 62
           7
100
AcDbLine
 10
-350.395818136305
 20
173.182307625858
 11
-351.768549975549
 21
172.736280013642
  0
LINE
  5
CB
100
AcDbEntity
  8
1
  6
CONTINUOUS
 62
           7
100
AcDbLine
 10
-340.021577404798
 20
157.589062464095
 11
-340.86997233889
 21
156.421347015391
  0
LINE
  5
CA
100
AcDbEntity
  8
1
  6
CONTINUOUS
 62
           7
100
AcDbLine
 10
-338.586108694783
 20
157.438188623081
 11
-340.021577404798
 21
157.589062464095
  0
LINE
  5
C9
100
AcDbEntity
  8
1
  6
CONTINUOUS
 62
           7
100
AcDbLine
 10
-337.999034918861
 20
156.119599333364
 11
-338.586108694783
 21
157.438188623081
  0
LINE
  5
C8
100
AcDbEntity
  8
1
  6
CONTINUOUS
 62
           7
100
AcDbLine
 10
-338.847429852953
 20
154.95188388466
 11
-337.999034918861
 21
156.119599333364
  0
LINE
  5
C7
100
AcDbEntity
  8
1
  6
CONTINUOUS
 62
           7
100
AcDbLine
 10
-340.282898562967
 20
155.102757725674
 11
-338.847429852953
 21
154.95188388466
  0
LINE
  5
C6
100
AcDbEntity
  8
1
  6
CONTINUOUS
 62
           7
100
AcDbLine
 10
-340.86997233889
 20
156.421347015391
 11
-340.282898562967
 21
155.102757725674
  0
LINE
  5
C5
100
AcDbEntity
  8
1
  6
CONTINUOUS
 62
           7
100
AcDbLine
 10
-322.463160807806
 20
149.628312163513
 11
-321.213160807805
 21
148.906624327026
  0
LINE
  5
C4
100
AcDbEntity
  8
1
  6
CONTINUOUS
 62
           7
100
AcDbLine
 10
-321.213160807805
 20
148.906624327026
 11
-319.963160807805
 21
149.628312163513
  0
LINE
  5
C3
100
AcDbEntity
  8
1
  6
CONTINUOUS
 62
           7
100
AcDbLine
 10
-319.963160807805
 20
149.628312163513
 11
-319.963160807806
 21
151.071687836487
  0
LINE
  5
C2
100
AcDbEntity
  8
1
  6
CONTINUOUS
 62
           7
100
AcDbLine
 10
-319.963160807806
 20
151.071687836487
 11
-321.213160807806
 21
151.793375672974
  0
LINE
  5
C1
100
AcDbEntity
  8
1
  6
CONTINUOUS
 62
           7
100
AcDbLine
 10
-321.213160807806
 20
151.793375672974
 11
-322.463160807806
 21
151.071687836487
  0
LINE
  5
C0
100
AcDbEntity
  8
1
  6
CONTINUOUS
 62
           7
100
AcDbLine
 10
-322.463160807806
 20
151.071687836487
 11
-322.463160807806
 21
149.628312163513
  0
LINE
  5
BF
100
AcDbEntity
  8
1
  6
CONTINUOUS
 62
           7
100
AcDbLine
 10
-304.427286696754
 20
156.119599333364
 11
-303.578891762662
 21
154.95188388466
  0
LINE
  5
BE
100
AcDbEntity
  8
1
  6
CONTINUOUS
 62
           7
100
AcDbLine
 10
-303.840212920832
 20
157.438188623081
 11
-304.427286696754
 21
156.119599333364
  0
LINE
  5
BD
100
AcDbEntity
  8
1
  6
CONTINUOUS
 62
           7
100
AcDbLine
 10
-302.404744210817
 20
157.589062464095
 11
-303.840212920832
 21
157.438188623081
  0
LINE
  5
BC
100
AcDbEntity
  8
1
  6
CONTINUOUS
 62
           7
100
AcDbLine
 10
-301.556349276725
 20
156.421347015391
 11
-302.404744210817
 21
157.589062464095
  0
LINE
  5
BB
100
AcDbEntity
  8
1
  6
CONTINUOUS
 62
           7
100
AcDbLine
 10
-302.143423052648
 20
155.102757725674
 11
-301.556349276725
 21
156.421347015391
  0
LINE
  5
BA
100
AcDbEntity
  8
1
  6
CONTINUOUS
 62
           7
100
AcDbLine
 10
-303.578891762662
 20
154.95188388466
 11
-302.143423052648
 21
155.102757725674
  0
LINE
  5
B9
100
AcDbEntity
  8
1
  6
CONTINUOUS
 62
           7
100
AcDbLine
 10
-291.430314126004
 20
170.3586387229
 11
-290.357676963414
 21
171.324445562161
  0
LINE
  5
B8
100
AcDbEntity
  8
1
  6
CONTINUOUS
 62
           7
100
AcDbLine
 10
-290.357676963414
 20
171.324445562161
 11
-290.657771640067
 21
172.736280013639
  0
LINE
  5
B7
100
AcDbEntity
  8
1
  6
CONTINUOUS
 62
           7
100
AcDbLine
 10
-290.657771640067
 20
172.736280013639
 11
-292.030503479311
 21
173.182307625855
  0
LINE
  5
B6
100
AcDbEntity
  8
1
  6
CONTINUOUS
 62
           7
100
AcDbLine
 10
-292.030503479311
 20
173.182307625855
 11
-293.103140641901
 21
172.216500786594
  0
LINE
  5
B5
100
AcDbEntity
  8
1
  6
CONTINUOUS
 62
           7
100
AcDbLine
 10
-293.103140641901
 20
172.216500786594
 11
-292.803045965248
 21
170.804666335117
  0
LINE
  5
B4
100
AcDbEntity
  8
1
  6
CONTINUOUS
 62
           7
100
AcDbLine
 10
-292.803045965248
 20
170.804666335117
 11
-291.430314126004
 21
170.3586387229
  0
LINE
  5
B3
100
AcDbEntity
  8
1
  6
CONTINUOUS
 62
           7
100
AcDbLine
 10
-290.657771640066
 20
189.963719986359
 11
-290.357676963413
 21
191.375554437836
  0
LINE
  5
B2
100
AcDbEntity
  8
1
  6
CONTINUOUS
 62
           7
100
AcDbLine
 10
-290.357676963413
 20
191.375554437836
 11
-291.430314126004
 21
192.341361277097
  0
LINE
  5
B1
100
AcDbEntity
  8
1
  6
CONTINUOUS
 62
           7
100
AcDbLine
 10
-291.430314126004
 20
192.341361277097
 11
-292.803045965247
 21
191.895333664881
  0
LINE
  5
B0
100
AcDbEntity
  8
1
  6
CONTINUOUS
 62
           7
100
AcDbLine
 10
-292.803045965247
 20
191.895333664881
 11
-293.103140641901
 21
190.483499213404
  0
LINE
  5
AF
100
AcDbEntity
  8
1
  6
CONTINUOUS
 62
           7
100
AcDbLine
 10
-293.103140641901
 20
190.483499213404
 11
-292.03050347931
 21
189.517692374143
  0
LINE
  5
AE
100
AcDbEntity
  8
1
  6
CONTINUOUS
 62
           7
100
AcDbLine
 10
-292.03050347931
 20
189.517692374143
 11
-290.657771640066
 21
189.963719986359
  0
LINE
  5
AD
100
AcDbEntity
  8
1
  6
CONTINUOUS
 62
           7
100
AcDbLine
 10
-302.404744210818
 20
205.110937535906
 11
-301.556349276726
 21
206.27865298461
  0
LINE
  5
AC
100
AcDbEntity
  8
1
  6
CONTINUOUS
 62
           7
100
AcDbLine
 10
-303.840212920833
 20
205.26181137692
 11
-302.404744210818
 21
205.110937535906
  0
LINE
  5
AB
100
AcDbEntity
  8
1
  6
CONTINUOUS
 62
           7
100
AcDbLine
 10
-304.427286696756
 20
206.580400666637
 11
-303.840212920833
 21
205.26181137692
  0
LINE
  5
AA
100
AcDbEntity
  8
1
  6
CONTINUOUS
 62
           7
100
AcDbLine
 10
-303.578891762664
 20
207.748116115341
 11
-304.427286696756
 21
206.580400666637
  0
LINE
  5
A9
100
AcDbEntity
  8
1
  6
CONTINUOUS
 62
           7
100
AcDbLine
 10
-302.143423052649
 20
207.597242274327
 11
-303.578891762664
 21
207.748116115341
  0
LINE
  5
A8
100
AcDbEntity
  8
1
  6
CONTINUOUS
 62
           7
100
AcDbLine
 10
-301.556349276726
 20
206.27865298461
 11
-302.143423052649
 21
207.597242274327
  0
LINE
  5
A7
100
AcDbEntity
  8
1
  6
CONTINUOUS
 62
           7
100
AcDbLine
 10
-197.809456203979
 20
186.34999980635
 11
-200.60945620398
 21
186.34999980635
  0
LINE
  5
A6
100
AcDbEntity
  8
1
  6
CONTINUOUS
 62
           7
100
AcDbLine
 10
-197.20945620398
 20
189.74999980635
 11
-201.20945620398
 21
189.74999980635
  0
LINE
  5
A5
100
AcDbEntity
  8
1
  6
CONTINUOUS
 62
           7
100
AcDbLine
 10
-201.20945620398
 20
189.74999980635
 11
-201.20945620398
 21
187.389230290891
  0
LINE
  5
A4
100
AcDbEntity
  8
1
  6
CONTINUOUS
 62
           7
100
AcDbLine
 10
-201.20945620398
 20
187.389230290891
 11
-197.20945620398
 21
187.389230290891
  0
LINE
  5
A3
100
AcDbEntity
  8
1
  6
CONTINUOUS
 62
           7
100
AcDbLine
 10
-197.20945620398
 20
187.389230290891
 11
-197.20945620398
 21
189.74999980635
  0
LINE
  5
A2
100
AcDbEntity
  8
1
  6
CONTINUOUS
 62
           7
100
AcDbLine
 10
-197.20945620398
 20
189.74999980635
 11
-197.809456203979
 21
190.34999980635
  0
LINE
  5
A1
100
AcDbEntity
  8
1
  6
CONTINUOUS
 62
           7
100
AcDbLine
 10
-197.809456203979
 20
190.34999980635
 11
-200.60945620398
 21
190.34999980635
  0
LINE
  5
A0
100
AcDbEntity
  8
1
  6
CONTINUOUS
 62
           7
100
AcDbLine
 10
-200.60945620398
 20
190.34999980635
 11
-201.20945620398
 21
189.74999980635
  0
LINE
  5
9F
100
AcDbEntity
  8
1
  6
CONTINUOUS
 62
           7
100
AcDbLine
 10
-201.20945620398
 20
187.389230290891
 11
-200.60945620398
 21
186.34999980635
  0
LINE
  5
9E
100
AcDbEntity
  8
1
  6
CONTINUOUS
 62
           7
100
AcDbLine
 10
-197.20945620398
 20
187.389230290891
 11
-197.809456203979
 21
186.34999980635
  0
LINE
  5
9D
100
AcDbEntity
  8
1
  6
CONTINUOUS
 62
           3
100
AcDbLine
 10
-200.60945620398
 20
190.34999980635
 11
-200.60945620398
 21
186.34999980635
  0
LINE
  5
9C
100
AcDbEntity
  8
1
  6
CONTINUOUS
 62
           3
100
AcDbLine
 10
-197.809456203979
 20
190.34999980635
 11
-197.809456203979
 21
186.34999980635
  0
LINE
  5
9B
100
AcDbEntity
  8
0
  6
CONTINUOUS
 62
           7
100
AcDbLine
 10
-206.20945620398
 20
165.140471620406
 11
-206.20945620398
 21
171.35
  0
LINE
  5
9A
100
AcDbEntity
  8
1
  6
CONTINUOUS
 62
           7
100
AcDbLine
 10
-214.50945620398
 20
175.949986472438
 11
-214.50945620398
 21
166.418184796166
  0
LINE
  5
99
100
AcDbEntity
  8
1
  6
CONTINUOUS
 62
           7
100
AcDbLine
 10
-214.50945620398
 20
196.281815203834
 11
-214.50945620398
 21
175.949986472438
  0
LINE
  5
98
100
AcDbEntity
  8
0
  6
CONTINUOUS
 62
           7
100
AcDbLine
 10
-206.20945620398
 20
197.559528379594
 11
-206.20945620398
 21
191.35
  0
LINE
  5
97
100
AcDbEntity
  8
1
  6
CONTINUOUS
 62
           3
100
AcDbLine
 10
-201.20945620398
 20
191.35
 11
-201.20945620398
 21
186.349986472438
  0
LINE
  5
96
100
AcDbEntity
  8
1
  6
CONTINUOUS
 62
           7
100
AcDbLine
 10
-200.60945620398
 20
191.35
 11
-200.60945620398
 21
190.34999980635
  0
LINE
  5
95
100
AcDbEntity
  8
1
  6
CONTINUOUS
 62
           7
100
AcDbLine
 10
-197.809456203979
 20
191.35
 11
-197.809456203979
 21
190.34999980635
  0
LINE
  5
94
100
AcDbEntity
  8
1
  6
CONTINUOUS
 62
           3
100
AcDbLine
 10
-197.20945620398
 20
191.35
 11
-197.20945620398
 21
186.349986472438
  0
LINE
  5
93
100
AcDbEntity
  8
1
  6
CONTINUOUS
 62
           7
100
AcDbLine
 10
-214.10945620398
 20
176.349986472438
 11
-196.10945620398
 21
176.349986472438
  0
LINE
  5
92
100
AcDbEntity
  8
1
  6
CONTINUOUS
 62
           7
100
AcDbLine
 10
-214.10945620398
 20
186.349986472438
 11
-196.10945620398
 21
186.349986472438
  0
LINE
  5
91
100
AcDbEntity
  8
0
  6
CONTINUOUS
 62
           7
100
AcDbLine
 10
-206.20945620398
 20
191.35
 11
-196.10945620398
 21
191.35
  0
LINE
  5
90
100
AcDbEntity
  8
0
  6
CONTINUOUS
 62
           7
100
AcDbLine
 10
-206.20945620398
 20
171.35
 11
-196.10945620398
 21
171.35
  0
LINE
  5
8F
100
AcDbEntity
  8
0
  6
CONTINUOUS
 62
           7
100
AcDbLine
 10
-195.70945620398
 20
190.95
 11
-195.70945620398
 21
186.749986472438
  0
LINE
  5
8E
100
AcDbEntity
  8
0
  6
CONTINUOUS
 62
           7
100
AcDbLine
 10
-195.70945620398
 20
175.949986472438
 11
-195.70945620398
 21
171.75
  0
LINE
  5
8D
100
AcDbEntity
  8
1
  6
CONTINUOUS
 62
           7
100
AcDbLine
 10
-214.10945620398
 20
186.349986472438
 11
-214.50945620398
 21
186.749986472438
  0
LINE
  5
8C
100
AcDbEntity
  8
1
  6
CONTINUOUS
 62
           7
100
AcDbLine
 10
-195.70945620398
 20
186.749986472438
 11
-196.10945620398
 21
186.349986472438
  0
LINE
  5
8B
100
AcDbEntity
  8
1
  6
CONTINUOUS
 62
           7
100
AcDbLine
 10
-195.70945620398
 20
175.949986472438
 11
-196.10945620398
 21
176.349986472438
  0
LINE
  5
8A
100
AcDbEntity
  8
1
  6
CONTINUOUS
 62
           7
100
AcDbLine
 10
-214.50945620398
 20
175.949986472438
 11
-214.10945620398
 21
176.349986472438
  0
LINE
  5
89
100
AcDbEntity
  8
1
  6
CONTINUOUS
 62
           7
100
AcDbLine
 10
-195.70945620398
 20
186.749986472438
 11
-195.70945620398
 21
175.949986472438
  0
LINE
  5
88
100
AcDbEntity
  8
1
  6
CONTINUOUS
 62
           7
100
AcDbLine
 10
-195.70945620398
 20
190.95
 11
-196.10945620398
 21
191.35
  0
LINE
  5
87
100
AcDbEntity
  8
1
  6
CONTINUOUS
 62
           7
100
AcDbLine
 10
-195.70945620398
 20
171.75
 11
-196.10945620398
 21
171.35
  0
LINE
  5
86
100
AcDbEntity
  8
1
  6
CONTINUOUS
 62
           7
100
AcDbLine
 10
-197.508494309656
 20
219.55094777325
 11
-196.95945620398
 21
219.55094777325
  0
LINE
  5
85
100
AcDbEntity
  8
1
  6
CONTINUOUS
 62
           7
100
AcDbLine
 10
-201.83445620398
 20
220.200466826088
 11
-201.83445620398
 21
227.849985878926
  0
LINE
  5
84
100
AcDbEntity
  8
1
  6
CONTINUOUS
 62
           7
100
AcDbLine
 10
-207.709456240008
 20
137.85
 11
-207.709456240008
 21
135.350000399246
  0
LINE
  5
83
100
AcDbEntity
  8
1
  6
CONTINUOUS
 62
           7
100
AcDbLine
 10
-190.709460641026
 20
135.350000399246
 11
-190.709460641026
 21
162.85000077485
  0
LINE
  5
82
100
AcDbEntity
  8
1
  6
CONTINUOUS
 62
           7
100
AcDbLine
 10
-207.709456240008
 20
137.6
 11
-190.709460641026
 21
137.6
  0
LINE
  5
81
100
AcDbEntity
  8
1
  6
CONTINUOUS
 62
           7
100
AcDbLine
 10
-203.20945623999
 20
166.349986278172
 11
-203.209456239991
 21
153.35
  0
LINE
  5
80
100
AcDbEntity
  8
1
  6
CONTINUOUS
 62
           7
100
AcDbLine
 10
-193.209460736026
 20
174.349986278172
 11
-193.209460736026
 21
163.35000077485
  0
LINE
  5
7F
100
AcDbEntity
  8
1
  6
CONTINUOUS
 62
           7
100
AcDbLine
 10
-194.709456240008
 20
174.349986278172
 11
-194.709456240008
 21
168.986897431205
  0
LINE
  5
7E
100
AcDbEntity
  8
1
  6
CONTINUOUS
 62
           7
100
AcDbLine
 10
-190.709460641026
 20
162.85000077485
 11
-190.709460641026
 21
199.84999922515
  0
LINE
  5
7D
100
AcDbEntity
  8
1
  6
CONTINUOUS
 62
           7
100
AcDbLine
 10
-207.709456240008
 20
152.85
 11
-207.209456240008
 21
153.35
  0
LINE
  5
7C
100
AcDbEntity
  8
1
  6
CONTINUOUS
 62
           7
100
AcDbLine
 10
-203.209456239991
 20
153.35
 11
-207.209456240008
 21
153.35
  0
LINE
  5
7B
100
AcDbEntity
  8
1
  6
CONTINUOUS
 62
           7
100
AcDbLine
 10
-203.209456239991
 20
209.35
 11
-203.20945623999
 21
196.349986278172
  0
LINE
  5
7A
100
AcDbEntity
  8
1
  6
CONTINUOUS
 62
           7
100
AcDbLine
 10
-190.709460641026
 20
199.84999922515
 11
-190.709460641026
 21
200.949986278172
  0
LINE
  5
79
100
AcDbEntity
  8
1
  6
CONTINUOUS
 62
           7
100
AcDbLine
 10
-193.209460736026
 20
199.34999922515
 11
-191.209460641026
 21
199.34999922515
  0
LINE
  5
78
100
AcDbEntity
  8
1
  6
CONTINUOUS
 62
           7
100
AcDbLine
 10
-194.709456240008
 20
188.349986278172
 11
-193.209460736026
 21
188.349986278172
  0
LINE
  5
77
100
AcDbEntity
  8
1
  6
CONTINUOUS
 62
           7
100
AcDbLine
 10
-193.209460736026
 20
199.34999922515
 11
-193.209460736026
 21
174.349986278172
  0
LINE
  5
76
100
AcDbEntity
  8
1
  6
CONTINUOUS
 62
           7
100
AcDbLine
 10
-193.209460736026
 20
174.349986278172
 11
-194.709456240008
 21
174.349986278172
  0
LINE
  5
75
100
AcDbEntity
  8
1
  6
CONTINUOUS
 62
           7
100
AcDbLine
 10
-191.209460641026
 20
163.35000077485
 11
-193.209460736026
 21
163.35000077485
  0
LINE
  5
74
100
AcDbEntity
  8
1
  6
CONTINUOUS
 62
           7
100
AcDbLine
 10
-191.209460641026
 20
227.849999600754
 11
-207.209456240008
 21
227.849999600754
  0
LINE
  5
73
100
AcDbEntity
  8
1
  6
CONTINUOUS
 62
           7
100
AcDbLine
 10
-207.209456240008
 20
209.35
 11
-203.209456239991
 21
209.35
  0
LINE
  5
72
100
AcDbEntity
  8
1
  6
CONTINUOUS
 62
           7
100
AcDbLine
 10
-207.209456240008
 20
134.850000399246
 11
-191.209460641026
 21
134.850000399246
  0
LINE
  5
71
100
AcDbEntity
  8
1
  6
CONTINUOUS
 62
           7
100
AcDbLine
 10
-207.709456240008
 20
227.349999600754
 11
-207.709456240008
 21
209.85
  0
LINE
  5
70
100
AcDbEntity
  8
1
  6
CONTINUOUS
 62
           7
100
AcDbLine
 10
-191.209460641026
 20
199.34999922515
 11
-190.709460641026
 21
199.84999922515
  0
LINE
  5
6F
100
AcDbEntity
  8
1
  6
CONTINUOUS
 62
           7
100
AcDbLine
 10
-190.709460641026
 20
162.85000077485
 11
-191.209460641026
 21
163.35000077485
  0
LINE
  5
6E
100
AcDbEntity
  8
1
  6
CONTINUOUS
 62
           7
100
AcDbLine
 10
-207.709456240008
 20
209.85
 11
-207.209456240008
 21
209.35
  0
LINE
  5
6D
100
AcDbEntity
  8
1
  6
CONTINUOUS
 62
           7
100
AcDbLine
 10
-191.209460641026
 20
227.849999600754
 11
-190.709460641026
 21
227.349999600754
  0
LINE
  5
6C
100
AcDbEntity
  8
1
  6
CONTINUOUS
 62
           7
100
AcDbLine
 10
-191.209460641026
 20
134.850000399246
 11
-190.709460641026
 21
135.350000399246
  0
LINE
  5
6B
100
AcDbEntity
  8
1
  6
CONTINUOUS
 62
           7
100
AcDbLine
 10
-207.709456240008
 20
135.350000399246
 11
-207.209456240008
 21
134.850000399246
  0
LINE
  5
6A
100
AcDbEntity
  8
1
  6
CONTINUOUS
 62
           7
100
AcDbLine
 10
-207.709456240008
 20
227.349999600754
 11
-207.209456240008
 21
227.849999600754
  0
LINE
  5
69
100
AcDbEntity
  8
1
  6
CONTINUOUS
 62
           7
100
AcDbLine
 10
-196.95945620398
 20
196.349986278172
 11
-196.95945620398
 21
219.55094777325
  0
LINE
  5
68
100
AcDbEntity
  8
1
  6
CONTINUOUS
 62
           7
100
AcDbLine
 10
-201.45945620398
 20
196.349986278172
 11
-201.45945620398
 21
219.55094777325
  0
LINE
  5
67
100
AcDbEntity
  8
1
  6
CONTINUOUS
 62
           7
100
AcDbLine
 10
-201.45945620398
 20
219.55094777325
 11
-202.20945620398
 21
220.849985878927
  0
LINE
  5
66
100
AcDbEntity
  8
1
  6
CONTINUOUS
 62
           3
100
AcDbLine
 10
-202.20945620398
 20
220.849985878927
 11
-202.20945620398
 21
227.849985878926
  0
LINE
  5
65
100
AcDbEntity
  8
1
  6
CONTINUOUS
 62
           7
100
AcDbLine
 10
-201.45945620398
 20
219.55094777325
 11
-200.910418098303
 21
219.55094777325
  0
LINE
  5
64
100
AcDbEntity
  8
1
  6
CONTINUOUS
 62
           7
100
AcDbLine
 10
-196.58445620398
 20
227.849985878926
 11
-196.58445620398
 21
220.200466826089
  0
LINE
  5
63
100
AcDbEntity
  8
1
  6
CONTINUOUS
 62
           7
100
AcDbLine
 10
-196.20945620398
 20
220.849985878926
 11
-196.95945620398
 21
219.55094777325
  0
LINE
  5
62
100
AcDbEntity
  8
1
  6
CONTINUOUS
 62
           3
100
AcDbLine
 10
-196.20945620398
 20
227.849985878926
 11
-196.20945620398
 21
220.849985878926
  0
LINE
  5
61
100
AcDbEntity
  8
1
  6
CONTINUOUS
 62
           7
100
AcDbLine
 10
-194.709456240008
 20
196.349986278172
 11
-203.20945623999
 21
196.349986278172
  0
LINE
  5
60
100
AcDbEntity
  8
1
  6
CONTINUOUS
 62
           7
100
AcDbLine
 10
-194.709456240008
 20
196.349986278172
 11
-194.709456240008
 21
174.349986278172
  0
LINE
  5
5F
100
AcDbEntity
  8
1
  6
CONTINUOUS
 62
           7
100
AcDbLine
 10
-194.709456240008
 20
166.349986278172
 11
-203.20945623999
 21
166.349986278172
  0
LINE
  5
5E
100
AcDbEntity
  8
1
  6
DASH_CENTER
 62
           3
100
AcDbLine
 10
-199.20945620398
 20
229.117850451184
 11
-199.20945620398
 21
209.389066998642
  0
LINE
  5
5D
100
AcDbEntity
  8
1
  6
CONTINUOUS
 62
           7
100
AcDbLine
 10
-207.709456240008
 20
152.85
 11
-207.709456240008
 21
140.35
  0
LINE
  5
5C
100
AcDbEntity
  8
1
  6
CONTINUOUS
 62
           7
100
AcDbLine
 10
-190.909460641026
 20
203.849986278172
 11
-192.009460641026
 21
203.849986278172
  0
LINE
  5
5B
100
AcDbEntity
  8
1
  6
CONTINUOUS
 62
           7
100
AcDbLine
 10
-192.209460641026
 20
203.649986278172
 11
-192.209460641026
 21
201.349986278172
  0
LINE
  5
5A
100
AcDbEntity
  8
1
  6
CONTINUOUS
 62
           7
100
AcDbLine
 10
-190.909460641026
 20
201.149986278172
 11
-192.009460641026
 21
201.149986278172
  0
LINE
  5
59
100
AcDbEntity
  8
1
  6
CONTINUOUS
 62
           7
100
AcDbLine
 10
-192.209460641026
 20
161.350013721828
 11
-192.209460641026
 21
159.049986278172
  0
LINE
  5
58
100
AcDbEntity
  8
1
  6
CONTINUOUS
 62
           7
100
AcDbLine
 10
-192.012773752736
 20
161.549986278172
 11
-190.909488084682
 21
161.549986278172
  0
LINE
  5
57
100
AcDbEntity
  8
1
  6
CONTINUOUS
 62
           7
100
AcDbLine
 10
-190.709460641026
 20
204.049986278172
 11
-190.709460641026
 21
227.349999600754
  0
LINE
  5
56
100
AcDbEntity
  8
1
  6
CONTINUOUS
 62
           7
100
AcDbLine
 10
-190.709460641026
 20
204.049986278172
 11
-190.909460641026
 21
203.849986278172
  0
LINE
  5
55
100
AcDbEntity
  8
1
  6
CONTINUOUS
 62
           7
100
AcDbLine
 10
-190.909460641026
 20
201.149986278172
 11
-190.709460641026
 21
200.949986278172
  0
LINE
  5
54
100
AcDbEntity
  8
1
  6
CONTINUOUS
 62
           7
100
AcDbLine
 10
-190.709460641026
 20
200.949986278172
 11
-190.709460641026
 21
204.049986278172
  0
LINE
  5
53
100
AcDbEntity
  8
1
  6
CONTINUOUS
 62
           7
100
AcDbLine
 10
-190.90943319737
 20
158.849986278172
 11
-190.709460641026
 21
158.650013721828
  0
LINE
  5
52
100
AcDbEntity
  8
1
  6
CONTINUOUS
 62
           7
100
AcDbLine
 10
-190.709460641026
 20
161.750013721828
 11
-190.909488084682
 21
161.549986278172
  0
LINE
  5
51
100
AcDbEntity
  8
1
  6
CONTINUOUS
 62
           7
100
AcDbLine
 10
-192.009460641026
 20
158.849986278172
 11
-190.90943319737
 21
158.849986278172
  0
LINE
  5
50
100
AcDbEntity
  8
1
  6
CONTINUOUS
 62
           7
100
AcDbLine
 10
-203.20945623999
 20
196.349986278172
 11
-203.20945623999
 21
192.849986278172
  0
LINE
  5
4F
100
AcDbEntity
  8
1
  6
CONTINUOUS
 62
           7
100
AcDbLine
 10
-203.20945623999
 20
166.349986278172
 11
-203.20945623999
 21
169.849986278172
  0
LINE
  5
4E
100
AcDbEntity
  8
1
  6
DASH_CENTER
 62
           3
100
AcDbLine
 10
-199.20945620398
 20
209.389066998642
 11
-199.20945620398
 21
178.217850451184
  0
LINE
  5
4D
100
AcDbEntity
  8
1
  6
CONTINUOUS
 62
           7
100
AcDbLine
 10
-194.709456240008
 20
167.748720699652
 11
-194.709456240008
 21
166.349986278172
  0
LINE
  5
4C
100
AcDbEntity
  8
1
  6
CONTINUOUS
 62
           7
100
AcDbLine
 10
-190.709460641026
 20
137.85
 11
-190.709460641026
 21
137.65
  0
LINE
  5
4B
100
AcDbEntity
  8
1
  6
CONTINUOUS
 62
           7
100
AcDbLine
 10
-186.009460641026
 20
136.1
 11
-186.009460641026
 21
140.35
  0
LINE
  5
4A
100
AcDbEntity
  8
1
  6
CONTINUOUS
 62
           7
100
AcDbLine
 10
-215.009460641026
 20
140.35
 11
-215.009460641026
 21
137.85
  0
LINE
  5
49
100
AcDbEntity
  8
1
  6
CONTINUOUS
 62
           7
100
AcDbLine
 10
-192.309460641026
 20
137.85
 11
-190.909460641026
 21
137.85
  0
LINE
  5
48
100
AcDbEntity
  8
1
  6
CONTINUOUS
 62
           7
100
AcDbLine
 10
-192.309460641026
 20
137.85
 11
-192.309460641026
 21
140.35
  0
LINE
  5
47
100
AcDbEntity
  8
1
  6
CONTINUOUS
 62
           7
100
AcDbLine
 10
-190.709460641026
 20
137.65
 11
-190.709460641026
 21
136.1
  0
LINE
  5
46
100
AcDbEntity
  8
1
  6
CONTINUOUS
 62
           7
100
AcDbLine
 10
-215.009460641026
 20
137.85
 11
-192.309460641026
 21
137.85
  0
LINE
  5
45
100
AcDbEntity
  8
1
  6
CONTINUOUS
 62
           7
100
AcDbLine
 10
-215.709460641026
 20
138.55
 11
-215.009460641026
 21
137.85
  0
LINE
  5
44
100
AcDbEntity
  8
1
  6
CONTINUOUS
 62
           7
100
AcDbLine
 10
-215.709460641026
 20
140.35
 11
-215.709460641026
 21
138.55
  0
LINE
  5
43
100
AcDbEntity
  8
1
  6
CONTINUOUS
 62
           7
100
AcDbLine
 10
-185.709460641026
 20
136.4
 11
-185.709460641026
 21
140.35
  0
LINE
  5
42
100
AcDbEntity
  8
1
  6
CONTINUOUS
 62
           7
100
AcDbLine
 10
-186.009460641026
 20
136.1
 11
-185.709460641026
 21
136.4
  0
LINE
  5
41
100
AcDbEntity
  8
1
  6
CONTINUOUS
 62
           7
100
AcDbLine
 10
-190.709460641026
 20
136.1
 11
-186.009460641026
 21
136.1
  0
LINE
  5
40
100
AcDbEntity
  8
1
  6
CONTINUOUS
 62
           7
100
AcDbLine
 10
-190.709460641026
 20
140.35
 11
-190.709460641026
 21
137.85
  0
LINE
  5
3F
100
AcDbEntity
  8
1
  6
CONTINUOUS
 62
           3
100
AcDbLine
 10
-192.309460641026
 20
138.55
 11
-191.097025075728
 21
137.85
  0
LINE
  5
3E
100
AcDbEntity
  8
1
  6
CONTINUOUS
 62
           3
100
AcDbLine
 10
-192.309460641026
 20
138.55
 11
-215.709460641026
 21
138.55
  0
LINE
  5
3D
100
AcDbEntity
  8
1
  6
CONTINUOUS
 62
           7
100
AcDbLine
 10
-240.609456240007
 20
209.179526825623
 11
-243.409456240007
 21
209.179526825623
  0
LINE
  5
3C
100
AcDbEntity
  8
1
  6
CONTINUOUS
 62
           7
100
AcDbLine
 10
-243.409456240007
 20
209.179526825623
 11
-243.609456240007
 21
208.979526825623
  0
LINE
  5
3B
100
AcDbEntity
  8
1
  6
CONTINUOUS
 62
           7
100
AcDbLine
 10
-243.609456240007
 20
208.979526825623
 11
-243.609456240007
 21
203.879526825623
  0
LINE
  5
3A
100
AcDbEntity
  8
1
  6
CONTINUOUS
 62
           7
100
AcDbLine
 10
-243.609456240007
 20
203.879526825623
 11
-243.409456240007
 21
203.679526825623
  0
LINE
  5
39
100
AcDbEntity
  8
1
  6
CONTINUOUS
 62
           7
100
AcDbLine
 10
-243.409456240007
 20
203.679526825623
 11
-240.609456240007
 21
203.679526825623
  0
LINE
  5
38
100
AcDbEntity
  8
1
  6
CONTINUOUS
 62
           7
100
AcDbLine
 10
-240.609456240007
 20
203.679526825623
 11
-240.609456240007
 21
209.179526825623
  0
LINE
  5
37
100
AcDbEntity
  8
1
  6
CONTINUOUS
 62
           7
100
AcDbLine
 10
-243.409456240007
 20
209.179526825623
 11
-243.409456240007
 21
203.679526825623
  0
LINE
  5
36
100
AcDbEntity
  8
1
  6
CONTINUOUS
 62
           7
100
AcDbLine
 10
-243.409456240007
 20
159.020473174377
 11
-243.409456240007
 21
153.520473174377
  0
LINE
  5
35
100
AcDbEntity
  8
1
  6
CONTINUOUS
 62
           7
100
AcDbLine
 10
-240.609456240007
 20
153.520473174377
 11
-240.609456240007
 21
159.020473174377
  0
LINE
  5
34
100
AcDbEntity
  8
1
  6
CONTINUOUS
 62
           7
100
AcDbLine
 10
-240.609456240007
 20
159.020473174377
 11
-243.409456240007
 21
159.020473174377
  0
LINE
  5
33
100
AcDbEntity
  8
1
  6
CONTINUOUS
 62
           7
100
AcDbLine
 10
-243.409456240007
 20
159.020473174377
 11
-243.609456240007
 21
158.820473174377
  0
LINE
  5
32
100
AcDbEntity
  8
1
  6
CONTINUOUS
 62
           7
100
AcDbLine
 10
-243.609456240007
 20
158.820473174377
 11
-243.609456240007
 21
153.720473174377
  0
LINE
  5
31
100
AcDbEntity
  8
1
  6
CONTINUOUS
 62
           7
100
AcDbLine
 10
-243.609456240007
 20
153.720473174377
 11
-243.409456240007
 21
153.520473174377
  0
LINE
  5
30
100
AcDbEntity
  8
1
  6
CONTINUOUS
 62
           7
100
AcDbLine
 10
-243.409456240007
 20
153.520473174377
 11
-240.609456240007
 21
153.520473174377
  0
LINE
  5
2F
100
AcDbEntity
  8
1
  6
CONTINUOUS
 62
           7
100
AcDbLine
 10
-243.409456240007
 20
147.6
 11
-240.609456240007
 21
147.6
  0
LINE
  5
2E
100
AcDbEntity
  8
1
  6
CONTINUOUS
 62
           7
100
AcDbLine
 10
-243.609456240007
 20
147.8
 11
-243.409456240007
 21
147.6
  0
LINE
  5
2D
100
AcDbEntity
  8
1
  6
CONTINUOUS
 62
           7
100
AcDbLine
 10
-243.609456240007
 20
152.9
 11
-243.609456240007
 21
147.8
  0
LINE
  5
2C
100
AcDbEntity
  8
1
  6
CONTINUOUS
 62
           7
100
AcDbLine
 10
-243.409456240007
 20
153.1
 11
-243.609456240007
 21
152.9
  0
LINE
  5
2B
100
AcDbEntity
  8
1
  6
CONTINUOUS
 62
           7
100
AcDbLine
 10
-240.609456240007
 20
153.1
 11
-243.409456240007
 21
153.1
  0
LINE
  5
2A
100
AcDbEntity
  8
1
  6
CONTINUOUS
 62
           7
100
AcDbLine
 10
-240.609456240007
 20
147.6
 11
-240.609456240007
 21
153.1
  0
LINE
  5
29
100
AcDbEntity
  8
1
  6
CONTINUOUS
 62
           7
100
AcDbLine
 10
-243.409456240007
 20
153.1
 11
-243.409456240007
 21
147.6
  0
CIRCLE
  5
25F
100
AcDbEntity
  8
0
 62
           7
100
AcDbCircle
 10
-321.283871485926
 20
190.920710678118
 40
0.5
  0
HATCH
  5
260
100
AcDbEntity
  8
0
 62
           7
100
AcDbHatch
 10
0.0
 20
0.0
 30
0.0
210
0.0
220
0.0
230
1.0
  2
SOLID
 70
           1
 71
           1
 91
        1
 92
        1
 93
        1
 72
           2
 10
-321.28387148592628
 20
190.92071067811841
 40
0.5
 50
-180.0
 51
180.0
 73
           1
 97
        1
330
25F
 75
           0
 76
           1
 98
        1
 10
0.0
 20
0.0
  0
CIRCLE
  5
262
100
AcDbEntity
  8
0
 62
           7
100
AcDbCircle
 10
-314.495646386536
 20
188.167514421272
 40
0.5
  0
HATCH
  5
263
100
AcDbEntity
  8
0
 62
           7
100
AcDbHatch
 10
0.0
 20
0.0
 30
0.0
210
0.0
220
0.0
230
1.0
  2
SOLID
 70
           1
 71
           1
 91
        1
 92
        1
 93
        1
 72
           2
 10
-314.49564638653561
 20
188.1675144212721
 40
0.5
 50
-180.0
 51
180.0
 73
           1
 97
        1
330
262
 75
           0
 76
           1
 98
        1
 10
0.0
 20
0.0
  0
CIRCLE
  5
265
100
AcDbEntity
  8
0
 62
           7
100
AcDbCircle
 10
-311.642450129689
 20
181.420710678119
 40
0.5
  0
HATCH
  5
266
100
AcDbEntity
  8
0
 62
           7
100
AcDbHatch
 10
0.0
 20
0.0
 30
0.0
210
0.0
220
0.0
230
1.0
  2
SOLID
 70
           1
 71
           1
 91
        1
 92
        1
 93
        1
 72
           2
 10
-311.64245012968922
 20
181.42071067811861
 40
0.5
 50
-180.0
 51
180.0
 73
           1
 97
        1
330
265
 75
           0
 76
           1
 98
        1
 10
0.0
 20
0.0
  0
CIRCLE
  5
268
100
AcDbEntity
  8
0
 62
           7
100
AcDbCircle
 10
-314.395646386535
 20
174.632485578728
 40
0.5
  0
HATCH
  5
269
100
AcDbEntity
  8
0
 62
           7
100
AcDbHatch
 10
0.0
 20
0.0
 30
0.0
210
0.0
220
0.0
230
1.0
  2
SOLID
 70
           1
 71
           1
 91
        1
 92
        1
 93
        1
 72
           2
 10
-314.39564638653542
 20
174.63248557872791
 40
0.5
 50
-180.0
 51
180.0
 73
           1
 97
        1
330
268
 75
           0
 76
           1
 98
        1
 10
0.0
 20
0.0
  0
CIRCLE
  5
26B
100
AcDbEntity
  8
0
 62
           7
100
AcDbCircle
 10
-321.142450129689
 20
171.779289321881
 40
0.5
  0
HATCH
  5
26C
100
AcDbEntity
  8
0
 62
           7
100
AcDbHatch
 10
0.0
 20
0.0
 30
0.0
210
0.0
220
0.0
230
1.0
  2
SOLID
 70
           1
 71
           1
 91
        1
 92
        1
 93
        1
 72
           2
 10
-321.142450129689
 20
171.77928932188149
 40
0.5
 50
-180.0
 51
180.0
 73
           1
 97
        1
330
26B
 75
           0
 76
           1
 98
        1
 10
0.0
 20
0.0
  0
CIRCLE
  5
26E
100
AcDbEntity
  8
0
 62
           7
100
AcDbCircle
 10
-327.93067522908
 20
174.532485578728
 40
0.5
  0
HATCH
  5
26F
100
AcDbEntity
  8
0
 62
           7
100
AcDbHatch
 10
0.0
 20
0.0
 30
0.0
210
0.0
220
0.0
230
1.0
  2
SOLID
 70
           1
 71
           1
 91
        1
 92
        1
 93
        1
 72
           2
 10
-327.93067522907972
 20
174.53248557872789
 40
0.5
 50
-180.0
 51
180.0
 73
           1
 97
        1
330
26E
 75
           0
 76
           1
 98
        1
 10
0.0
 20
0.0
  0
CIRCLE
  5
271
100
AcDbEntity
  8
0
 62
           7
100
AcDbCircle
 10
-330.783871485926
 20
181.279289321881
 40
0.5
  0
HATCH
  5
272
100
AcDbEntity
  8
0
 62
           7
100
AcDbHatch
 10
0.0
 20
0.0
 30
0.0
210
0.0
220
0.0
230
1.0
  2
SOLID
 70
           1
 71
           1
 91
        1
 92
        1
 93
        1
 72
           2
 10
-330.78387148592628
 20
181.27928932188141
 40
0.5
 50
-180.0
 51
180.0
 73
           1
 97
        1
330
271
 75
           0
 76
           1
 98
        1
 10
0.0
 20
0.0
  0
CIRCLE
  5
274
100
AcDbEntity
  8
0
 62
           7
100
AcDbCircle
 10
-316.620959619427
 20
192.436554390135
 40
0.5
  0
HATCH
  5
275
100
AcDbEntity
  8
0
 62
           7
100
AcDbHatch
 10
0.0
 20
0.0
 30
0.0
210
0.0
220
0.0
230
1.0
  2
SOLID
 70
           1
 71
           1
 91
        1
 92
        1
 93
        1
 72
           2
 10
-316.62095961942691
 20
192.43655439013509
 40
0.5
 50
-180.0
 51
180.0
 73
           1
 97
        1
330
274
 75
           0
 76
           1
 98
        1
 10
0.0
 20
0.0
  0
CIRCLE
  5
277
100
AcDbEntity
  8
0
 62
           7
100
AcDbCircle
 10
-310.126606417672
 20
185.942201188381
 40
0.5
  0
HATCH
  5
278
100
AcDbEntity
  8
0
 62
           7
100
AcDbHatch
 10
0.0
 20
0.0
 30
0.0
210
0.0
220
0.0
230
1.0
  2
SOLID
 70
           1
 71
           1
 91
        1
 92
        1
 93
        1
 72
           2
 10
-310.12660641767212
 20
185.94220118838101
 40
0.5
 50
-180.0
 51
180.0
 73
           1
 97
        1
330
277
 75
           0
 76
           1
 98
        1
 10
0.0
 20
0.0
  0
CIRCLE
  5
27A
100
AcDbEntity
  8
0
 62
           7
100
AcDbCircle
 10
-310.126606417672
 20
176.757798811619
 40
0.5
  0
HATCH
  5
27B
100
AcDbEntity
  8
0
 62
           7
100
AcDbHatch
 10
0.0
 20
0.0
 30
0.0
210
0.0
220
0.0
230
1.0
  2
SOLID
 70
           1
 71
           1
 91
        1
 92
        1
 93
        1
 72
           2
 10
-310.12660641767241
 20
176.75779881161921
 40
0.5
 50
-180.0
 51
180.0
 73
           1
 97
        1
330
27A
 75
           0
 76
           1
 98
        1
 10
0.0
 20
0.0
  0
CIRCLE
  5
27D
100
AcDbEntity
  8
0
 62
           7
100
AcDbCircle
 10
-316.620959619427
 20
170.263445609865
 40
0.5
  0
HATCH
  5
27E
100
AcDbEntity
  8
0
 62
           7
100
AcDbHatch
 10
0.0
 20
0.0
 30
0.0
210
0.0
220
0.0
230
1.0
  2
SOLID
 70
           1
 71
           1
 91
        1
 92
        1
 93
        1
 72
           2
 10
-316.62095961942651
 20
170.2634456098649
 40
0.5
 50
-180.0
 51
180.0
 73
           1
 97
        1
330
27D
 75
           0
 76
           1
 98
        1
 10
0.0
 20
0.0
  0
CIRCLE
  5
280
100
AcDbEntity
  8
0
 62
           7
100
AcDbCircle
 10
-325.805361996188
 20
170.263445609865
 40
0.5
  0
HATCH
  5
281
100
AcDbEntity
  8
0
 62
           7
100
AcDbHatch
 10
0.0
 20
0.0
 30
0.0
210
0.0
220
0.0
230
1.0
  2
SOLID
 70
           1
 71
           1
 91
        1
 92
        1
 93
        1
 72
           2
 10
-325.80536199618842
 20
170.2634456098647
 40
0.5
 50
-180.0
 51
180.0
 73
           1
 97
        1
330
280
 75
           0
 76
           1
 98
        1
 10
0.0
 20
0.0
  0
CIRCLE
  5
283
100
AcDbEntity
  8
0
 62
           7
100
AcDbCircle
 10
-332.299715197943
 20
176.757798811619
 40
0.5
  0
HATCH
  5
284
100
AcDbEntity
  8
0
 62
           7
100
AcDbHatch
 10
0.0
 20
0.0
 30
0.0
210
0.0
220
0.0
230
1.0
  2
SOLID
 70
           1
 71
           1
 91
        1
 92
        1
 93
        1
 72
           2
 10
-332.29971519794282
 20
176.75779881161881
 40
0.5
 50
-180.0
 51
180.0
 73
           1
 97
        1
330
283
 75
           0
 76
           1
 98
        1
 10
0.0
 20
0.0
  0
CIRCLE
  5
286
100
AcDbEntity
  8
0
 62
           7
100
AcDbCircle
 10
-332.299715197943
 20
185.942201188381
 40
0.5
  0
HATCH
  5
287
100
AcDbEntity
  8
0
 62
           7
100
AcDbHatch
 10
0.0
 20
0.0
 30
0.0
210
0.0
220
0.0
230
1.0
  2
SOLID
 70
           1
 71
           1
 91
        1
 92
        1
 93
        1
 72
           2
 10
-332.29971519794287
 20
185.94220118838081
 40
0.5
 50
-180.0
 51
180.0
 73
           1
 97
        1
330
286
 75
           0
 76
           1
 98
        1
 10
0.0
 20
0.0
  0
CIRCLE
  5
289
100
AcDbEntity
  8
0
 62
           7
100
AcDbCircle
 10
-328.03067522908
 20
188.067514421272
 40
0.5
  0
HATCH
  5
28A
100
AcDbEntity
  8
0
 62
           7
100
AcDbHatch
 10
0.0
 20
0.0
 30
0.0
210
0.0
220
0.0
230
1.0
  2
SOLID
 70
           1
 71
           1
 91
        1
 92
        1
 93
        1
 72
           2
 10
-328.03067522907992
 20
188.06751442127219
 40
0.5
 50
-180.0
 51
180.0
 73
           1
 97
        1
330
289
 75
           0
 76
           1
 98
        1
 10
0.0
 20
0.0
  0
CIRCLE
  5
28C
100
AcDbEntity
  8
0
 62
           7
100
AcDbCircle
 10
-325.805361996189
 20
192.436554390135
 40
0.5
  0
HATCH
  5
28D
100
AcDbEntity
  8
0
 62
           7
100
AcDbHatch
 10
0.0
 20
0.0
 30
0.0
210
0.0
220
0.0
230
1.0
  2
SOLID
 70
           1
 71
           1
 91
        1
 92
        1
 93
        1
 72
           2
 10
-325.80536199618882
 20
192.4365543901352
 40
0.5
 50
-180.0
 51
180.0
 73
           1
 97
        1
330
28C
 75
           0
 76
           1
 98
        1
 10
0.0
 20
0.0
  0
ENDSEC
  0
SECTION
  2
OBJECTS
  0
DICTIONARY
  5
19
100
AcDbDictionary
  3
ACAD_GROUP
350
1A
  3
ACAD_MLINESTYLE
350
1B
  0
DICTIONARY
  5
1A
102
{ACAD_REACTORS
330
19
102
}
100
AcDbDictionary
  0
DICTIONARY
  5
1B
102
{ACAD_REACTORS
330
19
102
}
100
AcDbDictionary
  3
STANDARD
350
1C
  0
MLINESTYLE
  5
1C
102
{ACAD_REACTORS
330
1B
102
}
100
AcDbMlineStyle
  2
STANDARD
 70
           0
  3

 62
           0
 51
90.0
 52
90.0
 71
           2
 49
0.5
 62
         256
  6
BYLAYER
 49
-0.5
 62
         256
  6
BYLAYER
  0
ENDSEC
  0
EOF
